  0
SECTION
  2
HEADER
  9
$ACADVER
  1
AC1009
  9
$INSBASE
 10
0.0
 20
0.0
 30
0.0
  9
$EXTMIN
 10
1903.0405749290021
 20
1433.173578249188
 30
0.0
  9
$EXTMAX
 10
2477.640338062301
 20
1748.173578249188
 30
0.0
  9
$LIMMIN
 10
0.0
 20
0.0
  9
$LIMMAX
 10
12.0
 20
9.0
  9
$ORTHOMODE
 70
     0
  9
$REGENMODE
 70
     1
  9
$FILLMODE
 70
     1
  9
$QTEXTMODE
 70
     0
  9
$MIRRTEXT
 70
     0
  9
$DRAGMODE
 70
     2
  9
$LTSCALE
 40
5.0
  9
$OSMODE
 70
  2239
  9
$ATTMODE
 70
     1
  9
$TEXTSIZE
 40
2.5
  9
$TRACEWID
 40
0.05
  9
$TEXTSTYLE
  7
BIG
  9
$CLAYER
  8
0
  9
$CELTYPE
  6
BYLAYER
  9
$CECOLOR
 62
   256
  9
$DIMSCALE
 40
1.0
  9
$DIMASZ
 40
3.0
  9
$DIMEXO
 40
1.0
  9
$DIMDLI
 40
0.0
  9
$DIMRND
 40
0.0
  9
$DIMDLE
 40
0.0
  9
$DIMEXE
 40
1.0
  9
$DIMTP
 40
0.0
  9
$DIMTM
 40
0.0
  9
$DIMTXT
 40
3.0
  9
$DIMCEN
 40
0.0
  9
$DIMTSZ
 40
0.0
  9
$DIMTOL
 70
     0
  9
$DIMLIM
 70
     0
  9
$DIMTIH
 70
     0
  9
$DIMTOH
 70
     0
  9
$DIMSE1
 70
     0
  9
$DIMSE2
 70
     0
  9
$DIMTAD
 70
     1
  9
$DIMZIN
 70
     8
  9
$DIMBLK
  1

  9
$DIMASO
 70
     1
  9
$DIMSHO
 70
     1
  9
$DIMPOST
  1

  9
$DIMAPOST
  1

  9
$DIMALT
 70
     0
  9
$DIMALTD
 70
     2
  9
$DIMALTF
 40
25.399999999999999
  9
$DIMLFAC
 40
1.0
  9
$DIMTOFL
 70
     1
  9
$DIMTVP
 40
0.0
  9
$DIMTIX
 70
     1
  9
$DIMSOXD
 70
     0
  9
$DIMSAH
 70
     0
  9
$DIMBLK1
  1

  9
$DIMBLK2
  1

  9
$DIMSTYLE
  2
DUKITEC
  9
$DIMCLRD
 70
     5
  9
$DIMCLRE
 70
     5
  9
$DIMCLRT
 70
     0
  9
$DIMTFAC
 40
1.0
  9
$DIMGAP
 40
1.0
  9
$LUNITS
 70
     2
  9
$LUPREC
 70
     4
  9
$SKETCHINC
 40
0.1
  9
$FILLETRAD
 40
0.2
  9
$AUNITS
 70
     0
  9
$AUPREC
 70
     0
  9
$MENU
  1
.
  9
$ELEVATION
 40
0.0
  9
$PELEVATION
 40
0.0
  9
$THICKNESS
 40
0.0
  9
$LIMCHECK
 70
     0
  9
$BLIPMODE
 70
     0
  9
$CHAMFERA
 40
0.5
  9
$CHAMFERB
 40
0.5
  9
$SKPOLY
 70
     0
  9
$TDCREATE
 40
2454396.710554109
  9
$TDUPDATE
 40
2456630.6965640979
  9
$TDINDWG
 40
0.0085338889
  9
$TDUSRTIMER
 40
0.0085338194
  9
$USRTIMER
 70
     1
  9
$ANGBASE
 50
0.0
  9
$ANGDIR
 70
     0
  9
$PDMODE
 70
     0
  9
$PDSIZE
 40
0.0
  9
$PLINEWID
 40
0.0
  9
$COORDS
 70
     1
  9
$SPLFRAME
 70
     0
  9
$SPLINETYPE
 70
     6
  9
$SPLINESEGS
 70
     8
  9
$ATTDIA
 70
     0
  9
$ATTREQ
 70
     1
  9
$HANDLING
 70
     1
  9
$HANDSEED
  5
14578
  9
$SURFTAB1
 70
     6
  9
$SURFTAB2
 70
     6
  9
$SURFTYPE
 70
     6
  9
$SURFU
 70
     6
  9
$SURFV
 70
     6
  9
$UCSNAME
  2

  9
$UCSORG
 10
0.0
 20
0.0
 30
0.0
  9
$UCSXDIR
 10
1.0
 20
0.0
 30
0.0
  9
$UCSYDIR
 10
0.0
 20
1.0
 30
0.0
  9
$PUCSNAME
  2

  9
$PUCSORG
 10
0.0
 20
0.0
 30
0.0
  9
$PUCSXDIR
 10
1.0
 20
0.0
 30
0.0
  9
$PUCSYDIR
 10
0.0
 20
1.0
 30
0.0
  9
$USERI1
 70
     0
  9
$USERI2
 70
     0
  9
$USERI3
 70
     0
  9
$USERI4
 70
     0
  9
$USERI5
 70
     0
  9
$USERR1
 40
0.0
  9
$USERR2
 40
0.0
  9
$USERR3
 40
0.0
  9
$USERR4
 40
0.0
  9
$USERR5
 40
0.0
  9
$WORLDVIEW
 70
     1
  9
$SHADEDGE
 70
     3
  9
$SHADEDIF
 70
    70
  9
$TILEMODE
 70
     1
  9
$MAXACTVP
 70
    64
  9
$PLIMCHECK
 70
     0
  9
$PEXTMIN
 10
0.0
 20
0.0
 30
0.0
  9
$PEXTMAX
 10
0.0
 20
0.0
 30
0.0
  9
$PLIMMIN
 10
0.0
 20
0.0
  9
$PLIMMAX
 10
12.0
 20
9.0
  9
$UNITMODE
 70
     0
  9
$VISRETAIN
 70
     1
  9
$PLINEGEN
 70
     0
  9
$PSLTSCALE
 70
     1
  0
ENDSEC
  0
SECTION
  2
TABLES
  0
TABLE
  2
VPORT
 70
     1
  0
VPORT
  2
*ACTIVE
 70
     0
 10
0.0
 20
0.0
 11
1.0
 21
1.0
 12
2103.1597397677092
 22
1609.2987742254179
 13
0.0
 23
0.0
 14
0.5
 24
0.5
 15
0.5
 25
0.5
 16
0.0
 26
0.0
 36
1.0
 17
0.0
 27
0.0
 37
0.0
 40
298.3909721471291
 41
2.2661691542288551
 42
50.0
 43
0.0
 44
0.0
 50
0.0
 51
0.0
 71
     0
 72
  2000
 73
     1
 74
     3
 75
     0
 76
     0
 77
     0
 78
     0
  0
ENDTAB
  0
TABLE
  2
LTYPE
 70
     5
  0
LTYPE
  2
CONTINUOUS
 70
     0
  3
Solid line
 72
    65
 73
     0
 40
0.0
  0
LTYPE
  2
PHANTOM2
 70
     0
  3
Phantom (.5x) ___ _ _ ___ _ _ ___ _ _ ___ _ _
 72
    65
 73
     6
 40
1.25
 49
0.625
 49
-0.125
 49
0.125
 49
-0.125
 49
0.125
 49
-0.125
  0
LTYPE
  2
CENTER
 70
     0
  3
___ _ ___ _ ___ _ ___ _ ___ _ ___ _ ___ _ ___ _
 72
    65
 73
     4
 40
0.95
 49
0.625
 49
-0.125
 49
0.075
 49
-0.125
  0
LTYPE
  2
DASHED2
 70
     0
  3
Dashed (.5x) _ _ _ _ _ _ _ _ _ _ _ _ _ _ _ _ _
 72
    65
 73
     2
 40
0.375
 49
0.25
 49
-0.125
  0
ENDTAB
  0
TABLE
  2
LAYER
 70
     4
  0
LAYER
  2
0
 70
     0
 62
     7
  6
CONTINUOUS
  0
LAYER
  2
HIDE
 70
     0
 62
     1
  6
DASHED2
  0
LAYER
  2
CENTER
 70
     0
 62
     3
  6
CENTER
  0
ENDTAB
  0
TABLE
  2
STYLE
 70
     3
  0
STYLE
  2
STANDARD
 70
     0
 40
5.0
 41
1.0
 50
0.0
 71
     0
 42
5.0
  3
txt.shx
  4
whgtxt.shx
  0
STYLE
  2
BIG
 70
     0
 40
20.0
 41
1.0
 50
0.0
 71
     0
 42
2.5
  3
txt
  4

  0
ENDTAB
  0
TABLE
  2
VIEW
 70
     0
  0
ENDTAB
  0
TABLE
  2
UCS
 70
     0
  0
ENDTAB
  0
TABLE
  2
APPID
 70
    10
  0
APPID
  2
ACAD
 70
     0
  0
APPID
  2
ACADANNOTATIVE
 70
     0
  0
APPID
  2
ACAD_EXEMPT_FROM_CAD_STANDARDS
 70
     0
  0
APPID
  2
ACAD_DSTYLE_DIMJOGGED_JOGA
 70
     0
  0
APPID
  2
ACAD_PSEXT
 70
     0
  0
APPID
  2
ACAECLAYERSTANDARD
 70
     0
  0
APPID
  2
DCO15
 70
     0
  0
APPID
  2
CONTENTBLOCKICON
 70
     0
  0
APPID
  2
ACAD_NAV_VCDISPLAY
 70
     0
  0
APPID
  2
ACAD_MLEADERVER
 70
     0
  0
ENDTAB
  0
TABLE
  2
DIMSTYLE
 70
     4
  0
DIMSTYLE
  2
DUKITEC
 70
     0
  3

  4

  5

  6

  7

 40
1.0
 41
3.0
 42
1.0
 43
0.0
 44
1.0
 45
0.0
 46
0.0
 47
0.0
 48
0.0
140
3.0
141
0.0
142
0.0
143
25.399999999999999
144
1.0
145
0.0
146
1.0
147
1.0
 71
     0
 72
     0
 73
     0
 74
     0
 75
     0
 76
     0
 77
     1
 78
     8
170
     0
171
     2
172
     1
173
     0
174
     1
175
     0
176
     5
177
     5
178
     0
  0
ENDTAB
  0
ENDSEC
  0
SECTION
  2
BLOCKS
  0
BLOCK
  8
0
  2
$MODEL_SPACE
 70
     0
 10
0.0
 20
0.0
 30
0.0
  3
$MODEL_SPACE
  1

  0
ENDBLK
  5
140D5
  8
0
  0
BLOCK
 67
     1
  8
0
  2
$PAPER_SPACE
 70
     0
 10
0.0
 20
0.0
 30
0.0
  3
$PAPER_SPACE
  1

  0
ENDBLK
  5
140D1
 67
     1
  8
0
  0
ENDSEC
  0
SECTION
  2
ENTITIES
  0
TEXT
  5
1402E
  8
0
 10
2042.898598974341
 20
1513.3193360413729
 30
0.0
 40
20.0
  1
AK 20
  7
BIG
  0
LINE
  5
14146
  8
0
 10
2026.4492582403129
 20
1575.167695395291
 30
0.0
 11
2023.949286240314
 21
1576.61105439529
 31
0.0
  0
LINE
  5
14147
  8
0
 10
2023.9492622403141
 20
1570.837575395291
 30
0.0
 11
2021.4492902403131
 21
1572.2809343952911
 31
0.0
  0
LINE
  5
14148
  8
0
 10
2023.9492462403141
 20
1576.61097639529
 30
0.0
 11
2021.4492752403139
 21
1575.167617395291
 31
0.0
  0
LINE
  5
14149
  8
0
 10
2026.4492392403131
 20
1572.280862395291
 30
0.0
 11
2023.949267240313
 21
1570.837502395291
 31
0.0
  0
LINE
  5
1414A
  8
0
 10
2026.449227240314
 20
1572.2808473952909
 30
0.0
 11
2026.449227240314
 21
1575.167596395291
 31
0.0
  0
LINE
  5
1414B
  8
0
 10
2021.449227240314
 20
1572.2808473952909
 30
0.0
 11
2021.449227240314
 21
1575.16758139529
 31
0.0
  0
LINE
  5
1414C
  8
CENTER
 10
2028.402051240314
 20
1578.1770513952899
 30
0.0
 11
2019.647464240313
 21
1569.4224613952911
 31
0.0
  0
ARC
  5
1414E
  8
0
 10
2043.7482074408831
 20
1593.523206069975
 30
0.0
 40
35.0
 50
128.2132107016526
 51
141.78678929834749
  0
ARC
  5
1414F
  8
0
 10
2043.7482074408831
 20
1593.523206069975
 30
0.0
 40
35.0
 50
218.2132107017099
 51
231.7867892982251
  0
ARC
  5
14150
  8
0
 10
2043.7482074408831
 20
1593.523206069975
 30
0.0
 40
35.0
 50
308.2132107016526
 51
321.78678929834751
  0
ARC
  5
14151
  8
0
 10
2043.7482074408831
 20
1593.523206069975
 30
0.0
 40
35.0
 50
38.21321070170994
 51
51.786789298289733
  0
LINE
  5
14152
  8
0
 10
2016.2482074408811
 20
1571.872570975368
 30
0.0
 11
2016.248207440882
 21
1615.1738411645831
 31
0.0
  0
LINE
  5
14153
  8
0
 10
2022.0975723462741
 20
1621.0232060699759
 30
0.0
 11
2065.398842535496
 21
1621.0232060699709
 31
0.0
  0
LINE
  5
14154
  8
0
 10
2071.2482074408822
 20
1615.1738411645849
 30
0.0
 11
2071.2482074408849
 21
1571.872570975366
 31
0.0
  0
LINE
  5
14155
  8
0
 10
2065.3988425354919
 20
1566.0232060699741
 30
0.0
 11
2022.097572346272
 21
1566.023206069977
 31
0.0
  0
CIRCLE
  5
14156
  8
0
 10
2043.7482074408831
 20
1593.523206069975
 30
0.0
 40
21.0
  0
ARC
  5
14157
  8
CENTER
 10
2043.7482074408831
 20
1593.523206069975
 30
0.0
 40
28.0
 50
120.6125521602989
 51
149.3874479149062
  0
CIRCLE
  5
14158
  8
0
 10
2023.9492175676589
 20
1613.322195943198
 30
0.0
 40
5.5
  0
CIRCLE
  5
14159
  8
0
 10
2023.9492175676601
 20
1573.7242161967511
 30
0.0
 40
5.5
  0
CIRCLE
  5
1415A
  8
0
 10
2063.5471973141061
 20
1613.322195943198
 30
0.0
 40
5.5
  0
CIRCLE
  5
1415B
  8
0
 10
2063.5471973141061
 20
1573.7242161967511
 30
0.0
 40
5.5
  0
LINE
  5
1415C
  8
0
 10
2061.0471566414531
 20
1575.167695395291
 30
0.0
 11
2063.5471286414531
 21
1576.61105439529
 31
0.0
  0
LINE
  5
1415D
  8
0
 10
2063.5471526414531
 20
1570.837575395291
 30
0.0
 11
2066.0471246414531
 21
1572.2809343952911
 31
0.0
  0
LINE
  5
1415E
  8
0
 10
2063.547168641453
 20
1576.61097639529
 30
0.0
 11
2066.0471396414532
 21
1575.167617395291
 31
0.0
  0
LINE
  5
1415F
  8
0
 10
2061.0471756414531
 20
1572.280862395291
 30
0.0
 11
2063.5471476414532
 21
1570.837502395291
 31
0.0
  0
LINE
  5
14160
  8
0
 10
2061.0471876414522
 20
1572.2808473952909
 30
0.0
 11
2061.0471876414522
 21
1575.167596395291
 31
0.0
  0
LINE
  5
14161
  8
0
 10
2066.0471876414531
 20
1572.2808473952909
 30
0.0
 11
2066.0471876414531
 21
1575.16758139529
 31
0.0
  0
LINE
  5
14162
  8
CENTER
 10
2059.0943636414522
 20
1578.1770513952899
 30
0.0
 11
2067.848950641453
 21
1569.4224613952911
 31
0.0
  0
LINE
  5
14163
  8
0
 10
2026.4492582403129
 20
1611.878716744659
 30
0.0
 11
2023.949286240314
 21
1610.4353577446591
 31
0.0
  0
LINE
  5
14164
  8
0
 10
2023.9492622403141
 20
1616.208836744659
 30
0.0
 11
2021.4492902403131
 21
1614.7654777446589
 31
0.0
  0
LINE
  5
14165
  8
0
 10
2023.9492462403141
 20
1610.4354357446589
 30
0.0
 11
2021.4492752403139
 21
1611.878794744659
 31
0.0
  0
LINE
  5
14166
  8
0
 10
2026.4492392403131
 20
1614.765549744659
 30
0.0
 11
2023.949267240313
 21
1616.208909744659
 31
0.0
  0
LINE
  5
14167
  8
0
 10
2026.449227240314
 20
1614.7655647446591
 30
0.0
 11
2026.449227240314
 21
1611.8788157446591
 31
0.0
  0
LINE
  5
14168
  8
0
 10
2021.449227240314
 20
1614.7655647446591
 30
0.0
 11
2021.449227240314
 21
1611.8788307446589
 31
0.0
  0
LINE
  5
14169
  8
CENTER
 10
2028.402051240314
 20
1608.8693607446601
 30
0.0
 11
2019.647464240313
 21
1617.6239507446589
 31
0.0
  0
LINE
  5
1416A
  8
0
 10
2061.0471566414531
 20
1611.878716744659
 30
0.0
 11
2063.5471286414531
 21
1610.4353577446591
 31
0.0
  0
LINE
  5
1416B
  8
0
 10
2063.5471526414531
 20
1616.208836744659
 30
0.0
 11
2066.0471246414531
 21
1614.7654777446589
 31
0.0
  0
LINE
  5
1416C
  8
0
 10
2063.547168641453
 20
1610.4354357446589
 30
0.0
 11
2066.0471396414532
 21
1611.878794744659
 31
0.0
  0
LINE
  5
1416D
  8
0
 10
2061.0471756414531
 20
1614.765549744659
 30
0.0
 11
2063.5471476414532
 21
1616.208909744659
 31
0.0
  0
LINE
  5
1416E
  8
0
 10
2061.0471876414522
 20
1614.7655647446591
 30
0.0
 11
2061.0471876414522
 21
1611.8788157446591
 31
0.0
  0
LINE
  5
1416F
  8
0
 10
2066.0471876414531
 20
1614.7655647446591
 30
0.0
 11
2066.0471876414531
 21
1611.8788307446589
 31
0.0
  0
LINE
  5
14170
  8
CENTER
 10
2059.0943636414522
 20
1608.8693607446601
 30
0.0
 11
2067.848950641453
 21
1617.6239507446589
 31
0.0
  0
ARC
  5
14171
  8
0
 10
2043.7482034408829
 20
1593.523206069975
 30
0.0
 40
16.0
 50
163.95502437185911
 51
196.04497562814089
  0
ARC
  5
14172
  8
0
 10
2043.7482034408829
 20
1593.523206069975
 30
0.0
 40
16.0
 50
253.95502437186249
 51
286.04497562813748
  0
ARC
  5
14173
  8
0
 10
2043.7482034408829
 20
1593.523206069975
 30
0.0
 40
16.0
 50
343.95502437185911
 51
16.0449756281409
  0
ARC
  5
14174
  8
0
 10
2043.7482034408829
 20
1593.523206069975
 30
0.0
 40
16.0
 50
73.955024371862478
 51
106.04497562813749
  0
POLYLINE
  5
14175
  8
0
 66
     1
 10
0.0
 20
0.0
 30
0.0
  0
VERTEX
  5
14541
  8
0
 10
2039.325934079324
 20
1608.899926581639
 30
0.0
  0
VERTEX
  5
14542
  8
0
 10
2028.3714829292201
 20
1597.9454754315341
 30
0.0
  0
SEQEND
  5
14543
  8
0
  0
POLYLINE
  5
14176
  8
0
 66
     1
 10
0.0
 20
0.0
 30
0.0
  0
VERTEX
  5
14544
  8
0
 10
2028.3714829292201
 20
1589.1009367084141
 30
0.0
  0
VERTEX
  5
14545
  8
0
 10
2039.325934079324
 20
1578.146485558311
 30
0.0
  0
SEQEND
  5
14546
  8
0
  0
POLYLINE
  5
14177
  8
0
 66
     1
 10
0.0
 20
0.0
 30
0.0
  0
VERTEX
  5
14547
  8
0
 10
2048.1704728024429
 20
1578.146485558311
 30
0.0
  0
VERTEX
  5
14548
  8
0
 10
2059.1249239525469
 20
1589.1009367084159
 30
0.0
  0
SEQEND
  5
14549
  8
0
  0
POLYLINE
  5
14178
  8
0
 66
     1
 10
0.0
 20
0.0
 30
0.0
  0
VERTEX
  5
1454A
  8
0
 10
2059.1249239525469
 20
1597.9454754315341
 30
0.0
  0
VERTEX
  5
1454B
  8
0
 10
2048.1704728024429
 20
1608.899926581639
 30
0.0
  0
SEQEND
  5
1454C
  8
0
  0
ARC
  5
14179
  8
HIDE
 10
2043.7482034408829
 20
1593.523206069975
 30
0.0
 40
10.0
 50
270.0
 51
180.0
  0
CIRCLE
  5
1417A
  8
0
 10
2043.7482034408829
 20
1593.523206069975
 30
0.0
 40
9.5
  0
LINE
  5
1417B
  8
HIDE
 10
2046.2482034408829
 20
1609.326686699254
 30
0.0
 11
2046.248203440887
 21
1602.6883574598851
 31
0.0
  0
LINE
  5
1417C
  8
HIDE
 10
2045.8482034408839
 20
1609.384794893293
 30
0.0
 11
2045.8482034408851
 21
1602.7881939274951
 31
0.0
  0
LINE
  5
1417D
  8
HIDE
 10
2041.2482034408829
 20
1609.326686699254
 30
0.0
 11
2041.248203440887
 21
1602.6883574598869
 31
0.0
  0
LINE
  5
1417E
  8
HIDE
 10
2041.648203440883
 20
1609.384794893293
 30
0.0
 11
2041.648203440885
 21
1602.788193927496
 31
0.0
  0
LINE
  5
1417F
  8
HIDE
 10
2041.2482034408849
 20
1609.237697005316
 30
0.0
 11
2046.2482034408849
 21
1609.2376970053169
 31
0.0
  0
LINE
  5
14180
  8
HIDE
 10
2041.248203440887
 20
1605.237697005316
 30
0.0
 11
2046.248203440887
 21
1605.2376970053181
 31
0.0
  0
LINE
  5
14181
  8
HIDE
 10
2041.248203440887
 20
1605.237697005316
 30
0.0
 11
2041.648203440885
 21
1605.0067568976419
 31
0.0
  0
LINE
  5
14182
  8
HIDE
 10
2046.2482034408779
 20
1605.2376970053231
 30
0.0
 11
2045.8482034408819
 21
1605.0067568976481
 31
0.0
  0
LINE
  5
14183
  8
HIDE
 10
2041.648203440885
 20
1605.0067568976419
 30
0.0
 11
2045.8482034408851
 21
1605.0067568976419
 31
0.0
  0
LINE
  5
14184
  8
HIDE
 10
2046.2482034408829
 20
1577.719725440696
 30
0.0
 11
2046.248203440887
 21
1584.358054680064
 31
0.0
  0
LINE
  5
14185
  8
HIDE
 10
2045.8482034408839
 20
1577.661617246657
 30
0.0
 11
2045.8482034408851
 21
1584.258218212454
 31
0.0
  0
LINE
  5
14186
  8
HIDE
 10
2041.2482034408829
 20
1577.719725440696
 30
0.0
 11
2041.248203440887
 21
1584.3580546800631
 31
0.0
  0
LINE
  5
14187
  8
HIDE
 10
2041.648203440883
 20
1577.661617246657
 30
0.0
 11
2041.648203440885
 21
1584.258218212454
 31
0.0
  0
LINE
  5
14188
  8
HIDE
 10
2041.2482034408849
 20
1577.808715134634
 30
0.0
 11
2046.2482034408849
 21
1577.8087151346319
 31
0.0
  0
LINE
  5
14189
  8
HIDE
 10
2041.248203440887
 20
1581.808715134634
 30
0.0
 11
2046.248203440887
 21
1581.8087151346319
 31
0.0
  0
LINE
  5
1418A
  8
HIDE
 10
2041.248203440887
 20
1581.808715134634
 30
0.0
 11
2041.648203440885
 21
1582.0396552423081
 31
0.0
  0
LINE
  5
1418B
  8
HIDE
 10
2046.2482034408779
 20
1581.808715134626
 30
0.0
 11
2045.8482034408819
 21
1582.0396552423019
 31
0.0
  0
LINE
  5
1418C
  8
HIDE
 10
2041.648203440885
 20
1582.0396552423081
 30
0.0
 11
2045.8482034408851
 21
1582.0396552423081
 31
0.0
  0
ARC
  5
1418D
  8
CENTER
 10
2043.7481994408829
 20
1593.523206069975
 30
0.0
 40
28.0
 50
30.612552085093661
 51
59.387447839672447
  0
ARC
  5
1418E
  8
CENTER
 10
2043.7482074408831
 20
1593.523206069975
 30
0.0
 40
28.0
 50
210.61255208509371
 51
239.38744783970111
  0
ARC
  5
1418F
  8
CENTER
 10
2043.7481994408829
 20
1593.523206069975
 30
0.0
 40
28.0
 50
300.612552160299
 51
329.38744791490632
  0
LINE
  5
14193
  8
0
 10
2127.8004879493742
 20
1620.5232058397389
 30
0.0
 11
2137.800477949374
 21
1620.5232058397389
 31
0.0
  0
LINE
  5
14194
  8
0
 10
2127.8004879493742
 20
1566.523206069975
 30
0.0
 11
2137.800477949374
 21
1566.523206069975
 31
0.0
  0
LINE
  5
14195
  8
0
 10
2120.800477949374
 20
1577.523206069975
 30
0.0
 11
2127.8004879493742
 21
1577.523206069975
 31
0.0
  0
LINE
  5
14196
  8
0
 10
2120.800477949374
 20
1609.523206069975
 30
0.0
 11
2127.8004879493742
 21
1609.523206069975
 31
0.0
  0
LINE
  5
14197
  8
0
 10
2137.800477949374
 20
1608.523206069975
 30
0.0
 11
2179.800477949374
 21
1608.523206069975
 31
0.0
  0
LINE
  5
14198
  8
0
 10
2120.800477949374
 20
1577.523206069975
 30
0.0
 11
2120.800477949374
 21
1609.523206069975
 31
0.0
  0
LINE
  5
14199
  8
0
 10
2137.800477949374
 20
1619.523206069975
 30
0.0
 11
2179.800477949374
 21
1619.523206069975
 31
0.0
  0
LINE
  5
1419A
  8
0
 10
2137.800477949374
 20
1621.523206069975
 30
0.0
 11
2137.800477949374
 21
1563.523206069975
 31
0.0
  0
LINE
  5
1419B
  8
0
 10
2179.800477949374
 20
1563.523206069975
 30
0.0
 11
2137.800477949374
 21
1563.523206069975
 31
0.0
  0
LINE
  5
1419C
  8
0
 10
2179.800477949374
 20
1621.523206069975
 30
0.0
 11
2137.800477949374
 21
1621.523206069975
 31
0.0
  0
LINE
  5
1419D
  8
CENTER
 10
2185.1127063398449
 20
1593.523206069975
 30
0.0
 11
2116.850306019348
 21
1593.523206069975
 31
0.0
  0
LINE
  5
1419E
  8
HIDE
 10
2180.800477949374
 20
1583.523206069975
 30
0.0
 11
2169.800477949374
 21
1583.523206069975
 31
0.0
  0
LINE
  5
1419F
  8
HIDE
 10
2141.800477949374
 20
1583.523206069975
 30
0.0
 11
2130.800477949374
 21
1583.5232060699741
 31
0.0
  0
LINE
  5
141A0
  8
HIDE
 10
2180.800477949374
 20
1603.5232060699741
 30
0.0
 11
2169.800477949374
 21
1603.523206069975
 31
0.0
  0
LINE
  5
141A1
  8
HIDE
 10
2141.800477949374
 20
1603.523206069975
 30
0.0
 11
2130.800477949374
 21
1603.523206069975
 31
0.0
  0
LINE
  5
141A2
  8
HIDE
 10
2179.800477949374
 20
1580.7732060699759
 30
0.0
 11
2169.800477949374
 21
1580.773206069975
 31
0.0
  0
LINE
  5
141A3
  8
HIDE
 10
2141.800477949374
 20
1580.773206069975
 30
0.0
 11
2130.800477949374
 21
1580.773206069975
 31
0.0
  0
LINE
  5
141A4
  8
HIDE
 10
2179.8004779493731
 20
1606.2732060699741
 30
0.0
 11
2169.800477949374
 21
1606.273206069975
 31
0.0
  0
LINE
  5
141A5
  8
HIDE
 10
2141.800477949374
 20
1606.273206069975
 30
0.0
 11
2130.800477949374
 21
1606.2732060699741
 31
0.0
  0
LINE
  5
141A6
  8
0
 10
2127.8004879493742
 20
1620.5232058397389
 30
0.0
 11
2127.8004879493742
 21
1566.523206069975
 31
0.0
  0
LINE
  5
141A7
  8
0
 10
2179.800477949374
 20
1621.523206069975
 30
0.0
 11
2179.800477949374
 21
1563.523206069975
 31
0.0
  0
CIRCLE
  5
141A8
  8
HIDE
 10
2162.800477949374
 20
1576.773206069975
 30
0.0
 40
4.049999999999998
  0
CIRCLE
  5
141A9
  8
HIDE
 10
2162.800477949374
 20
1610.273206069975
 30
0.0
 40
4.049999999999998
  0
CIRCLE
  5
141AA
  8
HIDE
 10
2148.800477949374
 20
1576.773206069975
 30
0.0
 40
4.0499999999999989
  0
CIRCLE
  5
141AB
  8
HIDE
 10
2148.800477949374
 20
1610.273206069975
 30
0.0
 40
4.0499999999999989
  0
ARC
  5
141AC
  8
HIDE
 10
2155.2004779493741
 20
1616.423206069974
 30
0.0
 40
0.5999999999999996
 50
0.0
 51
90.0
  0
ARC
  5
141AD
  8
HIDE
 10
2142.800477949374
 20
1616.023206069975
 30
0.0
 40
1.0
 50
90.0
 51
180.0
  0
ARC
  5
141AE
  8
HIDE
 10
2154.800477949374
 20
1604.523206069975
 30
0.0
 40
1.0
 50
270.0
 51
0.0
  0
ARC
  5
141AF
  8
HIDE
 10
2154.800477949374
 20
1582.523206069975
 30
0.0
 40
1.0
 50
0.0
 51
90.0
  0
ARC
  5
141B0
  8
HIDE
 10
2142.4004779493739
 20
1604.1232060699749
 30
0.0
 40
0.6000000000000015
 50
180.0
 51
270.0
  0
ARC
  5
141B1
  8
HIDE
 10
2142.4004779493739
 20
1582.923206069974
 30
0.0
 40
0.5999999999999996
 50
90.0
 51
180.0
  0
ARC
  5
141B2
  8
HIDE
 10
2155.2004779493741
 20
1570.6232060699749
 30
0.0
 40
0.6000000000000015
 50
270.0
 51
0.0
  0
ARC
  5
141B3
  8
HIDE
 10
2142.800477949374
 20
1571.023206069975
 30
0.0
 40
1.0
 50
180.0
 51
270.0
  0
LINE
  5
141B4
  8
HIDE
 10
2141.800477949374
 20
1611.973206069975
 30
0.0
 11
2145.124542694231
 21
1611.973206069975
 31
0.0
  0
LINE
  5
141B5
  8
HIDE
 10
2142.800477949374
 20
1617.023206069975
 30
0.0
 11
2155.2004779493741
 21
1617.023206069975
 31
0.0
  0
LINE
  5
141B6
  8
HIDE
 10
2155.800477949374
 20
1608.473206069975
 30
0.0
 11
2152.4284939361082
 21
1608.473206069975
 31
0.0
  0
LINE
  5
141B7
  8
HIDE
 10
2150.2741597549448
 20
1614.04557428317
 30
0.0
 11
2155.800477949374
 21
1614.523206069975
 31
0.0
  0
LINE
  5
141B8
  8
HIDE
 10
2141.800477949374
 20
1608.473206069975
 30
0.0
 11
2145.1724619626389
 21
1608.473206069975
 31
0.0
  0
LINE
  5
141B9
  8
HIDE
 10
2141.800477949374
 20
1578.573206069975
 30
0.0
 11
2145.1724619626389
 21
1578.573206069975
 31
0.0
  0
LINE
  5
141BA
  8
HIDE
 10
2142.4004779493739
 20
1603.523206069975
 30
0.0
 11
2154.800477949374
 21
1603.523206069975
 31
0.0
  0
LINE
  5
141BB
  8
HIDE
 10
2142.4004779493739
 20
1583.523206069975
 30
0.0
 11
2154.800477949374
 21
1583.523206069975
 31
0.0
  0
LINE
  5
141BC
  8
HIDE
 10
2155.800477949374
 20
1578.573206069975
 30
0.0
 11
2152.4284939361082
 21
1578.573206069975
 31
0.0
  0
LINE
  5
141BD
  8
HIDE
 10
2141.800477949374
 20
1575.073206069975
 30
0.0
 11
2145.124542694231
 21
1575.073206069975
 31
0.0
  0
LINE
  5
141BE
  8
HIDE
 10
2155.2004779493741
 20
1570.023206069975
 30
0.0
 11
2142.800477949374
 21
1570.023206069975
 31
0.0
  0
LINE
  5
141BF
  8
HIDE
 10
2150.2741597549448
 20
1573.0008378567791
 30
0.0
 11
2155.800477949374
 21
1572.523206069975
 31
0.0
  0
LINE
  5
141C0
  8
HIDE
 10
2141.800477949374
 20
1571.023206069975
 30
0.0
 11
2141.800477949374
 21
1616.023206069975
 31
0.0
  0
LINE
  5
141C1
  8
HIDE
 10
2155.800477949374
 20
1616.423206069974
 30
0.0
 11
2155.800477949374
 21
1570.6232060699749
 31
0.0
  0
LINE
  5
141C2
  8
HIDE
 10
2155.7482354938188
 20
1614.5186908291739
 30
0.0
 11
2155.800477949374
 21
1614.570933284728
 31
0.0
  0
ARC
  5
141C3
  8
HIDE
 10
2156.400477949373
 20
1570.6232060699749
 30
0.0
 40
0.5999999999999996
 50
180.0
 51
270.0
  0
ARC
  5
141C4
  8
HIDE
 10
2168.8004779493731
 20
1571.023206069975
 30
0.0
 40
1.0
 50
270.0
 51
0.0
  0
ARC
  5
141C5
  8
HIDE
 10
2156.800477949374
 20
1582.523206069975
 30
0.0
 40
1.0
 50
90.0
 51
180.0
  0
ARC
  5
141C6
  8
HIDE
 10
2156.800477949374
 20
1604.523206069975
 30
0.0
 40
1.0
 50
180.0
 51
270.0
  0
ARC
  5
141C7
  8
HIDE
 10
2169.2004779493741
 20
1582.923206069974
 30
0.0
 40
0.6
 50
0.0
 51
90.0
  0
ARC
  5
141C8
  8
HIDE
 10
2169.2004779493741
 20
1604.1232060699749
 30
0.0
 40
0.5999999999999996
 50
270.0
 51
0.0
  0
ARC
  5
141C9
  8
HIDE
 10
2156.400477949373
 20
1616.4232060699751
 30
0.0
 40
0.6000000000000015
 50
90.0
 51
180.0
  0
ARC
  5
141CA
  8
HIDE
 10
2168.800477949374
 20
1616.023206069975
 30
0.0
 40
1.0
 50
0.0
 51
90.0
  0
LINE
  5
141CB
  8
HIDE
 10
2169.800477949374
 20
1575.073206069975
 30
0.0
 11
2166.476413204517
 21
1575.073206069975
 31
0.0
  0
LINE
  5
141CC
  8
HIDE
 10
2168.8004779493731
 20
1570.023206069975
 30
0.0
 11
2156.400477949373
 21
1570.023206069975
 31
0.0
  0
LINE
  5
141CD
  8
HIDE
 10
2155.8004779493731
 20
1578.573206069975
 30
0.0
 11
2159.1724619626402
 21
1578.573206069975
 31
0.0
  0
LINE
  5
141CE
  8
HIDE
 10
2161.3267961438019
 20
1573.0008378567791
 30
0.0
 11
2155.8004779493731
 21
1572.523206069975
 31
0.0
  0
LINE
  5
141CF
  8
HIDE
 10
2169.800477949374
 20
1578.573206069975
 30
0.0
 11
2166.4284939361082
 21
1578.573206069975
 31
0.0
  0
LINE
  5
141D0
  8
HIDE
 10
2169.800477949374
 20
1608.473206069975
 30
0.0
 11
2166.4284939361082
 21
1608.473206069975
 31
0.0
  0
LINE
  5
141D1
  8
HIDE
 10
2169.2004779493741
 20
1583.523206069975
 30
0.0
 11
2156.800477949374
 21
1583.523206069975
 31
0.0
  0
LINE
  5
141D2
  8
HIDE
 10
2169.2004779493741
 20
1603.523206069975
 30
0.0
 11
2156.800477949374
 21
1603.523206069975
 31
0.0
  0
LINE
  5
141D3
  8
HIDE
 10
2155.800477949374
 20
1608.473206069975
 30
0.0
 11
2159.1724619626402
 21
1608.473206069975
 31
0.0
  0
LINE
  5
141D4
  8
HIDE
 10
2169.800477949374
 20
1611.973206069975
 30
0.0
 11
2166.4764132045161
 21
1611.973206069975
 31
0.0
  0
LINE
  5
141D5
  8
HIDE
 10
2156.400477949373
 20
1617.023206069975
 30
0.0
 11
2168.800477949374
 21
1617.023206069975
 31
0.0
  0
LINE
  5
141D6
  8
HIDE
 10
2161.3267961438041
 20
1614.04557428317
 30
0.0
 11
2155.800477949374
 21
1614.523206069975
 31
0.0
  0
LINE
  5
141D7
  8
HIDE
 10
2169.800477949374
 20
1616.023206069975
 30
0.0
 11
2169.800477949374
 21
1571.023206069975
 31
0.0
  0
LINE
  5
141D8
  8
HIDE
 10
2155.800477949374
 20
1614.570933284728
 30
0.0
 11
2155.8527204049278
 21
1614.5186908291739
 31
0.0
  0
LINE
  5
141D9
  8
HIDE
 10
2130.800477949374
 20
1606.520721714701
 30
0.0
 11
2130.800477949374
 21
1580.525690425249
 31
0.0
  0
LINE
  5
141DA
  8
CENTER
 10
2125.800477949374
 20
1610.5704888128821
 30
0.0
 11
2125.800477949374
 21
1602.380299223769
 31
0.0
  0
LINE
  5
141DB
  8
HIDE
 10
2130.300477949374
 20
1609.523206069975
 30
0.0
 11
2130.300477949374
 21
1577.523206069975
 31
0.0
  0
LINE
  5
141DC
  8
0
 10
2120.800477949374
 20
1609.523206069975
 30
0.0
 11
2120.800477949374
 21
1577.523206069975
 31
0.0
  0
LINE
  5
141DD
  8
0
 10
2127.8004879493742
 20
1609.523206069975
 30
0.0
 11
2120.800477949374
 21
1609.523206069975
 31
0.0
  0
LINE
  5
141DE
  8
HIDE
 10
2130.800477949374
 20
1606.520721714701
 30
0.0
 11
2130.300477949374
 21
1606.8093968492949
 31
0.0
  0
LINE
  5
141DF
  8
HIDE
 10
2130.8004779493722
 20
1603.023206069975
 30
0.0
 11
2120.800477949374
 21
1603.023206069975
 31
0.0
  0
LINE
  5
141E0
  8
HIDE
 10
2130.8004779493722
 20
1603.523206069975
 30
0.0
 11
2120.800477949374
 21
1603.523206069975
 31
0.0
  0
LINE
  5
141E1
  8
0
 10
2127.8004879493742
 20
1597.9454754315341
 30
0.0
 11
2120.800477949374
 21
1597.9454754315341
 31
0.0
  0
LINE
  5
141E2
  8
HIDE
 10
2123.3004779493722
 20
1609.523206069975
 30
0.0
 11
2123.3004779493708
 21
1603.523206069975
 31
0.0
  0
LINE
  5
141E3
  8
HIDE
 10
2123.7004779493718
 20
1609.523206069975
 30
0.0
 11
2123.7004779493718
 21
1603.523206069975
 31
0.0
  0
LINE
  5
141E4
  8
HIDE
 10
2128.3004779493722
 20
1609.523206069975
 30
0.0
 11
2128.3004779493708
 21
1603.523206069975
 31
0.0
  0
LINE
  5
141E5
  8
HIDE
 10
2127.9004779493721
 20
1609.523206069975
 30
0.0
 11
2127.9004779493721
 21
1603.523206069975
 31
0.0
  0
LINE
  5
141E6
  8
HIDE
 10
2128.3004779493722
 20
1609.237697005316
 30
0.0
 11
2123.3004779493722
 21
1609.2376970053169
 31
0.0
  0
LINE
  5
141E7
  8
HIDE
 10
2128.3004779493708
 20
1605.237697005316
 30
0.0
 11
2123.3004779493708
 21
1605.2376970053181
 31
0.0
  0
LINE
  5
141E8
  8
HIDE
 10
2128.3004779493708
 20
1605.237697005316
 30
0.0
 11
2127.9004779493721
 21
1605.0067568976419
 31
0.0
  0
LINE
  5
141E9
  8
HIDE
 10
2123.3004779493799
 20
1605.2376970053231
 30
0.0
 11
2123.700477949375
 21
1605.0067568976481
 31
0.0
  0
LINE
  5
141EA
  8
HIDE
 10
2127.9004779493721
 20
1605.0067568976419
 30
0.0
 11
2123.7004779493718
 21
1605.0067568976419
 31
0.0
  0
LINE
  5
141EB
  8
CENTER
 10
2125.800477949374
 20
1576.475923327067
 30
0.0
 11
2125.800477949374
 21
1584.6661129161801
 31
0.0
  0
LINE
  5
141EC
  8
0
 10
2127.8004879493742
 20
1577.523206069975
 30
0.0
 11
2120.800477949374
 21
1577.523206069975
 31
0.0
  0
LINE
  5
141ED
  8
HIDE
 10
2130.800477949374
 20
1580.525690425249
 30
0.0
 11
2130.300477949374
 21
1580.2370152906551
 31
0.0
  0
LINE
  5
141EE
  8
HIDE
 10
2130.8004779493722
 20
1584.023206069975
 30
0.0
 11
2120.800477949374
 21
1584.023206069975
 31
0.0
  0
LINE
  5
141EF
  8
HIDE
 10
2130.8004779493722
 20
1583.523206069975
 30
0.0
 11
2120.800477949374
 21
1583.523206069975
 31
0.0
  0
LINE
  5
141F0
  8
0
 10
2127.8004879493742
 20
1589.1009367084159
 30
0.0
 11
2120.800477949374
 21
1589.1009367084159
 31
0.0
  0
LINE
  5
141F1
  8
HIDE
 10
2123.3004779493722
 20
1577.523206069975
 30
0.0
 11
2123.3004779493708
 21
1583.523206069975
 31
0.0
  0
LINE
  5
141F2
  8
HIDE
 10
2123.7004779493718
 20
1577.523206069975
 30
0.0
 11
2123.7004779493718
 21
1583.523206069975
 31
0.0
  0
LINE
  5
141F3
  8
HIDE
 10
2128.3004779493722
 20
1577.523206069975
 30
0.0
 11
2128.3004779493708
 21
1583.523206069975
 31
0.0
  0
LINE
  5
141F4
  8
HIDE
 10
2127.9004779493721
 20
1577.523206069975
 30
0.0
 11
2127.9004779493721
 21
1583.523206069975
 31
0.0
  0
LINE
  5
141F5
  8
HIDE
 10
2128.3004779493722
 20
1577.808715134634
 30
0.0
 11
2123.3004779493722
 21
1577.8087151346319
 31
0.0
  0
LINE
  5
141F6
  8
HIDE
 10
2128.3004779493708
 20
1581.808715134634
 30
0.0
 11
2123.3004779493708
 21
1581.8087151346319
 31
0.0
  0
LINE
  5
141F7
  8
HIDE
 10
2128.3004779493708
 20
1581.808715134634
 30
0.0
 11
2127.9004779493721
 21
1582.0396552423081
 31
0.0
  0
LINE
  5
141F8
  8
HIDE
 10
2123.3004779493799
 20
1581.808715134626
 30
0.0
 11
2123.700477949375
 21
1582.0396552423019
 31
0.0
  0
LINE
  5
141F9
  8
HIDE
 10
2127.9004779493721
 20
1582.0396552423081
 30
0.0
 11
2123.7004779493718
 21
1582.0396552423081
 31
0.0
  0
LINE
  5
141FA
  8
HIDE
 10
2127.8004879493742
 20
1597.9454754315341
 30
0.0
 11
2130.300477949374
 21
1597.9454754315341
 31
0.0
  0
LINE
  5
141FB
  8
HIDE
 10
2127.8004879493742
 20
1589.1009367084159
 30
0.0
 11
2130.300477949374
 21
1589.1009367084159
 31
0.0
  0
LINE
  5
141FC
  8
HIDE
 10
2127.8004879493742
 20
1609.523206069975
 30
0.0
 11
2130.300477949374
 21
1609.523206069975
 31
0.0
  0
LINE
  5
141FD
  8
HIDE
 10
2127.8004879493742
 20
1577.523206069975
 30
0.0
 11
2130.300477949374
 21
1577.523206069975
 31
0.0
  0
LINE
  5
141FE
  8
CENTER
 10
2169.800477949374
 20
1568.981752957121
 30
0.0
 11
2169.800477949374
 21
1555.5740572231609
 31
0.0
  0
LINE
  5
141FF
  8
CENTER
 10
2147.800477949374
 20
1568.981752957121
 30
0.0
 11
2147.8004779493749
 21
1555.5740572231609
 31
0.0
  0
LINE
  5
14202
  8
HIDE
 10
2014.7482074408831
 20
1608.523206069975
 30
0.0
 11
2014.7482074408831
 21
1593.523206069975
 31
0.0
  0
LINE
  5
14203
  8
HIDE
 10
2011.7482074408831
 20
1593.523206069975
 30
0.0
 11
2011.7482074408831
 21
1563.523206069975
 31
0.0
  0
LINE
  5
14204
  8
HIDE
 10
1997.7482074408831
 20
1608.523206069975
 30
0.0
 11
1997.7482074408831
 21
1593.523206069975
 31
0.0
  0
LINE
  5
14205
  8
HIDE
 10
2000.7482074408831
 20
1593.523206069975
 30
0.0
 11
2000.7482074408831
 21
1563.523206069975
 31
0.0
  0
LINE
  5
14206
  8
HIDE
 10
1997.7482074408831
 20
1593.523206069975
 30
0.0
 11
2014.7482074408831
 21
1593.523206069975
 31
0.0
  0
LINE
  5
14207
  8
HIDE
 10
2072.7482154408831
 20
1593.523206069975
 30
0.0
 11
2089.7482154408831
 21
1593.523206069975
 31
0.0
  0
LINE
  5
14208
  8
HIDE
 10
2075.7482154408831
 20
1593.523206069975
 30
0.0
 11
2075.7482154408831
 21
1563.523206069975
 31
0.0
  0
LINE
  5
14209
  8
HIDE
 10
2086.7482154408831
 20
1593.523206069975
 30
0.0
 11
2086.7482154408831
 21
1563.523206069975
 31
0.0
  0
LINE
  5
1420A
  8
HIDE
 10
2089.7482154408831
 20
1608.523206069975
 30
0.0
 11
2089.7482154408831
 21
1593.523206069975
 31
0.0
  0
LINE
  5
1420B
  8
HIDE
 10
2072.7482154408831
 20
1608.523206069975
 30
0.0
 11
2072.7482154408831
 21
1593.523206069975
 31
0.0
  0
LINE
  5
1420C
  8
0
 10
1996.2482074408831
 20
1563.523206069975
 30
0.0
 11
1996.2482074408831
 21
1608.523206069975
 31
0.0
  0
LINE
  5
1420D
  8
0
 10
2071.7482154408831
 20
1608.523206069975
 30
0.0
 11
2091.2482074408831
 21
1608.523206069975
 31
0.0
  0
LINE
  5
1420E
  8
0
 10
1996.2482074408831
 20
1608.523206069975
 30
0.0
 11
2015.7482074408831
 21
1608.523206069975
 31
0.0
  0
LINE
  5
1423C
  8
CENTER
 10
2006.2482074408831
 20
1610.105573069975
 30
0.0
 11
2006.2482074408831
 21
1560.0843330699749
 31
0.0
  0
LINE
  5
1423D
  8
CENTER
 10
2081.2482154408831
 20
1610.105573069975
 30
0.0
 11
2081.2482154408831
 21
1560.0843330699749
 31
0.0
  0
LINE
  5
1423E
  8
0
 10
2069.7482074408831
 20
1621.523198069975
 30
0.0
 11
2071.7482114408831
 21
1619.5231960699739
 31
0.0
  0
LINE
  5
1423F
  8
0
 10
2017.7482134408831
 20
1621.5231930699749
 30
0.0
 11
2015.7482154408831
 21
1619.5231010699749
 31
0.0
  0
LINE
  5
14240
  8
0
 10
2015.7482074408831
 20
1619.523114069975
 30
0.0
 11
2015.7482074408831
 21
1608.523206069975
 31
0.0
  0
LINE
  5
14241
  8
0
 10
2071.7482154408831
 20
1619.523206069975
 30
0.0
 11
2071.7482154408831
 21
1608.523206069975
 31
0.0
  0
LINE
  5
14242
  8
0
 10
2017.7482074408831
 20
1621.523206069975
 30
0.0
 11
2069.7482154408831
 21
1621.523206069975
 31
0.0
  0
LINE
  5
14243
  8
0
 10
1996.2482074408831
 20
1563.523206069975
 30
0.0
 11
2091.2482074408831
 21
1563.523206069975
 31
0.0
  0
LINE
  5
14244
  8
0
 10
2091.2482154408831
 20
1608.523206069975
 30
0.0
 11
2091.2482154408831
 21
1563.523206069975
 31
0.0
  0
ARC
  5
14245
  8
0
 10
2043.7482074408831
 20
1593.523206069975
 30
0.0
 40
16.0
 50
163.95502437186261
 51
196.04497562813731
  0
ARC
  5
14246
  8
0
 10
2043.7482074408831
 20
1593.523206069975
 30
0.0
 40
16.0
 50
253.95502437186269
 51
286.04497562813731
  0
ARC
  5
14247
  8
0
 10
2043.7482074408831
 20
1593.523206069975
 30
0.0
 40
16.0
 50
343.95502437186269
 51
16.04497562813733
  0
ARC
  5
14248
  8
0
 10
2043.7482074408831
 20
1593.523206069975
 30
0.0
 40
16.0
 50
73.955024371862663
 51
106.04497562813729
  0
POLYLINE
  5
14249
  8
0
 66
     1
 10
0.0
 20
0.0
 30
0.0
  0
VERTEX
  5
1454D
  8
0
 10
2039.325938079324
 20
1608.899926581639
 30
0.0
  0
VERTEX
  5
1454E
  8
0
 10
2028.3714869292189
 20
1597.9454754315341
 30
0.0
  0
SEQEND
  5
1454F
  8
0
  0
POLYLINE
  5
1424A
  8
0
 66
     1
 10
0.0
 20
0.0
 30
0.0
  0
VERTEX
  5
14550
  8
0
 10
2028.3714869292189
 20
1589.1009367084141
 30
0.0
  0
VERTEX
  5
14551
  8
0
 10
2039.325938079324
 20
1578.146485558311
 30
0.0
  0
SEQEND
  5
14552
  8
0
  0
POLYLINE
  5
1424B
  8
0
 66
     1
 10
0.0
 20
0.0
 30
0.0
  0
VERTEX
  5
14553
  8
0
 10
2048.1704768024429
 20
1578.146485558311
 30
0.0
  0
VERTEX
  5
14554
  8
0
 10
2059.1249279525468
 20
1589.1009367084159
 30
0.0
  0
SEQEND
  5
14555
  8
0
  0
POLYLINE
  5
1424C
  8
0
 66
     1
 10
0.0
 20
0.0
 30
0.0
  0
VERTEX
  5
14556
  8
0
 10
2059.1249279525468
 20
1597.9454754315341
 30
0.0
  0
VERTEX
  5
14557
  8
0
 10
2048.1704768024429
 20
1608.899926581639
 30
0.0
  0
SEQEND
  5
14558
  8
0
  0
ARC
  5
1424D
  8
HIDE
 10
2043.7482074408831
 20
1593.523206069975
 30
0.0
 40
10.0
 50
270.0
 51
180.0
  0
CIRCLE
  5
1424E
  8
0
 10
2043.7482074408831
 20
1593.523206069975
 30
0.0
 40
9.5
  0
LINE
  5
1424F
  8
CENTER
 10
2021.1155355783701
 20
1593.523206069975
 30
0.0
 11
2066.3808793033959
 21
1593.523206069975
 31
0.0
  0
LINE
  5
14250
  8
CENTER
 10
2043.7482074408831
 20
1559.7947012936511
 30
0.0
 11
2043.7482074408831
 21
1624.3657839224891
 31
0.0
  0
LINE
  5
14251
  8
HIDE
 10
2046.2482074408831
 20
1609.326686699254
 30
0.0
 11
2046.248207440887
 21
1602.6883574598851
 31
0.0
  0
LINE
  5
14252
  8
HIDE
 10
2045.848207440883
 20
1609.384794893293
 30
0.0
 11
2045.8482074408851
 21
1602.7881939274951
 31
0.0
  0
LINE
  5
14253
  8
HIDE
 10
2041.2482074408831
 20
1609.326686699254
 30
0.0
 11
2041.248207440887
 21
1602.6883574598869
 31
0.0
  0
LINE
  5
14254
  8
HIDE
 10
2041.648207440883
 20
1609.384794893293
 30
0.0
 11
2041.648207440885
 21
1602.788193927496
 31
0.0
  0
LINE
  5
14255
  8
HIDE
 10
2041.2482074408849
 20
1609.237697005316
 30
0.0
 11
2046.2482074408849
 21
1609.2376970053169
 31
0.0
  0
LINE
  5
14256
  8
HIDE
 10
2041.248207440887
 20
1605.237697005316
 30
0.0
 11
2046.248207440887
 21
1605.2376970053181
 31
0.0
  0
LINE
  5
14257
  8
HIDE
 10
2041.248207440887
 20
1605.237697005316
 30
0.0
 11
2041.648207440885
 21
1605.0067568976419
 31
0.0
  0
LINE
  5
14258
  8
HIDE
 10
2046.2482074408781
 20
1605.2376970053231
 30
0.0
 11
2045.8482074408821
 21
1605.0067568976481
 31
0.0
  0
LINE
  5
14259
  8
HIDE
 10
2041.648207440885
 20
1605.0067568976419
 30
0.0
 11
2045.8482074408851
 21
1605.0067568976419
 31
0.0
  0
LINE
  5
1425A
  8
HIDE
 10
2046.2482074408831
 20
1577.719725440696
 30
0.0
 11
2046.248207440887
 21
1584.358054680064
 31
0.0
  0
LINE
  5
1425B
  8
HIDE
 10
2045.848207440883
 20
1577.661617246657
 30
0.0
 11
2045.8482074408851
 21
1584.258218212454
 31
0.0
  0
LINE
  5
1425C
  8
HIDE
 10
2041.2482074408831
 20
1577.719725440696
 30
0.0
 11
2041.248207440887
 21
1584.3580546800631
 31
0.0
  0
LINE
  5
1425D
  8
HIDE
 10
2041.648207440883
 20
1577.661617246657
 30
0.0
 11
2041.648207440885
 21
1584.258218212454
 31
0.0
  0
LINE
  5
1425E
  8
HIDE
 10
2041.2482074408849
 20
1577.808715134634
 30
0.0
 11
2046.2482074408849
 21
1577.8087151346319
 31
0.0
  0
LINE
  5
1425F
  8
HIDE
 10
2041.248207440887
 20
1581.808715134634
 30
0.0
 11
2046.248207440887
 21
1581.8087151346319
 31
0.0
  0
LINE
  5
14260
  8
HIDE
 10
2041.248207440887
 20
1581.808715134634
 30
0.0
 11
2041.648207440885
 21
1582.0396552423081
 31
0.0
  0
LINE
  5
14261
  8
HIDE
 10
2046.2482074408781
 20
1581.808715134626
 30
0.0
 11
2045.8482074408821
 21
1582.0396552423019
 31
0.0
  0
LINE
  5
14262
  8
HIDE
 10
2041.648207440885
 20
1582.0396552423081
 30
0.0
 11
2045.8482074408851
 21
1582.0396552423081
 31
0.0
  0
LINE
  5
14263
  8
CENTER
 10
2006.2482074408831
 20
1696.3485029684871
 30
0.0
 11
2006.2482074408831
 21
1716.004461968487
 31
0.0
  0
LINE
  5
14264
  8
CENTER
 10
1996.8960934408831
 20
1706.086836968487
 30
0.0
 11
2016.569438440883
 21
1706.086836968487
 31
0.0
  0
CIRCLE
  5
14265
  8
0
 10
2006.2482074408831
 20
1706.086836968487
 30
0.0
 40
8.5
  0
CIRCLE
  5
14266
  8
0
 10
2006.2482074408831
 20
1706.086836968487
 30
0.0
 40
5.5
  0
LINE
  5
14267
  8
CENTER
 10
2071.8961014408828
 20
1706.086836968487
 30
0.0
 11
2091.569446440883
 21
1706.086836968487
 31
0.0
  0
LINE
  5
14268
  8
CENTER
 10
2081.2482154408831
 20
1696.3485029684871
 30
0.0
 11
2081.2482154408831
 21
1716.004461968487
 31
0.0
  0
CIRCLE
  5
14269
  8
0
 10
2081.2482154408831
 20
1706.086836968487
 30
0.0
 40
5.5
  0
CIRCLE
  5
1426A
  8
0
 10
2081.2482154408831
 20
1706.086836968487
 30
0.0
 40
8.5
  0
LINE
  5
1426B
  8
HIDE
 10
2033.7482074408831
 20
1657.086867968487
 30
0.0
 11
2033.7482074408831
 21
1717.086840968487
 31
0.0
  0
LINE
  5
1426C
  8
HIDE
 10
2053.7482074408831
 20
1657.086867968487
 30
0.0
 11
2053.7482074408831
 21
1717.086840968487
 31
0.0
  0
LINE
  5
1426D
  8
0
 10
2016.7482074408831
 20
1664.086867968487
 30
0.0
 11
2016.7482074408831
 21
1674.0868669684869
 31
0.0
  0
LINE
  5
1426E
  8
0
 10
2070.7482154408831
 20
1664.086867968487
 30
0.0
 11
2070.7482154408831
 21
1674.0868669684869
 31
0.0
  0
LINE
  5
1426F
  8
0
 10
2027.7482074408831
 20
1657.086867968487
 30
0.0
 11
2027.7482074408831
 21
1664.086867968487
 31
0.0
  0
LINE
  5
14270
  8
0
 10
2059.7482074408831
 20
1657.086867968487
 30
0.0
 11
2059.7482074408831
 21
1664.086867968487
 31
0.0
  0
LINE
  5
14271
  8
0
 10
1996.2482074408831
 20
1716.086836968487
 30
0.0
 11
1996.2482074408831
 21
1674.0868669684869
 31
0.0
  0
LINE
  5
14272
  8
CENTER
 10
2081.2482154408831
 20
1674.348532968487
 30
0.0
 11
2081.2482154408831
 21
1694.0044919684869
 31
0.0
  0
LINE
  5
14273
  8
CENTER
 10
2071.8961014408828
 20
1684.0868669684869
 30
0.0
 11
2091.569446440883
 21
1684.0868669684869
 31
0.0
  0
CIRCLE
  5
14274
  8
0
 10
2081.2482154408831
 20
1684.0868669684869
 30
0.0
 40
8.5
  0
CIRCLE
  5
14275
  8
0
 10
2081.2482154408831
 20
1684.0868669684869
 30
0.0
 40
5.5
  0
CIRCLE
  5
14276
  8
0
 10
2006.2482074408831
 20
1684.0868669684869
 30
0.0
 40
5.5
  0
CIRCLE
  5
14277
  8
0
 10
2006.2482074408831
 20
1684.0868669684869
 30
0.0
 40
8.5
  0
LINE
  5
14278
  8
CENTER
 10
2043.7482074408831
 20
1722.036237543572
 30
0.0
 11
2043.7482074408831
 21
1651.3438286868079
 31
0.0
  0
LINE
  5
14279
  8
0
 10
2059.7482074408831
 20
1657.086867968487
 30
0.0
 11
2027.7482074408831
 21
1657.086867968487
 31
0.0
  0
LINE
  5
1427A
  8
0
 10
2047.981041440883
 20
1664.086867968487
 30
0.0
 11
2047.9810414408839
 21
1657.086867968487
 31
0.0
  0
LINE
  5
1427B
  8
0
 10
2039.515388440884
 20
1664.086867968487
 30
0.0
 11
2039.515388440884
 21
1657.086867968487
 31
0.0
  0
LINE
  5
1427C
  8
CENTER
 10
1996.8960934408831
 20
1684.0868669684869
 30
0.0
 11
2016.569438440883
 21
1684.0868669684869
 31
0.0
  0
LINE
  5
1427D
  8
0
 10
1996.2482074408831
 20
1674.0868669684869
 30
0.0
 11
2091.2482154408831
 21
1674.0868669684869
 31
0.0
  0
LINE
  5
1427E
  8
CENTER
 10
2006.2482074408831
 20
1674.348532968487
 30
0.0
 11
2006.2482074408831
 21
1694.0044919684869
 31
0.0
  0
LINE
  5
1427F
  8
0
 10
2069.7482154408831
 20
1674.0868669684869
 30
0.0
 11
2069.7482154408831
 21
1716.086836968487
 31
0.0
  0
LINE
  5
14280
  8
0
 10
2017.7482074408831
 20
1674.0868669684869
 30
0.0
 11
2017.7482074408831
 21
1716.086836968487
 31
0.0
  0
LINE
  5
14281
  8
0
 10
2015.7482074408831
 20
1674.0868669684869
 30
0.0
 11
2015.7482074408831
 21
1716.086836968487
 31
0.0
  0
LINE
  5
14282
  8
0
 10
2071.7482154408831
 20
1674.0868669684869
 30
0.0
 11
2071.7482154408831
 21
1716.086836968487
 31
0.0
  0
LINE
  5
14283
  8
0
 10
2091.2482154408831
 20
1674.0868669684869
 30
0.0
 11
2091.2482154408831
 21
1716.086836968487
 31
0.0
  0
LINE
  5
14284
  8
0
 10
1996.2482074408831
 20
1716.086836968487
 30
0.0
 11
2091.2482154408831
 21
1716.086836968487
 31
0.0
  0
LINE
  5
14285
  8
0
 10
2016.7482074408831
 20
1664.086867968487
 30
0.0
 11
2070.7482154408831
 21
1664.086867968487
 31
0.0
  0
LINE
  5
143A8
  8
0
 10
2180.800477949374
 20
1606.273206069975
 30
0.0
 11
2180.800477949374
 21
1580.773206069975
 31
0.0
  0
LINE
  5
143A9
  8
0
 10
2179.800477949374
 20
1580.7732060699759
 30
0.0
 11
2180.800477949374
 21
1580.7732060699759
 31
0.0
  0
LINE
  5
143AA
  8
0
 10
2179.800477949374
 20
1606.2732060699759
 30
0.0
 11
2180.800477949374
 21
1606.2732060699759
 31
0.0
  0
LINE
  5
143B1
  8
0
 10
2030.9982034408829
 20
1717.086840968487
 30
0.0
 11
2056.4982034408831
 21
1717.086840968487
 31
0.0
  0
LINE
  5
143B2
  8
0
 10
2056.4982034408831
 20
1716.086840968487
 30
0.0
 11
2056.4982034408831
 21
1717.086840968487
 31
0.0
  0
LINE
  5
143B3
  8
0
 10
2030.9982034408829
 20
1716.086840968487
 30
0.0
 11
2030.9982034408829
 21
1717.086840968487
 31
0.0
  0
ARC
  5
143B4
  8
0
 10
2043.7482074408831
 20
1662.086867968487
 30
0.0
 40
2.099999999998543
 50
107.7527901649633
 51
72.247209835036614
  0
ARC
  5
143B5
  8
0
 10
2043.7482074408831
 20
1662.086867968487
 30
0.0
 40
2.500000000002728
 50
126.8698976458416
 51
53.13010235415841
  0
POLYLINE
  5
143B6
  8
0
 66
     1
 10
0.0
 20
0.0
 30
0.0
  0
VERTEX
  5
1456A
  8
0
 10
2042.913694928807
 20
1663.5322860389549
 30
0.0
  0
VERTEX
  5
1456B
  8
0
 10
2042.0791824167311
 20
1662.086867968487
 30
0.0
  0
VERTEX
  5
1456C
  8
0
 10
2042.9136949288061
 20
1660.6414498980209
 30
0.0
  0
VERTEX
  5
1456D
  8
0
 10
2044.582719952959
 20
1660.6414498980209
 30
0.0
  0
VERTEX
  5
1456E
  8
0
 10
2045.4172324650351
 20
1662.086867968487
 30
0.0
  0
VERTEX
  5
1456F
  8
0
 10
2044.582719952959
 20
1663.5322860389549
 30
0.0
  0
SEQEND
  5
14570
  8
0
  0
POLYLINE
  5
143B7
  8
0
 66
     1
 10
0.0
 20
0.0
 30
0.0
  0
VERTEX
  5
14571
  8
0
 10
2042.913694928807
 20
1660.6414498980209
 30
0.0
  0
VERTEX
  5
14572
  8
0
 10
2042.0791824167311
 20
1662.086867968487
 30
0.0
  0
VERTEX
  5
14573
  8
0
 10
2042.9136949288061
 20
1663.5322860389549
 30
0.0
  0
VERTEX
  5
14574
  8
0
 10
2044.582719952959
 20
1663.5322860389549
 30
0.0
  0
VERTEX
  5
14575
  8
0
 10
2045.4172324650351
 20
1662.086867968487
 30
0.0
  0
VERTEX
  5
14576
  8
0
 10
2044.582719952959
 20
1660.6414498980209
 30
0.0
  0
SEQEND
  5
14577
  8
0
  0
ENDSEC
  0
EOF
