  0
SECTION
  2
HEADER
  9
$ACADVER
  1
AC1009
  9
$INSBASE
 10
0.0
 20
0.0
 30
0.0
  9
$EXTMIN
 10
1903.0405749290021
 20
1433.173578249188
 30
0.0
  9
$EXTMAX
 10
2348.540574929003
 20
1748.173578249188
 30
0.0
  9
$LIMMIN
 10
0.0
 20
0.0
  9
$LIMMAX
 10
12.0
 20
9.0
  9
$ORTHOMODE
 70
     0
  9
$REGENMODE
 70
     1
  9
$FILLMODE
 70
     1
  9
$QTEXTMODE
 70
     0
  9
$MIRRTEXT
 70
     0
  9
$DRAGMODE
 70
     2
  9
$LTSCALE
 40
5.0
  9
$OSMODE
 70
  2477
  9
$ATTMODE
 70
     1
  9
$TEXTSIZE
 40
2.5
  9
$TRACEWID
 40
0.05
  9
$TEXTSTYLE
  7
BIG
  9
$CLAYER
  8
0
  9
$CELTYPE
  6
BYLAYER
  9
$CECOLOR
 62
   256
  9
$DIMSCALE
 40
1.0
  9
$DIMASZ
 40
3.0
  9
$DIMEXO
 40
1.0
  9
$DIMDLI
 40
0.0
  9
$DIMRND
 40
0.0
  9
$DIMDLE
 40
0.0
  9
$DIMEXE
 40
1.0
  9
$DIMTP
 40
0.0
  9
$DIMTM
 40
0.0
  9
$DIMTXT
 40
3.0
  9
$DIMCEN
 40
0.0
  9
$DIMTSZ
 40
0.0
  9
$DIMTOL
 70
     0
  9
$DIMLIM
 70
     0
  9
$DIMTIH
 70
     0
  9
$DIMTOH
 70
     0
  9
$DIMSE1
 70
     0
  9
$DIMSE2
 70
     0
  9
$DIMTAD
 70
     1
  9
$DIMZIN
 70
     8
  9
$DIMBLK
  1

  9
$DIMASO
 70
     1
  9
$DIMSHO
 70
     1
  9
$DIMPOST
  1

  9
$DIMAPOST
  1

  9
$DIMALT
 70
     0
  9
$DIMALTD
 70
     2
  9
$DIMALTF
 40
25.399999999999999
  9
$DIMLFAC
 40
1.0
  9
$DIMTOFL
 70
     1
  9
$DIMTVP
 40
0.0
  9
$DIMTIX
 70
     1
  9
$DIMSOXD
 70
     0
  9
$DIMSAH
 70
     0
  9
$DIMBLK1
  1

  9
$DIMBLK2
  1

  9
$DIMSTYLE
  2
DUKITEC
  9
$DIMCLRD
 70
     5
  9
$DIMCLRE
 70
     5
  9
$DIMCLRT
 70
     0
  9
$DIMTFAC
 40
1.0
  9
$DIMGAP
 40
1.0
  9
$LUNITS
 70
     2
  9
$LUPREC
 70
     4
  9
$SKETCHINC
 40
0.1
  9
$FILLETRAD
 40
0.2
  9
$AUNITS
 70
     0
  9
$AUPREC
 70
     0
  9
$MENU
  1
.
  9
$ELEVATION
 40
0.0
  9
$PELEVATION
 40
0.0
  9
$THICKNESS
 40
0.0
  9
$LIMCHECK
 70
     0
  9
$BLIPMODE
 70
     0
  9
$CHAMFERA
 40
0.5
  9
$CHAMFERB
 40
0.5
  9
$SKPOLY
 70
     0
  9
$TDCREATE
 40
2454396.700679977
  9
$TDUPDATE
 40
2454396.700836401
  9
$TDINDWG
 40
0.0001584144
  9
$TDUSRTIMER
 40
0.0001584144
  9
$USRTIMER
 70
     1
  9
$ANGBASE
 50
0.0
  9
$ANGDIR
 70
     0
  9
$PDMODE
 70
     0
  9
$PDSIZE
 40
0.0
  9
$PLINEWID
 40
0.0
  9
$COORDS
 70
     1
  9
$SPLFRAME
 70
     0
  9
$SPLINETYPE
 70
     6
  9
$SPLINESEGS
 70
     8
  9
$ATTDIA
 70
     0
  9
$ATTREQ
 70
     1
  9
$HANDLING
 70
     1
  9
$HANDSEED
  5
13FD6
  9
$SURFTAB1
 70
     6
  9
$SURFTAB2
 70
     6
  9
$SURFTYPE
 70
     6
  9
$SURFU
 70
     6
  9
$SURFV
 70
     6
  9
$UCSNAME
  2

  9
$UCSORG
 10
0.0
 20
0.0
 30
0.0
  9
$UCSXDIR
 10
1.0
 20
0.0
 30
0.0
  9
$UCSYDIR
 10
0.0
 20
1.0
 30
0.0
  9
$PUCSNAME
  2

  9
$PUCSORG
 10
0.0
 20
0.0
 30
0.0
  9
$PUCSXDIR
 10
1.0
 20
0.0
 30
0.0
  9
$PUCSYDIR
 10
0.0
 20
1.0
 30
0.0
  9
$USERI1
 70
     0
  9
$USERI2
 70
     0
  9
$USERI3
 70
     0
  9
$USERI4
 70
     0
  9
$USERI5
 70
     0
  9
$USERR1
 40
0.0
  9
$USERR2
 40
0.0
  9
$USERR3
 40
0.0
  9
$USERR4
 40
0.0
  9
$USERR5
 40
0.0
  9
$WORLDVIEW
 70
     1
  9
$SHADEDGE
 70
     3
  9
$SHADEDIF
 70
    70
  9
$TILEMODE
 70
     1
  9
$MAXACTVP
 70
    64
  9
$PLIMCHECK
 70
     0
  9
$PEXTMIN
 10
0.0
 20
0.0
 30
0.0
  9
$PEXTMAX
 10
0.0
 20
0.0
 30
0.0
  9
$PLIMMIN
 10
0.0
 20
0.0
  9
$PLIMMAX
 10
12.0
 20
9.0
  9
$UNITMODE
 70
     0
  9
$VISRETAIN
 70
     1
  9
$PLINEGEN
 70
     0
  9
$PSLTSCALE
 70
     1
  0
ENDSEC
  0
SECTION
  2
TABLES
  0
TABLE
  2
VPORT
 70
     1
  0
VPORT
  2
*ACTIVE
 70
     0
 10
0.0
 20
0.0
 11
1.0
 21
1.0
 12
2132.1055483561859
 22
1566.391373425718
 13
0.0
 23
0.0
 14
0.5
 24
0.5
 15
0.5
 25
0.5
 16
0.0
 26
0.0
 36
1.0
 17
0.0
 27
0.0
 37
0.0
 40
251.3785751880078
 41
1.685233160621761
 42
50.0
 43
0.0
 44
0.0
 50
0.0
 51
0.0
 71
     0
 72
  2000
 73
     1
 74
     3
 75
     0
 76
     0
 77
     0
 78
     0
  0
ENDTAB
  0
TABLE
  2
LTYPE
 70
     3
  0
LTYPE
  2
CONTINUOUS
 70
     0
  3
Solid line
 72
    65
 73
     0
 40
0.0
  0
LTYPE
  2
CENTER
 70
     0
  3
___ _ ___ _ ___ _ ___ _ ___ _ ___ _ ___ _ ___ _
 72
    65
 73
     4
 40
0.95
 49
0.625
 49
-0.125
 49
0.075
 49
-0.125
  0
LTYPE
  2
DASHED2
 70
     0
  3
Dashed (.5x) _ _ _ _ _ _ _ _ _ _ _ _ _ _ _ _ _
 72
    65
 73
     2
 40
0.375
 49
0.25
 49
-0.125
  0
ENDTAB
  0
TABLE
  2
LAYER
 70
     4
  0
LAYER
  2
0
 70
     0
 62
     7
  6
CONTINUOUS
  0
LAYER
  2
DEFPOINTS
 70
     0
 62
     7
  6
CONTINUOUS
  0
LAYER
  2
HIDE
 70
     0
 62
     1
  6
DASHED2
  0
LAYER
  2
CENTER
 70
     0
 62
     3
  6
CENTER
  0
ENDTAB
  0
TABLE
  2
STYLE
 70
     2
  0
STYLE
  2
STANDARD
 70
     0
 40
5.0
 41
1.0
 50
0.0
 71
     0
 42
5.0
  3
txt.shx
  4
whgtxt.shx
  0
STYLE
  2
BIG
 70
     0
 40
20.0
 41
1.0
 50
0.0
 71
     0
 42
2.5
  3
txt
  4

  0
ENDTAB
  0
TABLE
  2
VIEW
 70
     0
  0
ENDTAB
  0
TABLE
  2
UCS
 70
     0
  0
ENDTAB
  0
TABLE
  2
APPID
 70
     7
  0
APPID
  2
ACAD
 70
     0
  0
APPID
  2
ACAD_EXEMPT_FROM_CAD_STANDARDS
 70
     0
  0
APPID
  2
ACAD_DSTYLE_DIMJOGGED_JOGA
 70
     0
  0
APPID
  2
ACAD_PSEXT
 70
     0
  0
APPID
  2
ACAECLAYERSTANDARD
 70
     0
  0
APPID
  2
DCO15
 70
     0
  0
APPID
  2
CONTENTBLOCKICON
 70
     0
  0
ENDTAB
  0
TABLE
  2
DIMSTYLE
 70
     2
  0
DIMSTYLE
  2
DUKITEC
 70
     0
  3

  4

  5

  6

  7

 40
1.0
 41
3.0
 42
1.0
 43
0.0
 44
1.0
 45
0.0
 46
0.0
 47
0.0
 48
0.0
140
3.0
141
0.0
142
0.0
143
25.399999999999999
144
1.0
145
0.0
146
1.0
147
1.0
 71
     0
 72
     0
 73
     0
 74
     0
 75
     0
 76
     0
 77
     1
 78
     8
170
     0
171
     2
172
     1
173
     0
174
     1
175
     0
176
     5
177
     5
178
     0
  0
DIMSTYLE
  2
STANDARD
 70
     0
  3

  4

  5

  6

  7

 40
1.0
 41
0.18
 42
0.0625
 43
0.38
 44
0.18
 45
0.0
 46
0.0
 47
0.0
 48
0.0
140
0.18
141
0.09
142
0.0
143
25.399999999999999
144
1.0
145
0.0
146
1.0
147
0.09
 71
     0
 72
     0
 73
     1
 74
     1
 75
     0
 76
     0
 77
     0
 78
     0
170
     0
171
     2
172
     0
173
     0
174
     0
175
     0
176
     0
177
     0
178
     0
  0
ENDTAB
  0
ENDSEC
  0
SECTION
  2
BLOCKS
  0
BLOCK
  8
0
  2
$MODEL_SPACE
 70
     0
 10
0.0
 20
0.0
 30
0.0
  3
$MODEL_SPACE
  1

  0
ENDBLK
  5
21
  8
0
  0
BLOCK
 67
     1
  8
0
  2
$PAPER_SPACE
 70
     0
 10
0.0
 20
0.0
 30
0.0
  3
$PAPER_SPACE
  1

  0
ENDBLK
  5
5B
 67
     1
  8
0
  0
BLOCK
  8
0
  2
BF15F
 70
     0
 10
0.0
 20
0.0
 30
0.0
  3
BF15F
  1

  0
LINE
  5
13F24
  8
HIDE
 10
-21.499997999999781
 20
10.0
 30
0.0
 11
-21.499997999999781
 21
3.5
 31
0.0
  0
LINE
  5
13F25
  8
HIDE
 10
-23.699998000000051
 20
3.5
 30
0.0
 11
-23.699998000000051
 21
-28.0
 31
0.0
  0
LINE
  5
13F26
  8
HIDE
 10
-30.29999799999996
 20
3.5
 30
0.0
 11
-30.29999799999996
 21
-28.0
 31
0.0
  0
LINE
  5
13F27
  8
HIDE
 10
-32.499998000000232
 20
3.5
 30
0.0
 11
-21.499998000000229
 21
3.5
 31
0.0
  0
LINE
  5
13F28
  8
HIDE
 10
-32.499998000000232
 20
10.0
 30
0.0
 11
-32.499998000000232
 21
3.5
 31
0.0
  0
LINE
  5
13F29
  8
HIDE
 10
21.499989999999801
 20
3.5
 30
0.0
 11
32.499989999999798
 21
3.5
 31
0.0
  0
LINE
  5
13F2A
  8
HIDE
 10
23.699990000000071
 20
3.5
 30
0.0
 11
23.699990000000071
 21
-28.0
 31
0.0
  0
LINE
  5
13F2B
  8
HIDE
 10
30.29998999999998
 20
3.5
 30
0.0
 11
30.29998999999998
 21
-28.0
 31
0.0
  0
LINE
  5
13F2C
  8
HIDE
 10
32.499989999999798
 20
10.0
 30
0.0
 11
32.499989999999798
 21
3.5
 31
0.0
  0
LINE
  5
13F2D
  8
HIDE
 10
21.499989999999801
 20
10.0
 30
0.0
 11
21.499989999999801
 21
3.5
 31
0.0
  0
CIRCLE
  5
13F2E
  8
0
 10
0.0
 20
0.0
 30
0.0
 40
7.5
  0
CIRCLE
  5
13F2F
  8
0
 10
26.999989999999801
 20
-18.000001999999771
 30
0.0
 40
2.75
  0
CIRCLE
  5
13F30
  8
0
 10
0.0
 20
0.0
 30
0.0
 40
17.0
  0
CIRCLE
  5
13F31
  8
0
 10
-26.999997999999781
 20
-18.000001999999771
 30
0.0
 40
2.75
  0
CIRCLE
  5
13F32
  8
0
 10
-26.999997999999781
 20
0.0
 30
0.0
 40
2.75
  0
CIRCLE
  5
13F33
  8
0
 10
26.999989999999801
 20
0.0
 30
0.0
 40
2.75
  0
LINE
  5
13F34
  8
0
 10
-17.999988999999911
 20
19.99999200000002
 30
0.0
 11
-19.999989999999801
 21
17.999990000000249
 31
0.0
  0
LINE
  5
13F35
  8
0
 10
18.000010000000199
 20
19.99999200000002
 30
0.0
 11
20.00001299999985
 21
17.999990000000249
 31
0.0
  0
LINE
  5
13F36
  8
0
 10
34.999988999999921
 20
10.0
 30
0.0
 11
34.999988999999921
 21
-28.0
 31
0.0
  0
LINE
  5
13F37
  8
0
 10
-35.0
 20
10.0
 30
0.0
 11
-35.0
 21
-28.0
 31
0.0
  0
LINE
  5
13F38
  8
0
 10
-35.0
 20
-28.0
 30
0.0
 11
34.999988999999921
 21
-28.0
 31
0.0
  0
LINE
  5
13F39
  8
0
 10
20.0
 20
10.0
 30
0.0
 11
34.999988999999921
 21
10.0
 31
0.0
  0
LINE
  5
13F3A
  8
0
 10
-17.999997999999781
 20
20.0
 30
0.0
 11
18.0
 21
20.0
 31
0.0
  0
LINE
  5
13F3B
  8
CENTER
 10
26.999989999999801
 20
13.671814000000269
 30
0.0
 11
26.999989999999801
 21
-30.96139500000027
 31
0.0
  0
LINE
  5
13F3C
  8
CENTER
 10
0.0
 20
23.836204678246759
 30
0.0
 11
0.0
 21
-31.50436558359706
 31
0.0
  0
LINE
  5
13F3D
  8
0
 10
-35.0
 20
10.0
 30
0.0
 11
-19.999997999999781
 21
10.0
 31
0.0
  0
LINE
  5
13F3E
  8
0
 10
-19.999997999999781
 20
18.0
 30
0.0
 11
-19.999997999999781
 21
10.0
 31
0.0
  0
LINE
  5
13F3F
  8
0
 10
20.0
 20
18.0
 30
0.0
 11
20.0
 21
10.0
 31
0.0
  0
LINE
  5
13F40
  8
CENTER
 10
-26.999997999999781
 20
13.671814000000269
 30
0.0
 11
-26.999997999999781
 21
-30.96139500000027
 31
0.0
  0
LINE
  5
13F41
  8
CENTER
 10
22.0
 20
-18.000001999999771
 30
0.0
 11
31.999989999999801
 21
-18.000001999999771
 31
0.0
  0
LINE
  5
13F42
  8
CENTER
 10
-31.999997999999781
 20
-18.000001999999771
 30
0.0
 11
-21.999997999999781
 21
-18.000001999999771
 31
0.0
  0
LINE
  5
13F43
  8
CENTER
 10
36.999989000000369
 20
0.0
 30
0.0
 11
-37.0
 21
0.0
 31
0.0
  0
ENDBLK
  5
13F44
  8
0
  0
BLOCK
  8
0
  2
BF15S
 70
     0
 10
0.0
 20
0.0
 30
0.0
  3
BF15S
  1

  0
LINE
  5
13F47
  8
0
 10
0.0
 20
10.0
 30
0.0
 11
20.0
 21
10.0
 31
0.0
  0
LINE
  5
13F48
  8
0
 10
0.0
 20
18.0
 30
0.0
 11
20.0
 21
18.0
 31
0.0
  0
LINE
  5
13F49
  8
CENTER
 10
-2.6276859999998119
 20
0.0
 30
0.0
 11
23.213988999999849
 21
0.0
 31
0.0
  0
LINE
  5
13F4A
  8
0
 10
20.0
 20
20.0
 30
0.0
 11
20.0
 21
-28.0
 31
0.0
  0
LINE
  5
13F4B
  8
0
 10
0.0
 20
20.0
 30
0.0
 11
0.0
 21
-28.0
 31
0.0
  0
LINE
  5
13F4C
  8
0
 10
0.0
 20
20.0
 30
0.0
 11
20.0
 21
20.0
 31
0.0
  0
LINE
  5
13F4D
  8
0
 10
0.0
 20
-28.0
 30
0.0
 11
20.0
 21
-28.0
 31
0.0
  0
CIRCLE
  5
13F4E
  8
HIDE
 10
4.5
 20
11.75
 30
0.0
 40
2.5499999999999989
  0
CIRCLE
  5
13F4F
  8
HIDE
 10
4.5
 20
-11.75
 30
0.0
 40
2.5499999999999989
  0
LINE
  5
13F50
  8
HIDE
 10
8.9025000000001455
 20
14.0
 30
0.0
 11
8.9025000000001455
 21
9.6499999999996362
 31
0.0
  0
LINE
  5
13F51
  8
HIDE
 10
8.9025000000001455
 20
9.6499999999996362
 30
0.0
 11
8.6100000000001273
 21
14.0
 31
0.0
  0
LINE
  5
13F52
  8
HIDE
 10
9.0
 20
9.6499999999996362
 30
0.0
 11
9.0
 21
14.0
 31
0.0
  0
LINE
  5
13F53
  8
HIDE
 10
8.6100000000001273
 20
14.0
 30
0.0
 11
8.6100000000001273
 21
9.6499999999996362
 31
0.0
  0
LINE
  5
13F54
  8
HIDE
 10
8.6100000000001273
 20
9.6499999999996362
 30
0.0
 11
8.9025000000001455
 21
14.0
 31
0.0
  0
LINE
  5
13F55
  8
HIDE
 10
0.0
 20
9.6499999999996362
 30
0.0
 11
0.0
 21
14.0
 31
0.0
  0
LINE
  5
13F56
  8
HIDE
 10
0.3899999999998727
 20
14.0
 30
0.0
 11
0.3899999999998727
 21
9.6499999999996362
 31
0.0
  0
LINE
  5
13F57
  8
HIDE
 10
0.0974999999998545
 20
14.0
 30
0.0
 11
0.0974999999998545
 21
9.6499999999996362
 31
0.0
  0
LINE
  5
13F58
  8
HIDE
 10
0.0974999999998545
 20
14.0
 30
0.0
 11
0.3899999999998727
 21
9.6499999999996362
 31
0.0
  0
LINE
  5
13F59
  8
HIDE
 10
0.0974999999998545
 20
9.6499999999996362
 30
0.0
 11
0.3899999999998727
 21
14.0
 31
0.0
  0
LINE
  5
13F5A
  8
HIDE
 10
8.6100000000001273
 20
9.6499999999996362
 30
0.0
 11
9.0
 21
9.6499999999996362
 31
0.0
  0
LINE
  5
13F5B
  8
HIDE
 10
8.6100000000001273
 20
-9.6499999999996362
 30
0.0
 11
9.0
 21
-9.6499999999996362
 31
0.0
  0
LINE
  5
13F5C
  8
HIDE
 10
9.0
 20
-14.0
 30
0.0
 11
8.6100000000001273
 21
-14.0
 31
0.0
  0
LINE
  5
13F5D
  8
HIDE
 10
8.9024999999996908
 20
-14.0
 30
0.0
 11
8.9024999999996908
 21
-9.6499999999996362
 31
0.0
  0
LINE
  5
13F5E
  8
HIDE
 10
8.6100000000001273
 20
-14.0
 30
0.0
 11
8.6100000000001273
 21
-9.6499999999996362
 31
0.0
  0
LINE
  5
13F5F
  8
HIDE
 10
8.6100000000001273
 20
-9.6499999999996362
 30
0.0
 11
8.9024999999996908
 21
-14.0
 31
0.0
  0
LINE
  5
13F60
  8
HIDE
 10
8.9025000000001455
 20
-9.6499999999996362
 30
0.0
 11
8.6100000000001273
 21
-14.0
 31
0.0
  0
LINE
  5
13F61
  8
HIDE
 10
0.0974999999998545
 20
-14.0
 30
0.0
 11
0.0974999999998545
 21
-9.6499999999996362
 31
0.0
  0
LINE
  5
13F62
  8
HIDE
 10
0.0974999999998545
 20
-14.0
 30
0.0
 11
0.3899999999998727
 21
-9.6499999999996362
 31
0.0
  0
LINE
  5
13F63
  8
HIDE
 10
0.0974999999998545
 20
-9.6499999999996362
 30
0.0
 11
0.3899999999998727
 21
-14.0
 31
0.0
  0
LINE
  5
13F64
  8
HIDE
 10
0.0
 20
-9.6499999999996362
 30
0.0
 11
0.0
 21
-14.0
 31
0.0
  0
LINE
  5
13F65
  8
HIDE
 10
0.3899999999998727
 20
-14.0
 30
0.0
 11
0.3899999999998727
 21
-9.6499999999996362
 31
0.0
  0
LINE
  5
13F66
  8
HIDE
 10
0.0
 20
-14.0
 30
0.0
 11
0.3899999999998727
 21
-14.0
 31
0.0
  0
LINE
  5
13F67
  8
HIDE
 10
0.3899999999998727
 20
-9.6499999999996362
 30
0.0
 11
0.0
 21
-9.6499999999996362
 31
0.0
  0
LINE
  5
13F68
  8
HIDE
 10
0.3899999999998727
 20
9.6499999999996362
 30
0.0
 11
0.0
 21
9.6499999999996362
 31
0.0
  0
LINE
  5
13F69
  8
HIDE
 10
9.0
 20
-9.6499999999996362
 30
0.0
 11
9.0
 21
-14.0
 31
0.0
  0
LINE
  5
13F6A
  8
HIDE
 10
9.0
 20
14.0
 30
0.0
 11
8.6100000000001273
 21
14.0
 31
0.0
  0
LINE
  5
13F6B
  8
HIDE
 10
0.0
 20
14.0
 30
0.0
 11
0.3899999999998727
 21
14.0
 31
0.0
  0
LINE
  5
13F6C
  8
HIDE
 10
0.3899999999998727
 20
-13.25
 30
0.0
 11
2.4378409372698111
 21
-13.25
 31
0.0
  0
LINE
  5
13F6D
  8
HIDE
 10
6.5621590627301876
 20
-13.25
 30
0.0
 11
8.6100000000001273
 21
-13.25
 31
0.0
  0
LINE
  5
13F6E
  8
HIDE
 10
0.2999999999997271
 20
-16.0
 30
0.0
 11
8.6999999999998181
 21
-16.0
 31
0.0
  0
ARC
  5
13F6F
  8
HIDE
 10
0.2999999999997271
 20
-15.69999999999982
 30
0.0
 40
0.3
 50
180.0
 51
270.0
  0
LINE
  5
13F70
  8
HIDE
 10
0.0
 20
-14.0
 30
0.0
 11
0.0
 21
-15.69999999999982
 31
0.0
  0
ARC
  5
13F71
  8
HIDE
 10
8.6999999999998181
 20
-15.69999999999982
 30
0.0
 40
0.3000000000000007
 50
270.0
 51
0.0
  0
LINE
  5
13F72
  8
HIDE
 10
9.0
 20
-15.69999999999982
 30
0.0
 11
9.0
 21
-14.0
 31
0.0
  0
ARC
  5
13F73
  8
HIDE
 10
0.2999999999997271
 20
7.800000000000181
 30
0.0
 40
0.3
 50
180.0
 51
270.0
  0
ARC
  5
13F74
  8
HIDE
 10
8.6999999999998181
 20
7.800000000000181
 30
0.0
 40
0.2999999999999998
 50
270.0
 51
0.0
  0
LINE
  5
13F75
  8
HIDE
 10
9.0
 20
7.800000000000181
 30
0.0
 11
9.0
 21
0.0
 31
0.0
  0
LINE
  5
13F76
  8
HIDE
 10
0.0
 20
0.0
 30
0.0
 11
0.0
 21
7.800000000000181
 31
0.0
  0
LINE
  5
13F77
  8
HIDE
 10
0.3899999999998727
 20
-10.25
 30
0.0
 11
2.4378409372698111
 21
-10.25
 31
0.0
  0
LINE
  5
13F78
  8
HIDE
 10
6.5621590627301876
 20
-10.25
 30
0.0
 11
8.6100000000001273
 21
-10.25
 31
0.0
  0
LINE
  5
13F79
  8
HIDE
 10
0.2999999999997271
 20
-7.5
 30
0.0
 11
8.6999999999998181
 21
-7.5
 31
0.0
  0
LINE
  5
13F7A
  8
HIDE
 10
0.0
 20
0.0
 30
0.0
 11
0.0
 21
-7.800000000000181
 31
0.0
  0
ARC
  5
13F7B
  8
HIDE
 10
0.2999999999997271
 20
-7.800000000000181
 30
0.0
 40
0.2999999999999998
 50
90.0
 51
180.0
  0
LINE
  5
13F7C
  8
HIDE
 10
0.0
 20
-7.800000000000181
 30
0.0
 11
0.0
 21
-9.6499999999996362
 31
0.0
  0
LINE
  5
13F7D
  8
HIDE
 10
9.0
 20
-7.800000000000181
 30
0.0
 11
9.0
 21
0.0
 31
0.0
  0
ARC
  5
13F7E
  8
HIDE
 10
8.6999999999998181
 20
-7.800000000000181
 30
0.0
 40
0.3000000000000007
 50
0.0
 51
90.0
  0
LINE
  5
13F7F
  8
HIDE
 10
9.0
 20
-9.6499999999996362
 30
0.0
 11
9.0
 21
-7.800000000000181
 31
0.0
  0
LINE
  5
13F80
  8
HIDE
 10
0.2999999999997271
 20
7.5
 30
0.0
 11
8.6999999999998181
 21
7.5
 31
0.0
  0
LINE
  5
13F81
  8
HIDE
 10
0.3899999999998727
 20
10.25
 30
0.0
 11
2.4378409372698111
 21
10.25
 31
0.0
  0
LINE
  5
13F82
  8
HIDE
 10
6.5621590627301876
 20
10.25
 30
0.0
 11
8.6100000000001273
 21
10.25
 31
0.0
  0
LINE
  5
13F83
  8
HIDE
 10
0.3899999999998727
 20
13.25
 30
0.0
 11
2.4378409372698111
 21
13.25
 31
0.0
  0
LINE
  5
13F84
  8
HIDE
 10
6.5621590627301876
 20
13.25
 30
0.0
 11
8.6100000000001273
 21
13.25
 31
0.0
  0
LINE
  5
13F85
  8
HIDE
 10
0.2999999999997271
 20
16.0
 30
0.0
 11
8.6999999999998181
 21
16.0
 31
0.0
  0
ARC
  5
13F86
  8
HIDE
 10
0.2999999999997271
 20
15.69999999999982
 30
0.0
 40
0.3000000000000007
 50
90.0
 51
180.0
  0
LINE
  5
13F87
  8
HIDE
 10
0.0
 20
7.800000000000181
 30
0.0
 11
0.0
 21
9.6499999999996362
 31
0.0
  0
LINE
  5
13F88
  8
HIDE
 10
0.0
 20
14.0
 30
0.0
 11
0.0
 21
15.69999999999982
 31
0.0
  0
ARC
  5
13F89
  8
HIDE
 10
8.6999999999998181
 20
15.69999999999982
 30
0.0
 40
0.3000000000000007
 50
0.0
 51
90.0
  0
LINE
  5
13F8A
  8
HIDE
 10
9.0
 20
9.6499999999996362
 30
0.0
 11
9.0
 21
7.800000000000181
 31
0.0
  0
LINE
  5
13F8B
  8
HIDE
 10
9.0
 20
15.69999999999982
 30
0.0
 11
9.0
 21
14.0
 31
0.0
  0
LINE
  5
13F8C
  8
HIDE
 10
0.0
 20
16.0
 30
0.0
 11
20.0
 21
16.0
 31
0.0
  0
LINE
  5
13F8D
  8
HIDE
 10
0.0
 20
-16.0
 30
0.0
 11
20.0
 21
-16.0
 31
0.0
  0
LINE
  5
13F8E
  8
HIDE
 10
0.0
 20
-7.5
 30
0.0
 11
20.0
 21
-7.5
 31
0.0
  0
LINE
  5
13F8F
  8
CENTER
 10
10.0
 20
-35.6743824785217
 30
0.0
 11
10.0
 21
-21.617280333382041
 31
0.0
  0
ENDBLK
  5
13F90
  8
0
  0
BLOCK
  8
0
  2
BF15U
 70
     0
 10
0.0
 20
0.0
 30
0.0
  3
BF15U
  1

  0
LINE
  5
13F93
  8
0
 10
-17.999988999999911
 20
0.0
 30
0.0
 11
-17.999988999999911
 21
20.0
 31
0.0
  0
LINE
  5
13F94
  8
0
 10
18.0
 20
0.0
 30
0.0
 11
18.0
 21
20.0
 31
0.0
  0
CIRCLE
  5
13F95
  8
0
 10
-26.999997999999781
 20
10.0
 30
0.0
 40
3.299999999999998
  0
CIRCLE
  5
13F96
  8
0
 10
26.999989999999801
 20
10.0
 30
0.0
 40
3.299999999999998
  0
CIRCLE
  5
13F97
  8
0
 10
26.999989999999801
 20
10.0
 30
0.0
 40
5.5
  0
CIRCLE
  5
13F98
  8
0
 10
-26.999997999999781
 20
10.0
 30
0.0
 40
5.5
  0
LINE
  5
13F99
  8
0
 10
-19.999997999999781
 20
20.0
 30
0.0
 11
-19.999997999999781
 21
0.0
 31
0.0
  0
LINE
  5
13F9A
  8
CENTER
 10
0.0
 20
23.013489780583772
 30
0.0
 11
0.0
 21
-2.8871842667122101
 31
0.0
  0
LINE
  5
13F9B
  8
0
 10
-35.0
 20
20.0
 30
0.0
 11
-35.0
 21
0.0
 31
0.0
  0
LINE
  5
13F9C
  8
0
 10
-35.0
 20
0.0
 30
0.0
 11
34.999988999999921
 21
0.0
 31
0.0
  0
LINE
  5
13F9D
  8
0
 10
-35.0
 20
20.0
 30
0.0
 11
34.999988999999921
 21
20.0
 31
0.0
  0
LINE
  5
13F9E
  8
0
 10
20.0
 20
20.0
 30
0.0
 11
20.0
 21
0.0
 31
0.0
  0
LINE
  5
13F9F
  8
CENTER
 10
-33.770019999999931
 20
10.0
 30
0.0
 11
-20.230000999999898
 21
10.0
 31
0.0
  0
LINE
  5
13FA0
  8
CENTER
 10
-26.999997999999781
 20
16.770003999999972
 30
0.0
 11
-26.999997999999781
 21
3.2299960000000278
 31
0.0
  0
LINE
  5
13FA1
  8
0
 10
34.999988999999921
 20
20.0
 30
0.0
 11
34.999988999999921
 21
0.0
 31
0.0
  0
LINE
  5
13FA2
  8
CENTER
 10
20.229980000000069
 20
10.0
 30
0.0
 11
33.769988999999903
 21
10.0
 31
0.0
  0
LINE
  5
13FA3
  8
CENTER
 10
26.999989999999801
 20
16.770003999999972
 30
0.0
 11
26.999989999999801
 21
3.2299960000000278
 31
0.0
  0
ENDBLK
  5
13FA4
  8
0
  0
ENDSEC
  0
SECTION
  2
ENTITIES
  0
POLYLINE
  5
13E1C
  8
0
 66
     1
 10
0.0
 20
0.0
 30
0.0
 70
     1
  0
VERTEX
  5
13FCD
  8
0
 10
1903.0405749290021
 20
1433.173578249188
 30
0.0
  0
VERTEX
  5
13FCE
  8
0
 10
1903.0405749290021
 20
1748.173578249188
 30
0.0
  0
VERTEX
  5
13FCF
  8
0
 10
2348.540574929003
 20
1748.173578249188
 30
0.0
  0
VERTEX
  5
13FD0
  8
0
 10
2348.540574929003
 20
1433.173578249188
 30
0.0
  0
VERTEX
  5
13FD1
  8
0
 10
1903.0405749290021
 20
1433.173578249188
 30
0.0
  0
SEQEND
  5
13FD2
  8
0
  0
TEXT
  5
13FB3
  8
0
 10
2091.0763165172921
 20
1457.9984444781369
 30
0.0
 40
20.0
  1
BF 15
  7
BIG
  0
INSERT
  5
13FB4
  8
0
  2
BF15F
 10
2068.1823145172912
 20
1573.2836647437939
 30
0.0
  0
INSERT
  5
13FB5
  8
0
  2
BF15S
 10
2133.0830715172929
 20
1573.2836647437939
 30
0.0
  0
INSERT
  5
13FB6
  8
0
  2
BF15U
 10
2068.1823145172912
 20
1621.7250097437941
 30
0.0
  0
ENDSEC
  0
EOF
