  0
SECTION
  2
HEADER
  9
$ACADVER
  1
AC1009
  9
$INSBASE
 10
0.0
 20
0.0
 30
0.0
  9
$EXTMIN
 10
1903.0405749290021
 20
1433.173578249188
 30
0.0
  9
$EXTMAX
 10
2361.659456811682
 20
1750.670889138255
 30
0.0
  9
$LIMMIN
 10
0.0
 20
0.0
  9
$LIMMAX
 10
12.0
 20
9.0
  9
$ORTHOMODE
 70
     0
  9
$REGENMODE
 70
     1
  9
$FILLMODE
 70
     1
  9
$QTEXTMODE
 70
     0
  9
$MIRRTEXT
 70
     0
  9
$DRAGMODE
 70
     2
  9
$LTSCALE
 40
5.0
  9
$OSMODE
 70
  2239
  9
$ATTMODE
 70
     1
  9
$TEXTSIZE
 40
2.5
  9
$TRACEWID
 40
0.05
  9
$TEXTSTYLE
  7
BIG
  9
$CLAYER
  8
0
  9
$CELTYPE
  6
BYLAYER
  9
$CECOLOR
 62
   256
  9
$DIMSCALE
 40
1.0
  9
$DIMASZ
 40
3.0
  9
$DIMEXO
 40
1.0
  9
$DIMDLI
 40
0.0
  9
$DIMRND
 40
0.0
  9
$DIMDLE
 40
0.0
  9
$DIMEXE
 40
1.0
  9
$DIMTP
 40
0.0
  9
$DIMTM
 40
0.0
  9
$DIMTXT
 40
3.0
  9
$DIMCEN
 40
0.0
  9
$DIMTSZ
 40
0.0
  9
$DIMTOL
 70
     0
  9
$DIMLIM
 70
     0
  9
$DIMTIH
 70
     0
  9
$DIMTOH
 70
     0
  9
$DIMSE1
 70
     0
  9
$DIMSE2
 70
     0
  9
$DIMTAD
 70
     1
  9
$DIMZIN
 70
     8
  9
$DIMBLK
  1

  9
$DIMASO
 70
     1
  9
$DIMSHO
 70
     1
  9
$DIMPOST
  1

  9
$DIMAPOST
  1

  9
$DIMALT
 70
     0
  9
$DIMALTD
 70
     2
  9
$DIMALTF
 40
25.399999999999999
  9
$DIMLFAC
 40
1.0
  9
$DIMTOFL
 70
     1
  9
$DIMTVP
 40
0.0
  9
$DIMTIX
 70
     1
  9
$DIMSOXD
 70
     0
  9
$DIMSAH
 70
     0
  9
$DIMBLK1
  1

  9
$DIMBLK2
  1

  9
$DIMSTYLE
  2
DUKITEC
  9
$DIMCLRD
 70
     5
  9
$DIMCLRE
 70
     5
  9
$DIMCLRT
 70
     0
  9
$DIMTFAC
 40
1.0
  9
$DIMGAP
 40
1.0
  9
$LUNITS
 70
     2
  9
$LUPREC
 70
     4
  9
$SKETCHINC
 40
0.1
  9
$FILLETRAD
 40
0.2
  9
$AUNITS
 70
     0
  9
$AUPREC
 70
     0
  9
$MENU
  1
.
  9
$ELEVATION
 40
0.0
  9
$PELEVATION
 40
0.0
  9
$THICKNESS
 40
0.0
  9
$LIMCHECK
 70
     0
  9
$BLIPMODE
 70
     0
  9
$CHAMFERA
 40
0.5
  9
$CHAMFERB
 40
0.5
  9
$SKPOLY
 70
     0
  9
$TDCREATE
 40
2454396.6914876271
  9
$TDUPDATE
 40
2456630.4588937848
  9
$TDINDWG
 40
0.0022560532
  9
$TDUSRTIMER
 40
0.0022560069
  9
$USRTIMER
 70
     1
  9
$ANGBASE
 50
0.0
  9
$ANGDIR
 70
     0
  9
$PDMODE
 70
     0
  9
$PDSIZE
 40
0.0
  9
$PLINEWID
 40
0.0
  9
$COORDS
 70
     1
  9
$SPLFRAME
 70
     0
  9
$SPLINETYPE
 70
     6
  9
$SPLINESEGS
 70
     8
  9
$ATTDIA
 70
     0
  9
$ATTREQ
 70
     1
  9
$HANDLING
 70
     1
  9
$HANDSEED
  5
14374
  9
$SURFTAB1
 70
     6
  9
$SURFTAB2
 70
     6
  9
$SURFTYPE
 70
     6
  9
$SURFU
 70
     6
  9
$SURFV
 70
     6
  9
$UCSNAME
  2

  9
$UCSORG
 10
0.0
 20
0.0
 30
0.0
  9
$UCSXDIR
 10
1.0
 20
0.0
 30
0.0
  9
$UCSYDIR
 10
0.0
 20
1.0
 30
0.0
  9
$PUCSNAME
  2

  9
$PUCSORG
 10
0.0
 20
0.0
 30
0.0
  9
$PUCSXDIR
 10
1.0
 20
0.0
 30
0.0
  9
$PUCSYDIR
 10
0.0
 20
1.0
 30
0.0
  9
$USERI1
 70
     0
  9
$USERI2
 70
     0
  9
$USERI3
 70
     0
  9
$USERI4
 70
     0
  9
$USERI5
 70
     0
  9
$USERR1
 40
0.0
  9
$USERR2
 40
0.0
  9
$USERR3
 40
0.0
  9
$USERR4
 40
0.0
  9
$USERR5
 40
0.0
  9
$WORLDVIEW
 70
     1
  9
$SHADEDGE
 70
     3
  9
$SHADEDIF
 70
    70
  9
$TILEMODE
 70
     1
  9
$MAXACTVP
 70
    64
  9
$PLIMCHECK
 70
     0
  9
$PEXTMIN
 10
0.0
 20
0.0
 30
0.0
  9
$PEXTMAX
 10
0.0
 20
0.0
 30
0.0
  9
$PLIMMIN
 10
0.0
 20
0.0
  9
$PLIMMAX
 10
12.0
 20
9.0
  9
$UNITMODE
 70
     0
  9
$VISRETAIN
 70
     1
  9
$PLINEGEN
 70
     0
  9
$PSLTSCALE
 70
     1
  0
ENDSEC
  0
SECTION
  2
TABLES
  0
TABLE
  2
VPORT
 70
     1
  0
VPORT
  2
*ACTIVE
 70
     0
 10
0.0
 20
0.0
 11
1.0
 21
1.0
 12
2143.176299382576
 22
1613.62102307692
 13
0.0
 23
0.0
 14
0.5
 24
0.5
 15
0.5
 25
0.5
 16
0.0
 26
0.0
 36
1.0
 17
0.0
 27
0.0
 37
0.0
 40
344.71165637878858
 41
2.1408934707903771
 42
50.0
 43
0.0
 44
0.0
 50
0.0
 51
0.0
 71
     0
 72
  2000
 73
     1
 74
     3
 75
     0
 76
     0
 77
     0
 78
     0
  0
ENDTAB
  0
TABLE
  2
LTYPE
 70
     5
  0
LTYPE
  2
CONTINUOUS
 70
     0
  3
Solid line
 72
    65
 73
     0
 40
0.0
  0
LTYPE
  2
PHANTOM2
 70
     0
  3
Phantom (.5x) ___ _ _ ___ _ _ ___ _ _ ___ _ _
 72
    65
 73
     6
 40
1.25
 49
0.625
 49
-0.125
 49
0.125
 49
-0.125
 49
0.125
 49
-0.125
  0
LTYPE
  2
CENTER
 70
     0
  3
___ _ ___ _ ___ _ ___ _ ___ _ ___ _ ___ _ ___ _
 72
    65
 73
     4
 40
0.95
 49
0.625
 49
-0.125
 49
0.075
 49
-0.125
  0
LTYPE
  2
DASHED2
 70
     0
  3
Dashed (.5x) _ _ _ _ _ _ _ _ _ _ _ _ _ _ _ _ _
 72
    65
 73
     2
 40
0.375
 49
0.25
 49
-0.125
  0
ENDTAB
  0
TABLE
  2
LAYER
 70
     4
  0
LAYER
  2
0
 70
     0
 62
     7
  6
CONTINUOUS
  0
LAYER
  2
HIDE
 70
     0
 62
     1
  6
DASHED2
  0
LAYER
  2
CENTER
 70
     0
 62
     3
  6
CENTER
  0
ENDTAB
  0
TABLE
  2
STYLE
 70
     3
  0
STYLE
  2
STANDARD
 70
     0
 40
5.0
 41
1.0
 50
0.0
 71
     0
 42
5.0
  3
txt.shx
  4
whgtxt.shx
  0
STYLE
  2
BIG
 70
     0
 40
20.0
 41
1.0
 50
0.0
 71
     0
 42
2.5
  3
txt
  4

  0
ENDTAB
  0
TABLE
  2
VIEW
 70
     0
  0
ENDTAB
  0
TABLE
  2
UCS
 70
     0
  0
ENDTAB
  0
TABLE
  2
APPID
 70
    10
  0
APPID
  2
ACAD
 70
     0
  0
APPID
  2
ACADANNOTATIVE
 70
     0
  0
APPID
  2
ACAD_EXEMPT_FROM_CAD_STANDARDS
 70
     0
  0
APPID
  2
ACAD_DSTYLE_DIMJOGGED_JOGA
 70
     0
  0
APPID
  2
ACAD_PSEXT
 70
     0
  0
APPID
  2
ACAECLAYERSTANDARD
 70
     0
  0
APPID
  2
DCO15
 70
     0
  0
APPID
  2
CONTENTBLOCKICON
 70
     0
  0
APPID
  2
ACAD_NAV_VCDISPLAY
 70
     0
  0
APPID
  2
ACAD_MLEADERVER
 70
     0
  0
ENDTAB
  0
TABLE
  2
DIMSTYLE
 70
     4
  0
DIMSTYLE
  2
DUKITEC
 70
     0
  3

  4

  5

  6

  7

 40
1.0
 41
3.0
 42
1.0
 43
0.0
 44
1.0
 45
0.0
 46
0.0
 47
0.0
 48
0.0
140
3.0
141
0.0
142
0.0
143
25.399999999999999
144
1.0
145
0.0
146
1.0
147
1.0
 71
     0
 72
     0
 73
     0
 74
     0
 75
     0
 76
     0
 77
     1
 78
     8
170
     0
171
     2
172
     1
173
     0
174
     1
175
     0
176
     5
177
     5
178
     0
  0
ENDTAB
  0
ENDSEC
  0
SECTION
  2
BLOCKS
  0
BLOCK
  8
0
  2
$MODEL_SPACE
 70
     0
 10
0.0
 20
0.0
 30
0.0
  3
$MODEL_SPACE
  1

  0
ENDBLK
  5
140D4
  8
0
  0
BLOCK
 67
     1
  8
0
  2
$PAPER_SPACE
 70
     0
 10
0.0
 20
0.0
 30
0.0
  3
$PAPER_SPACE
  1

  0
ENDBLK
  5
140D0
 67
     1
  8
0
  0
ENDSEC
  0
SECTION
  2
ENTITIES
  0
POLYLINE
  5
13E1C
  8
0
 66
     1
 10
0.0
 20
0.0
 30
0.0
 70
     1
  0
VERTEX
  5
14315
  8
0
 10
1980.1566175669959
 20
1490.316958157689
 30
0.0
  0
VERTEX
  5
14316
  8
0
 10
1980.1566175669959
 20
1710.816958157689
 30
0.0
  0
VERTEX
  5
14317
  8
0
 10
2292.0066175669972
 20
1710.816958157689
 30
0.0
  0
VERTEX
  5
14318
  8
0
 10
2292.0066175669972
 20
1490.316958157689
 30
0.0
  0
VERTEX
  5
14319
  8
0
 10
1980.1566175669959
 20
1490.316958157689
 30
0.0
  0
SEQEND
  5
1431A
  8
0
  0
TEXT
  5
14026
  8
0
 10
2101.6843855339821
 20
1505.2179838068921
 30
0.0
 40
20.0
  1
BK15
  7
BIG
  0
LINE
  5
14192
  8
HIDE
 10
2077.342289712723
 20
1592.622930482758
 30
0.0
 11
2077.342289712723
 21
1586.122930482758
 31
0.0
  0
LINE
  5
14193
  8
HIDE
 10
2075.1422887127242
 20
1586.122930482758
 30
0.0
 11
2075.1422887127242
 21
1554.622930482758
 31
0.0
  0
LINE
  5
14194
  8
HIDE
 10
2066.342289712723
 20
1592.622930482758
 30
0.0
 11
2066.342289712723
 21
1586.122930482758
 31
0.0
  0
LINE
  5
14195
  8
HIDE
 10
2068.5422907127222
 20
1586.122930482758
 30
0.0
 11
2068.5422907127222
 21
1554.622930482758
 31
0.0
  0
LINE
  5
14196
  8
HIDE
 10
2066.342289712723
 20
1586.122930482758
 30
0.0
 11
2077.342289712723
 21
1586.122930482758
 31
0.0
  0
LINE
  5
14197
  8
HIDE
 10
2120.342289712723
 20
1586.122930482758
 30
0.0
 11
2131.342289712723
 21
1586.122930482758
 31
0.0
  0
LINE
  5
14198
  8
HIDE
 10
2129.1422887127242
 20
1586.122930482758
 30
0.0
 11
2129.1422887127242
 21
1554.622930482758
 31
0.0
  0
LINE
  5
14199
  8
HIDE
 10
2122.5422907127222
 20
1586.122930482758
 30
0.0
 11
2122.5422907127222
 21
1554.622930482758
 31
0.0
  0
LINE
  5
1419A
  8
HIDE
 10
2120.342289712723
 20
1592.622930482758
 30
0.0
 11
2120.342289712723
 21
1586.122930482758
 31
0.0
  0
LINE
  5
1419B
  8
HIDE
 10
2131.342289712723
 20
1592.622930482758
 30
0.0
 11
2131.342289712723
 21
1586.122930482758
 31
0.0
  0
ARC
  5
1419C
  8
CENTER
 10
2098.842289712723
 20
1582.622930482758
 30
0.0
 40
19.5
 50
120.3299107919304
 51
149.77029533718959
  0
ARC
  5
1419D
  8
CENTER
 10
2098.842289712723
 20
1582.622930482758
 30
0.0
 40
19.5
 50
31.137808939320671
 51
59.228941239192238
  0
ARC
  5
1419E
  8
CENTER
 10
2098.842289712723
 20
1582.622930482758
 30
0.0
 40
19.5
 50
301.07047444786832
 51
330.59175418239153
  0
CIRCLE
  5
1419F
  8
0
 10
2098.842289712723
 20
1582.622930482758
 30
0.0
 40
14.5
  0
ARC
  5
141A0
  8
CENTER
 10
2098.842289712723
 20
1582.622930482758
 30
0.0
 40
19.5
 50
210.44825053614741
 51
239.0446216433555
  0
ARC
  5
141A1
  8
0
 10
2098.842289712723
 20
1582.622930482758
 30
0.0
 40
25.0
 50
130.5358000000482
 51
139.46419999997011
  0
ARC
  5
141A2
  8
0
 10
2098.842289712723
 20
1582.622930482758
 30
0.0
 40
25.0
 50
310.53580000004831
 51
319.46419999997011
  0
ARC
  5
141A3
  8
0
 10
2098.842289712723
 20
1582.622930482758
 30
0.0
 40
25.0
 50
220.53580000002989
 51
229.46419999995169
  0
ARC
  5
141A4
  8
0
 10
2098.842289712723
 20
1582.622930482758
 30
0.0
 40
25.0
 50
40.535803000004208
 51
49.464198999981981
  0
CIRCLE
  5
141A5
  8
0
 10
2112.6557667127231
 20
1568.809438482758
 30
0.0
 40
3.5
  0
CIRCLE
  5
141A6
  8
0
 10
2085.0288127127228
 20
1568.809453482758
 30
0.0
 40
3.5
  0
CIRCLE
  5
141A7
  8
0
 10
2085.0288127127228
 20
1596.436635482758
 30
0.0
 40
3.5
  0
CIRCLE
  5
141A8
  8
0
 10
2112.6560107127229
 20
1596.4363914827579
 30
0.0
 40
3.5
  0
CIRCLE
  5
141A9
  8
0
 10
2071.842289712723
 20
1564.622930482758
 30
0.0
 40
2.75
  0
CIRCLE
  5
141AA
  8
0
 10
2071.842289712723
 20
1582.622930482758
 30
0.0
 40
2.75
  0
CIRCLE
  5
141AB
  8
0
 10
2125.842289712723
 20
1564.622930482758
 30
0.0
 40
2.75
  0
CIRCLE
  5
141AC
  8
0
 10
2125.842289712723
 20
1582.622930482758
 30
0.0
 40
2.75
  0
LINE
  5
141AD
  8
0
 10
2082.5942127127232
 20
1563.622930482758
 30
0.0
 11
2115.0903667127232
 21
1563.622930482758
 31
0.0
  0
LINE
  5
141AE
  8
0
 10
2082.5942127127232
 20
1601.622930482758
 30
0.0
 11
2115.0903667127232
 21
1601.622930482758
 31
0.0
  0
LINE
  5
141AF
  8
0
 10
2117.842289712723
 20
1598.8710074827579
 30
0.0
 11
2117.842289712723
 21
1566.374853482758
 31
0.0
  0
LINE
  5
141B0
  8
0
 10
2079.842289712723
 20
1598.8710074827579
 30
0.0
 11
2079.842289712723
 21
1566.374853482758
 31
0.0
  0
LINE
  5
141B1
  8
0
 10
2114.654499712723
 20
1569.964827482758
 30
0.0
 11
2112.6545647127232
 21
1571.1194904827571
 31
0.0
  0
LINE
  5
141B2
  8
0
 10
2112.6545027127222
 20
1566.500728482757
 30
0.0
 11
2110.6545667127239
 21
1567.655391482758
 31
0.0
  0
LINE
  5
141B3
  8
0
 10
2112.6552977127221
 20
1571.119557482758
 30
0.0
 11
2110.6553627127219
 21
1569.9648944827579
 31
0.0
  0
LINE
  5
141B4
  8
0
 10
2114.6552977127221
 20
1567.655455482758
 30
0.0
 11
2112.6553627127219
 21
1566.500793482757
 31
0.0
  0
LINE
  5
141B5
  8
0
 10
2110.6560107127229
 20
1567.6546384827579
 30
0.0
 11
2110.6560107127229
 21
1569.963964482758
 31
0.0
  0
LINE
  5
141B6
  8
0
 10
2114.6560107127239
 20
1567.6546384827579
 30
0.0
 11
2114.6560107127239
 21
1569.963964482758
 31
0.0
  0
LINE
  5
141B7
  8
CENTER
 10
2116.4285957127222
 20
1565.0367884827581
 30
0.0
 11
2108.9785967127241
 21
1572.4867864827579
 31
0.0
  0
LINE
  5
141B8
  8
0
 10
2086.1849627127222
 20
1566.8110004827579
 30
0.0
 11
2087.3396257127229
 21
1568.8109354827579
 31
0.0
  0
LINE
  5
141B9
  8
0
 10
2082.7208607127218
 20
1568.8110004827579
 30
0.0
 11
2083.8755247127242
 21
1570.8109354827579
 31
0.0
  0
LINE
  5
141BA
  8
0
 10
2087.3389347127222
 20
1568.810005482758
 30
0.0
 11
2086.1842717127229
 21
1570.8099404827581
 31
0.0
  0
LINE
  5
141BB
  8
0
 10
2083.8748327127232
 20
1566.8100064827579
 30
0.0
 11
2082.720169712723
 21
1568.8099414827579
 31
0.0
  0
LINE
  5
141BC
  8
0
 10
2083.8740277127231
 20
1570.8094234827579
 30
0.0
 11
2086.1833537127231
 21
1570.8094234827579
 31
0.0
  0
LINE
  5
141BD
  8
0
 10
2083.8740277127231
 20
1566.8094234827579
 30
0.0
 11
2086.1833537127231
 21
1566.8094234827579
 31
0.0
  0
LINE
  5
141BE
  8
CENTER
 10
2081.2567757127231
 20
1565.0367984827581
 30
0.0
 11
2088.7067737127231
 21
1572.486797482758
 31
0.0
  0
LINE
  5
141BF
  8
0
 10
2083.0311487127228
 20
1595.2805664827581
 30
0.0
 11
2085.0310837127231
 21
1594.1259034827581
 31
0.0
  0
LINE
  5
141C0
  8
0
 10
2085.031147712722
 20
1598.744667482757
 30
0.0
 11
2087.0310827127219
 21
1597.590002482757
 31
0.0
  0
LINE
  5
141C1
  8
0
 10
2085.0295137127218
 20
1594.126111482758
 30
0.0
 11
2087.0295017127241
 21
1595.2808054827581
 31
0.0
  0
LINE
  5
141C2
  8
0
 10
2083.0295137127218
 20
1597.5902134827579
 30
0.0
 11
2085.0295027127231
 21
1598.744907482758
 31
0.0
  0
LINE
  5
141C3
  8
0
 10
2087.0288127127228
 20
1597.5912994827579
 30
0.0
 11
2087.0288127127228
 21
1595.2818964827579
 31
0.0
  0
LINE
  5
141C4
  8
0
 10
2083.0288127127228
 20
1597.5912994827579
 30
0.0
 11
2083.0288127127228
 21
1595.2818964827579
 31
0.0
  0
LINE
  5
141C5
  8
CENTER
 10
2081.2567107127229
 20
1600.208564482758
 30
0.0
 11
2088.7067097127228
 21
1592.7585654827581
 31
0.0
  0
LINE
  5
141C6
  8
0
 10
2113.8100577127229
 20
1598.4355304827579
 30
0.0
 11
2114.9645987127228
 21
1596.4358064827579
 31
0.0
  0
LINE
  5
141C7
  8
0
 10
2110.345955712723
 20
1596.4355304827579
 30
0.0
 11
2111.5004967127229
 21
1594.435807482758
 31
0.0
  0
LINE
  5
141C8
  8
0
 10
2114.9647647127231
 20
1596.4343534827581
 30
0.0
 11
2113.8101017127242
 21
1594.4344184827571
 31
0.0
  0
LINE
  5
141C9
  8
CENTER
 10
2116.4286107127232
 20
1600.2086334827591
 30
0.0
 11
2108.9786117127228
 21
1592.7586354827581
 31
0.0
  0
LINE
  5
141CA
  8
0
 10
2113.8107957127222
 20
1598.4366204827579
 30
0.0
 11
2111.501469712724
 21
1598.4366204827579
 31
0.0
  0
LINE
  5
141CB
  8
0
 10
2111.5006627127232
 20
1598.434352482758
 30
0.0
 11
2110.3459997127238
 21
1596.4344174827579
 31
0.0
  0
LINE
  5
141CC
  8
0
 10
2113.8107957127222
 20
1594.4366204827579
 30
0.0
 11
2111.501469712724
 21
1594.4366204827579
 31
0.0
  0
LINE
  5
141CD
  8
0
 10
2063.842289712723
 20
1554.622930482758
 30
0.0
 11
2133.842289712723
 21
1554.622930482758
 31
0.0
  0
LINE
  5
141CE
  8
CENTER
 10
2125.842289712723
 20
1595.653280482758
 30
0.0
 11
2125.842289712723
 21
1549.4256194827581
 31
0.0
  0
LINE
  5
141CF
  8
CENTER
 10
2071.842289712723
 20
1595.653280482758
 30
0.0
 11
2071.842289712723
 21
1549.4256194827581
 31
0.0
  0
LINE
  5
141D0
  8
0
 10
2118.842289712723
 20
1592.622930482758
 30
0.0
 11
2133.842289712723
 21
1592.622930482758
 31
0.0
  0
LINE
  5
141D1
  8
0
 10
2080.8424827127228
 20
1602.6227664827579
 30
0.0
 11
2078.842289712723
 21
1600.622504476099
 31
0.0
  0
LINE
  5
141D2
  8
0
 10
2116.8426937127228
 20
1602.6225714827581
 30
0.0
 11
2118.8426597127232
 21
1600.622619482758
 31
0.0
  0
LINE
  5
141D5
  8
0
 10
2063.842289712723
 20
1592.622930482758
 30
0.0
 11
2078.842289712723
 21
1592.622930482758
 31
0.0
  0
LINE
  5
141D6
  8
0
 10
2080.842289712723
 20
1602.622930482758
 30
0.0
 11
2116.842289712723
 21
1602.622930482758
 31
0.0
  0
LINE
  5
141D7
  8
0
 10
2063.842289712723
 20
1592.622930482758
 30
0.0
 11
2063.842289712723
 21
1554.622930482758
 31
0.0
  0
LINE
  5
141D8
  8
0
 10
2133.842289712723
 20
1592.622930482758
 30
0.0
 11
2133.842289712723
 21
1554.622930482758
 31
0.0
  0
LINE
  5
141D9
  8
CENTER
 10
2060.9415092543809
 20
1582.622930482758
 30
0.0
 11
2136.743070171065
 21
1582.622930482758
 31
0.0
  0
LINE
  5
141DA
  8
CENTER
 10
2098.842289712723
 20
1552.622930482758
 30
0.0
 11
2098.842289712723
 21
1604.622930482758
 31
0.0
  0
LINE
  5
141DB
  8
CENTER
 10
2067.7451076380262
 20
1564.622930482758
 30
0.0
 11
2075.9394717874188
 21
1564.622930482758
 31
0.0
  0
LINE
  5
141DC
  8
CENTER
 10
2121.7451076380271
 20
1564.622930482758
 30
0.0
 11
2129.9394717874202
 21
1564.622930482758
 31
0.0
  0
ARC
  5
141DD
  8
0
 10
2098.842289712723
 20
1582.622930482758
 30
0.0
 40
12.5
 50
73.357636576280512
 51
106.6423634237195
  0
ARC
  5
141DE
  8
0
 10
2098.842289712723
 20
1582.622930482758
 30
0.0
 40
12.5
 50
163.3576365763341
 51
196.64236342366581
  0
ARC
  5
141DF
  8
0
 10
2098.842289712723
 20
1582.622930482758
 30
0.0
 40
12.5
 50
253.3576365762805
 51
286.64236342371947
  0
ARC
  5
141E0
  8
0
 10
2098.842289712723
 20
1582.622930482758
 30
0.0
 40
12.5
 50
343.35763657633407
 51
16.642363423665831
  0
POLYLINE
  5
141E1
  8
0
 66
     1
 10
0.0
 20
0.0
 30
0.0
  0
VERTEX
  5
14357
  8
0
 10
2095.2623290256079
 20
1594.599318981748
 30
0.0
  0
VERTEX
  5
14358
  8
0
 10
2086.865901213735
 20
1586.2028911698751
 30
0.0
  0
SEQEND
  5
14359
  8
0
  0
POLYLINE
  5
141E2
  8
0
 66
     1
 10
0.0
 20
0.0
 30
0.0
  0
VERTEX
  5
1435A
  8
0
 10
2086.865901213735
 20
1579.0429697956449
 30
0.0
  0
VERTEX
  5
1435B
  8
0
 10
2095.2623290256079
 20
1570.64654198377
 30
0.0
  0
SEQEND
  5
1435C
  8
0
  0
POLYLINE
  5
141E3
  8
0
 66
     1
 10
0.0
 20
0.0
 30
0.0
  0
VERTEX
  5
1435D
  8
0
 10
2102.422250399838
 20
1570.64654198377
 30
0.0
  0
VERTEX
  5
1435E
  8
0
 10
2110.8186782117109
 20
1579.0429697956449
 30
0.0
  0
SEQEND
  5
1435F
  8
0
  0
POLYLINE
  5
141E4
  8
0
 66
     1
 10
0.0
 20
0.0
 30
0.0
  0
VERTEX
  5
14360
  8
0
 10
2110.8186782117109
 20
1586.2028911698751
 30
0.0
  0
VERTEX
  5
14361
  8
0
 10
2102.422250399838
 20
1594.599318981748
 30
0.0
  0
SEQEND
  5
14362
  8
0
  0
ARC
  5
141E5
  8
HIDE
 10
2098.842289712723
 20
1582.622930482758
 30
0.0
 40
7.5
 50
270.0
 51
180.0
  0
CIRCLE
  5
141E6
  8
0
 10
2098.842289712723
 20
1582.622930482758
 30
0.0
 40
7.0
  0
LINE
  5
141E7
  8
HIDE
 10
2100.8422897127248
 20
1594.96189316201
 30
0.0
 11
2100.842289712723
 21
1589.3311344152571
 31
0.0
  0
LINE
  5
141E8
  8
HIDE
 10
2100.4922897127208
 20
1595.0135519360999
 30
0.0
 11
2100.4922897127208
 21
1589.4256872768819
 31
0.0
  0
LINE
  5
141E9
  8
HIDE
 10
2096.842289712723
 20
1594.9618931620109
 30
0.0
 11
2096.842289712723
 21
1589.3311344152571
 31
0.0
  0
LINE
  5
141EA
  8
HIDE
 10
2097.1922897127229
 20
1595.013551936099
 30
0.0
 11
2097.1922897127229
 21
1589.4256872768819
 31
0.0
  0
LINE
  5
141EB
  8
HIDE
 10
2096.842289712723
 20
1594.5854537451089
 30
0.0
 11
2100.8422897127248
 21
1594.585453745108
 31
0.0
  0
LINE
  5
141EC
  8
HIDE
 10
2096.842289712723
 20
1590.5854537451089
 30
0.0
 11
2100.8422897127248
 21
1590.585453745108
 31
0.0
  0
LINE
  5
141ED
  8
HIDE
 10
2100.492289712723
 20
1590.3833811508921
 30
0.0
 11
2100.842289712723
 21
1590.585453745108
 31
0.0
  0
LINE
  5
141EE
  8
HIDE
 10
2100.492289712723
 20
1590.3833811508921
 30
0.0
 11
2097.1922897127229
 21
1590.3833811508921
 31
0.0
  0
LINE
  5
141EF
  8
HIDE
 10
2097.1922897127229
 20
1590.3833811508921
 30
0.0
 11
2096.842289712723
 21
1590.585453745108
 31
0.0
  0
LINE
  5
141F0
  8
HIDE
 10
2111.1812523919721
 20
1580.6229304827521
 30
0.0
 11
2105.5504936452189
 21
1580.6229304827541
 31
0.0
  0
LINE
  5
141F1
  8
HIDE
 10
2111.2329111660611
 20
1580.9729304827561
 30
0.0
 11
2105.6450465068442
 21
1580.9729304827561
 31
0.0
  0
LINE
  5
141F2
  8
HIDE
 10
2111.1812523919721
 20
1584.6229304827541
 30
0.0
 11
2105.5504936452189
 21
1584.6229304827541
 31
0.0
  0
LINE
  5
141F3
  8
HIDE
 10
2111.2329111660611
 20
1584.272930482754
 30
0.0
 11
2105.6450465068442
 21
1584.272930482754
 31
0.0
  0
LINE
  5
141F4
  8
HIDE
 10
2110.8048129750709
 20
1584.6229304827541
 30
0.0
 11
2110.8048129750709
 21
1580.6229304827521
 31
0.0
  0
LINE
  5
141F5
  8
HIDE
 10
2106.80481297507
 20
1584.6229304827541
 30
0.0
 11
2106.80481297507
 21
1580.6229304827521
 31
0.0
  0
LINE
  5
141F6
  8
HIDE
 10
2106.6027403808539
 20
1580.9729304827549
 30
0.0
 11
2106.80481297507
 21
1580.6229304827541
 31
0.0
  0
LINE
  5
141F7
  8
HIDE
 10
2106.6027403808539
 20
1580.9729304827549
 30
0.0
 11
2106.6027403808539
 21
1584.272930482754
 31
0.0
  0
LINE
  5
141F8
  8
HIDE
 10
2106.6027403808539
 20
1584.272930482754
 30
0.0
 11
2106.80481297507
 21
1584.6229304827541
 31
0.0
  0
LINE
  5
141FB
  8
HIDE
 10
2090.0785228369959
 20
1631.628447438387
 30
0.0
 11
2090.0785228369959
 21
1671.628447438387
 31
0.0
  0
LINE
  5
141FC
  8
HIDE
 10
2106.342289712723
 20
1631.628447438387
 30
0.0
 11
2106.342289712723
 21
1671.628447438387
 31
0.0
  0
LINE
  5
141FD
  8
0
 10
2079.8422891139899
 20
1638.6284454383861
 30
0.0
 11
2079.8422891139899
 21
1644.6284454383861
 31
0.0
  0
LINE
  5
141FE
  8
0
 10
2117.842289712723
 20
1638.6284454383861
 30
0.0
 11
2117.842289712723
 21
1644.6284454383861
 31
0.0
  0
LINE
  5
141FF
  8
0
 10
2086.342289712722
 20
1631.628447438387
 30
0.0
 11
2086.342289712722
 21
1638.6284454383861
 31
0.0
  0
LINE
  5
14200
  8
0
 10
2111.342289712722
 20
1631.628447438387
 30
0.0
 11
2111.342289712722
 21
1638.6284454383861
 31
0.0
  0
CIRCLE
  5
14201
  8
0
 10
2125.842289712723
 20
1665.628447438387
 30
0.0
 40
5.5
  0
CIRCLE
  5
14202
  8
0
 10
2125.842289712723
 20
1650.628445438387
 30
0.0
 40
5.5
  0
CIRCLE
  5
14203
  8
0
 10
2071.842289712723
 20
1650.628445438387
 30
0.0
 40
5.5
  0
CIRCLE
  5
14204
  8
0
 10
2071.842289712723
 20
1665.628447438387
 30
0.0
 40
5.5
  0
CIRCLE
  5
14205
  8
0
 10
2125.842289712723
 20
1650.628445438387
 30
0.0
 40
3.299998999999997
  0
CIRCLE
  5
14206
  8
0
 10
2125.842289712723
 20
1665.628447438387
 30
0.0
 40
3.299998999999997
  0
CIRCLE
  5
14207
  8
0
 10
2071.842289712723
 20
1650.628445438387
 30
0.0
 40
3.299998999999997
  0
CIRCLE
  5
14208
  8
0
 10
2071.842289712723
 20
1665.628447438387
 30
0.0
 40
3.299998999999997
  0
LINE
  5
14209
  8
CENTER
 10
2096.342289712722
 20
1635.128447438387
 30
0.0
 11
2101.342289712722
 21
1635.128447438387
 31
0.0
  0
LINE
  5
1420A
  8
CENTER
 10
2098.842289712723
 20
1628.5415137448911
 30
0.0
 11
2098.842289712723
 21
1676.2431087757659
 31
0.0
  0
LINE
  5
1420B
  8
CENTER
 10
2071.842289712723
 20
1672.9509874383859
 30
0.0
 11
2071.842289712723
 21
1643.631268438387
 31
0.0
  0
LINE
  5
1420C
  8
0
 10
2078.842289712723
 20
1671.628447438387
 30
0.0
 11
2078.842289712723
 21
1644.6284454383861
 31
0.0
  0
LINE
  5
1420D
  8
0
 10
2111.342289712722
 20
1631.628447438387
 30
0.0
 11
2086.342289712722
 21
1631.628447438387
 31
0.0
  0
LINE
  5
1420E
  8
0
 10
2118.842289712723
 20
1671.628447438387
 30
0.0
 11
2118.842289712723
 21
1644.6284454383861
 31
0.0
  0
LINE
  5
1420F
  8
CENTER
 10
2125.842289712723
 20
1672.9509874383859
 30
0.0
 11
2125.842289712723
 21
1643.631268438387
 31
0.0
  0
LINE
  5
14210
  8
0
 10
2063.842289712723
 20
1644.6284454383861
 30
0.0
 11
2133.842289712723
 21
1644.6284454383861
 31
0.0
  0
LINE
  5
14211
  8
0
 10
2063.842289712723
 20
1671.628447438387
 30
0.0
 11
2133.842289712723
 21
1671.628447438387
 31
0.0
  0
LINE
  5
14212
  8
0
 10
2063.842289712723
 20
1671.628447438387
 30
0.0
 11
2063.842289712723
 21
1644.6284454383861
 31
0.0
  0
LINE
  5
14213
  8
0
 10
2133.842289712723
 20
1671.628447438387
 30
0.0
 11
2133.842289712723
 21
1644.6284454383861
 31
0.0
  0
LINE
  5
14214
  8
0
 10
2080.842289712723
 20
1671.628447438387
 30
0.0
 11
2080.842289712723
 21
1644.6284454383861
 31
0.0
  0
LINE
  5
14215
  8
0
 10
2116.842289712723
 20
1671.628447438387
 30
0.0
 11
2116.842289712723
 21
1644.6284454383861
 31
0.0
  0
LINE
  5
14216
  8
0
 10
2079.8422891139899
 20
1638.6284454383861
 30
0.0
 11
2117.842289712723
 21
1638.6284454383861
 31
0.0
  0
LINE
  5
14217
  8
0
 10
2095.2622117127212
 20
1638.6284454383861
 30
0.0
 11
2095.2622117127212
 21
1631.628447438387
 31
0.0
  0
LINE
  5
14218
  8
0
 10
2102.422367712722
 20
1638.6284454383861
 30
0.0
 11
2102.4223677127229
 21
1631.628447438387
 31
0.0
  0
CIRCLE
  5
14219
  8
0
 10
2098.842289712722
 20
1635.128447438387
 30
0.0
 40
2.0
  0
CIRCLE
  5
1421A
  8
0
 10
2098.842289712722
 20
1635.128447438387
 30
0.0
 40
1.649999999995998
  0
POLYLINE
  5
1421B
  8
0
 66
     1
 10
0.0
 20
0.0
 30
0.0
 70
     1
  0
VERTEX
  5
14363
  8
0
 10
2098.842289712722
 20
1636.206362625974
 30
0.0
  0
VERTEX
  5
14364
  8
0
 10
2099.7757916482969
 20
1635.667405032181
 30
0.0
  0
VERTEX
  5
14365
  8
0
 10
2099.7757916482969
 20
1634.589489844594
 30
0.0
  0
VERTEX
  5
14366
  8
0
 10
2098.842289712722
 20
1634.0505322508
 30
0.0
  0
VERTEX
  5
14367
  8
0
 10
2097.9087877771472
 20
1634.589489844594
 30
0.0
  0
VERTEX
  5
14368
  8
0
 10
2097.9087877771472
 20
1635.667405032181
 30
0.0
  0
SEQEND
  5
14369
  8
0
  0
LINE
  5
1421C
  8
CENTER
 10
2065.842289712723
 20
1665.628447438387
 30
0.0
 11
2077.842289712723
 21
1665.628447438387
 31
0.0
  0
LINE
  5
1421D
  8
CENTER
 10
2065.842289712723
 20
1650.628445438387
 30
0.0
 11
2077.842289712723
 21
1650.628445438387
 31
0.0
  0
LINE
  5
1421E
  8
CENTER
 10
2119.842289712723
 20
1650.628445438387
 30
0.0
 11
2131.842289712723
 21
1650.628445438387
 31
0.0
  0
LINE
  5
1421F
  8
CENTER
 10
2119.842289712723
 20
1665.628447438387
 30
0.0
 11
2131.842289712723
 21
1665.628447438387
 31
0.0
  0
LINE
  5
14220
  8
HIDE
 10
2163.2556885900749
 20
1575.168543703275
 30
0.0
 11
2170.2556885900749
 21
1575.1685437032761
 31
0.0
  0
LINE
  5
14221
  8
HIDE
 10
2188.2556885900749
 20
1575.1685437032761
 30
0.0
 11
2195.2556885900749
 21
1575.168543703275
 31
0.0
  0
LINE
  5
14222
  8
HIDE
 10
2163.2556885900749
 20
1590.168543703275
 30
0.0
 11
2170.2556885900749
 21
1590.168543703275
 31
0.0
  0
LINE
  5
14223
  8
HIDE
 10
2188.2556885900749
 20
1590.168543703275
 30
0.0
 11
2195.2556885900749
 21
1590.1685437032741
 31
0.0
  0
LINE
  5
14224
  8
0
 10
2162.2556770067399
 20
1563.6685431045421
 30
0.0
 11
2168.2556885900749
 21
1563.6685431045421
 31
0.0
  0
LINE
  5
14225
  8
0
 10
2162.2556611734171
 20
1601.6685437032741
 30
0.0
 11
2168.2556885900749
 21
1601.6685437032741
 31
0.0
  0
LINE
  5
14226
  8
0
 10
2162.2556770067399
 20
1563.6685431045421
 30
0.0
 11
2162.2556611734171
 21
1601.6685437032741
 31
0.0
  0
LINE
  5
14227
  8
0
 10
2168.2556885900749
 20
1592.6685437032741
 30
0.0
 11
2195.2556885900749
 21
1592.6685437032741
 31
0.0
  0
LINE
  5
14228
  8
0
 10
2168.2556885900749
 20
1600.668238703274
 30
0.0
 11
2195.2556885900749
 21
1600.668238703274
 31
0.0
  0
LINE
  5
14229
  8
0
 10
2168.2556885900749
 20
1554.668512703274
 30
0.0
 11
2168.2556885900749
 21
1602.6685437032741
 31
0.0
  0
LINE
  5
1422A
  8
0
 10
2195.2556885900749
 20
1602.6685437032741
 30
0.0
 11
2195.2556885900749
 21
1554.6685437032741
 31
0.0
  0
LINE
  5
1422B
  8
0
 10
2168.2556885900749
 20
1602.6685437032741
 30
0.0
 11
2195.2556885900749
 21
1602.6685437032741
 31
0.0
  0
LINE
  5
1422C
  8
0
 10
2168.2556885900749
 20
1554.6685437032741
 30
0.0
 11
2195.2556885900749
 21
1554.6685437032741
 31
0.0
  0
LINE
  5
1422D
  8
CENTER
 10
2152.6392743236038
 20
1582.6685437032741
 30
0.0
 11
2199.466985485145
 21
1582.6685437032741
 31
0.0
  0
LINE
  5
1422E
  8
HIDE
 10
2163.2556885900749
 20
1592.4185437032741
 30
0.0
 11
2170.255688590074
 21
1592.4185437032741
 31
0.0
  0
LINE
  5
1422F
  8
HIDE
 10
2163.2556885900749
 20
1572.9185437032741
 30
0.0
 11
2170.2556885900749
 21
1572.9185437032741
 31
0.0
  0
LINE
  5
14230
  8
HIDE
 10
2188.2556885900749
 20
1572.9185437032741
 30
0.0
 11
2195.2556885900749
 21
1572.9185437032741
 31
0.0
  0
LINE
  5
14231
  8
HIDE
 10
2188.2556885900749
 20
1592.4185437032741
 30
0.0
 11
2195.2556885900749
 21
1592.4185437032741
 31
0.0
  0
CIRCLE
  5
14232
  8
HIDE
 10
2183.7556885900749
 20
1570.9185437032741
 30
0.0
 40
2.549999999999998
  0
CIRCLE
  5
14233
  8
HIDE
 10
2183.7556885900749
 20
1594.4185437032741
 30
0.0
 40
2.549999999999998
  0
CIRCLE
  5
14234
  8
HIDE
 10
2174.7556885900749
 20
1570.9185437032741
 30
0.0
 40
2.5499999999999989
  0
CIRCLE
  5
14235
  8
HIDE
 10
2174.7556885900749
 20
1594.4185437032741
 30
0.0
 40
2.5499999999999989
  0
ARC
  5
14236
  8
HIDE
 10
2179.1056885900748
 20
1598.518543703274
 30
0.0
 40
0.1500000000000003
 50
0.0
 51
90.0
  0
ARC
  5
14237
  8
HIDE
 10
2170.5556885900751
 20
1598.3685437032741
 30
0.0
 40
0.3000000000000007
 50
90.0
 51
180.0
  0
ARC
  5
14238
  8
HIDE
 10
2178.9556885900752
 20
1590.468543703274
 30
0.0
 40
0.2999999999999998
 50
270.0
 51
0.0
  0
ARC
  5
14239
  8
HIDE
 10
2178.9556885900752
 20
1574.8685437032741
 30
0.0
 40
0.3000000000000007
 50
0.0
 51
90.0
  0
ARC
  5
1423A
  8
HIDE
 10
2170.405688590075
 20
1590.318543703273
 30
0.0
 40
0.1499999999999986
 50
180.0
 51
270.0
  0
ARC
  5
1423B
  8
HIDE
 10
2170.405688590075
 20
1575.018543703274
 30
0.0
 40
0.1500000000000003
 50
90.0
 51
180.0
  0
ARC
  5
1423C
  8
HIDE
 10
2179.1056885900748
 20
1566.818543703273
 30
0.0
 40
0.1499999999999986
 50
270.0
 51
0.0
  0
ARC
  5
1423D
  8
HIDE
 10
2170.5556885900751
 20
1566.968543703274
 30
0.0
 40
0.3000000000000007
 50
180.0
 51
270.0
  0
LINE
  5
1423E
  8
HIDE
 10
2170.2556885900749
 20
1595.718543703274
 30
0.0
 11
2172.5619474932269
 21
1595.718543703274
 31
0.0
  0
LINE
  5
1423F
  8
HIDE
 10
2170.5556885900751
 20
1598.6685437032741
 30
0.0
 11
2179.1056885900748
 21
1598.6685437032741
 31
0.0
  0
LINE
  5
14240
  8
HIDE
 10
2179.2556885900749
 20
1593.118543703273
 30
0.0
 11
2176.9494296869229
 21
1593.118543703273
 31
0.0
  0
LINE
  5
14241
  8
HIDE
 10
2175.7433396722981
 20
1596.769510597933
 30
0.0
 11
2179.2556885900749
 21
1596.968543703274
 31
0.0
  0
LINE
  5
14242
  8
HIDE
 10
2170.2556885900749
 20
1593.118543703273
 30
0.0
 11
2172.5619474932269
 21
1593.118543703273
 31
0.0
  0
LINE
  5
14243
  8
HIDE
 10
2170.2556885900749
 20
1572.218543703274
 30
0.0
 11
2172.5619474932269
 21
1572.218543703274
 31
0.0
  0
LINE
  5
14244
  8
HIDE
 10
2170.405688590075
 20
1590.1685437032741
 30
0.0
 11
2178.9556885900752
 21
1590.1685437032741
 31
0.0
  0
LINE
  5
14245
  8
HIDE
 10
2170.405688590075
 20
1575.1685437032741
 30
0.0
 11
2178.9556885900752
 21
1575.1685437032741
 31
0.0
  0
LINE
  5
14246
  8
HIDE
 10
2179.2556885900749
 20
1572.218543703274
 30
0.0
 11
2176.9494296869229
 21
1572.218543703274
 31
0.0
  0
LINE
  5
14247
  8
HIDE
 10
2170.2556885900749
 20
1569.618543703273
 30
0.0
 11
2172.5619474932269
 21
1569.618543703273
 31
0.0
  0
LINE
  5
14248
  8
HIDE
 10
2179.1056885900748
 20
1566.6685437032741
 30
0.0
 11
2170.5556885900751
 21
1566.6685437032741
 31
0.0
  0
LINE
  5
14249
  8
HIDE
 10
2175.7433396722981
 20
1568.5675768086151
 30
0.0
 11
2179.2556885900749
 21
1568.3685437032741
 31
0.0
  0
LINE
  5
1424A
  8
HIDE
 10
2170.2556885900749
 20
1566.968543703274
 30
0.0
 11
2170.2556885900749
 21
1598.3685437032741
 31
0.0
  0
LINE
  5
1424B
  8
HIDE
 10
2179.2556885900749
 20
1598.518543703274
 30
0.0
 11
2179.2556885900749
 21
1566.818543703273
 31
0.0
  0
ARC
  5
1424C
  8
HIDE
 10
2179.4056885900741
 20
1566.818543703273
 30
0.0
 40
0.1500000000000003
 50
180.0
 51
270.0
  0
ARC
  5
1424D
  8
HIDE
 10
2187.9556885900752
 20
1566.968543703274
 30
0.0
 40
0.2999999999999989
 50
270.0
 51
0.0
  0
ARC
  5
1424E
  8
HIDE
 10
2179.5556885900751
 20
1574.8685437032741
 30
0.0
 40
0.2999999999999998
 50
90.0
 51
180.0
  0
ARC
  5
1424F
  8
HIDE
 10
2179.5556885900751
 20
1590.468543703274
 30
0.0
 40
0.3000000000000007
 50
180.0
 51
270.0
  0
ARC
  5
14250
  8
HIDE
 10
2188.1056885900748
 20
1575.018543703274
 30
0.0
 40
0.15
 50
0.0
 51
90.0
  0
ARC
  5
14251
  8
HIDE
 10
2188.1056885900748
 20
1590.318543703273
 30
0.0
 40
0.1500000000000003
 50
270.0
 51
0.0
  0
ARC
  5
14252
  8
HIDE
 10
2179.405688590075
 20
1598.518543703274
 30
0.0
 40
0.1500000000000003
 50
90.0
 51
180.0
  0
ARC
  5
14253
  8
HIDE
 10
2187.9556885900752
 20
1598.3685437032741
 30
0.0
 40
0.3
 50
0.0
 51
90.0
  0
LINE
  5
14254
  8
HIDE
 10
2188.2556885900749
 20
1569.618543703273
 30
0.0
 11
2185.9494296869229
 21
1569.618543703273
 31
0.0
  0
LINE
  5
14255
  8
HIDE
 10
2187.9556885900752
 20
1566.6685437032741
 30
0.0
 11
2179.4056885900741
 21
1566.6685437032741
 31
0.0
  0
LINE
  5
14256
  8
HIDE
 10
2179.2556885900749
 20
1572.218543703274
 30
0.0
 11
2181.5619474932269
 21
1572.218543703274
 31
0.0
  0
LINE
  5
14257
  8
HIDE
 10
2182.7680375078521
 20
1568.5675768086151
 30
0.0
 11
2179.2556885900749
 21
1568.3685437032741
 31
0.0
  0
LINE
  5
14258
  8
HIDE
 10
2188.2556885900749
 20
1572.218543703274
 30
0.0
 11
2185.9494296869229
 21
1572.218543703274
 31
0.0
  0
LINE
  5
14259
  8
HIDE
 10
2188.2556885900749
 20
1593.118543703273
 30
0.0
 11
2185.9494296869229
 21
1593.118543703273
 31
0.0
  0
LINE
  5
1425A
  8
HIDE
 10
2188.1056885900748
 20
1575.1685437032741
 30
0.0
 11
2179.5556885900751
 21
1575.1685437032741
 31
0.0
  0
LINE
  5
1425B
  8
HIDE
 10
2188.1056885900748
 20
1590.1685437032741
 30
0.0
 11
2179.5556885900751
 21
1590.1685437032741
 31
0.0
  0
LINE
  5
1425C
  8
HIDE
 10
2179.2556885900749
 20
1593.118543703273
 30
0.0
 11
2181.5619474932269
 21
1593.118543703273
 31
0.0
  0
LINE
  5
1425D
  8
HIDE
 10
2188.2556885900749
 20
1595.718543703274
 30
0.0
 11
2185.9494296869229
 21
1595.718543703274
 31
0.0
  0
LINE
  5
1425E
  8
HIDE
 10
2179.405688590075
 20
1598.6685437032741
 30
0.0
 11
2187.9556885900752
 21
1598.6685437032741
 31
0.0
  0
LINE
  5
1425F
  8
HIDE
 10
2182.7680375078521
 20
1596.769510597933
 30
0.0
 11
2179.2556885900749
 21
1596.968543703274
 31
0.0
  0
LINE
  5
14260
  8
HIDE
 10
2188.2556885900749
 20
1598.3685437032741
 30
0.0
 11
2188.2556885900749
 21
1566.968543703274
 31
0.0
  0
LINE
  5
14261
  8
HIDE
 10
2163.2556885900749
 20
1593.1720872360929
 30
0.0
 11
2163.2556885900749
 21
1572.1650001704541
 31
0.0
  0
LINE
  5
14262
  8
CENTER
 10
2158.7556885900749
 20
1595.904769115494
 30
0.0
 11
2158.7556885900749
 21
1579.877833277553
 31
0.0
  0
LINE
  5
14263
  8
HIDE
 10
2162.7556885900749
 20
1595.1685437032741
 30
0.0
 11
2162.7556885900749
 21
1570.1685437032741
 31
0.0
  0
LINE
  5
14264
  8
0
 10
2155.2556885900749
 20
1595.1685437032741
 30
0.0
 11
2155.2556885900749
 21
1570.1685437032741
 31
0.0
  0
LINE
  5
14265
  8
0
 10
2162.2556638817482
 20
1595.1685434949291
 30
0.0
 11
2155.2556885900749
 21
1595.1685437032741
 31
0.0
  0
LINE
  5
14266
  8
HIDE
 10
2163.2556885900749
 20
1593.1720872360929
 30
0.0
 11
2162.7556885900749
 21
1593.4607623706861
 31
0.0
  0
LINE
  5
14267
  8
HIDE
 10
2163.2556885900772
 20
1589.6685437032741
 30
0.0
 11
2155.2556885900749
 21
1589.6685437032741
 31
0.0
  0
LINE
  5
14268
  8
HIDE
 10
2163.2556885900772
 20
1590.1685437032741
 30
0.0
 11
2155.2556885900749
 21
1590.1685437032741
 31
0.0
  0
LINE
  5
14269
  8
0
 10
2162.2556675984292
 20
1586.248504390391
 30
0.0
 11
2155.2556885900749
 21
1586.248504390391
 31
0.0
  0
LINE
  5
1426A
  8
0
 10
2162.255674298407
 20
1570.1685434949341
 30
0.0
 11
2155.2556885900749
 21
1570.1685437032741
 31
0.0
  0
LINE
  5
1426B
  8
HIDE
 10
2163.2556885900749
 20
1572.1650001704541
 30
0.0
 11
2162.7556885900749
 21
1571.876325035862
 31
0.0
  0
LINE
  5
1426C
  8
HIDE
 10
2163.2556885900772
 20
1575.6685437032729
 30
0.0
 11
2155.2556885900749
 21
1575.6685437032729
 31
0.0
  0
LINE
  5
1426D
  8
HIDE
 10
2163.2556885900772
 20
1575.1685437032741
 30
0.0
 11
2155.2556885900749
 21
1575.1685437032741
 31
0.0
  0
LINE
  5
1426E
  8
0
 10
2162.2556705817269
 20
1579.0885830161581
 30
0.0
 11
2155.2556885900749
 21
1579.0885830161569
 31
0.0
  0
LINE
  5
1426F
  8
HIDE
 10
2156.7556885900731
 20
1595.1685437032741
 30
0.0
 11
2156.7556885900749
 21
1589.668543703275
 31
0.0
  0
LINE
  5
14270
  8
HIDE
 10
2157.1056885900748
 20
1595.1685437032741
 30
0.0
 11
2157.1056885900748
 21
1589.668543703275
 31
0.0
  0
LINE
  5
14271
  8
HIDE
 10
2160.7556885900749
 20
1595.1685437032741
 30
0.0
 11
2160.7556885900749
 21
1589.668543703275
 31
0.0
  0
LINE
  5
14272
  8
HIDE
 10
2160.405688590075
 20
1595.1685437032741
 30
0.0
 11
2160.405688590075
 21
1589.668543703275
 31
0.0
  0
LINE
  5
14273
  8
HIDE
 10
2160.7556885900749
 20
1594.631066965625
 30
0.0
 11
2156.7556885900731
 21
1594.6310669656241
 31
0.0
  0
LINE
  5
14274
  8
HIDE
 10
2160.7556885900749
 20
1590.631066965625
 30
0.0
 11
2156.7556885900731
 21
1590.6310669656241
 31
0.0
  0
LINE
  5
14275
  8
HIDE
 10
2157.1056885900748
 20
1590.428994371408
 30
0.0
 11
2156.7556885900749
 21
1590.6310669656241
 31
0.0
  0
LINE
  5
14276
  8
HIDE
 10
2157.1056885900748
 20
1590.428994371408
 30
0.0
 11
2160.405688590075
 21
1590.428994371408
 31
0.0
  0
LINE
  5
14277
  8
HIDE
 10
2160.405688590075
 20
1590.428994371408
 30
0.0
 11
2160.7556885900749
 21
1590.6310669656241
 31
0.0
  0
CIRCLE
  5
14278
  8
0
 10
2158.7556885900749
 20
1582.6685437032741
 30
0.0
 40
2.0
  0
CIRCLE
  5
14279
  8
0
 10
2158.7556885900749
 20
1582.6685437032741
 30
0.0
 40
1.649999999995998
  0
POLYLINE
  5
1427A
  8
0
 66
     1
 10
0.0
 20
0.0
 30
0.0
 70
     1
  0
VERTEX
  5
1436A
  8
0
 10
2158.7556885900749
 20
1583.7464588908599
 30
0.0
  0
VERTEX
  5
1436B
  8
0
 10
2159.6891905256498
 20
1583.207501297067
 30
0.0
  0
VERTEX
  5
1436C
  8
0
 10
2159.6891905256498
 20
1582.12958610948
 30
0.0
  0
VERTEX
  5
1436D
  8
0
 10
2158.7556885900749
 20
1581.5906285156871
 30
0.0
  0
VERTEX
  5
1436E
  8
0
 10
2157.8221866545
 20
1582.12958610948
 30
0.0
  0
VERTEX
  5
1436F
  8
0
 10
2157.8221866545
 20
1583.207501297067
 30
0.0
  0
SEQEND
  5
14370
  8
0
  0
LINE
  5
1427B
  8
CENTER
 10
2174.2556865900742
 20
1562.964414142843
 30
0.0
 11
2174.2556865900742
 21
1545.0111760161669
 31
0.0
  0
LINE
  5
1427C
  8
CENTER
 10
2189.255688590074
 20
1562.964414142843
 30
0.0
 11
2189.2556885900749
 21
1545.0111760161669
 31
0.0
  0
LINE
  5
1427D
  8
HIDE
 10
2162.2556742984079
 20
1570.1685434949341
 30
0.0
 11
2162.7556885900749
 21
1570.1685434949341
 31
0.0
  0
LINE
  5
1427E
  8
HIDE
 10
2162.2556638817491
 20
1595.1685434949291
 30
0.0
 11
2162.7556885900749
 21
1595.1685437032741
 31
0.0
  0
LINE
  5
1427F
  8
HIDE
 10
2162.2556675984292
 20
1586.248504390391
 30
0.0
 11
2162.7556885900749
 21
1586.248504390391
 31
0.0
  0
LINE
  5
14280
  8
HIDE
 10
2162.2556705817269
 20
1579.0885830161581
 30
0.0
 11
2162.7556885900749
 21
1579.0885830161581
 31
0.0
  0
LINE
  5
14299
  8
0
 10
2078.842289712723
 20
1592.622930482758
 30
0.0
 11
2078.842289712723
 21
1600.622504476099
 31
0.0
  0
LINE
  5
1429A
  8
0
 10
2118.842289712723
 20
1592.622930482758
 30
0.0
 11
2118.842289712723
 21
1600.622989480167
 31
0.0
  0
ENDSEC
  0
EOF
