  0
SECTION
  2
HEADER
  9
$ACADVER
  1
AC1009
  9
$INSBASE
 10
0.0
 20
0.0
 30
0.0
  9
$EXTMIN
 10
1903.0405749290021
 20
1433.173578249188
 30
0.0
  9
$EXTMAX
 10
2348.540574929003
 20
1748.173578249188
 30
0.0
  9
$LIMMIN
 10
0.0
 20
0.0
  9
$LIMMAX
 10
12.0
 20
9.0
  9
$ORTHOMODE
 70
     0
  9
$REGENMODE
 70
     1
  9
$FILLMODE
 70
     1
  9
$QTEXTMODE
 70
     0
  9
$MIRRTEXT
 70
     0
  9
$DRAGMODE
 70
     2
  9
$LTSCALE
 40
5.0
  9
$OSMODE
 70
  2239
  9
$ATTMODE
 70
     1
  9
$TEXTSIZE
 40
2.5
  9
$TRACEWID
 40
0.05
  9
$TEXTSTYLE
  7
BIG
  9
$CLAYER
  8
0
  9
$CELTYPE
  6
BYLAYER
  9
$CECOLOR
 62
   256
  9
$DIMSCALE
 40
1.0
  9
$DIMASZ
 40
3.0
  9
$DIMEXO
 40
1.0
  9
$DIMDLI
 40
0.0
  9
$DIMRND
 40
0.0
  9
$DIMDLE
 40
0.0
  9
$DIMEXE
 40
1.0
  9
$DIMTP
 40
0.0
  9
$DIMTM
 40
0.0
  9
$DIMTXT
 40
3.0
  9
$DIMCEN
 40
0.0
  9
$DIMTSZ
 40
0.0
  9
$DIMTOL
 70
     0
  9
$DIMLIM
 70
     0
  9
$DIMTIH
 70
     0
  9
$DIMTOH
 70
     0
  9
$DIMSE1
 70
     0
  9
$DIMSE2
 70
     0
  9
$DIMTAD
 70
     1
  9
$DIMZIN
 70
     8
  9
$DIMBLK
  1

  9
$DIMASO
 70
     1
  9
$DIMSHO
 70
     1
  9
$DIMPOST
  1

  9
$DIMAPOST
  1

  9
$DIMALT
 70
     0
  9
$DIMALTD
 70
     2
  9
$DIMALTF
 40
25.399999999999999
  9
$DIMLFAC
 40
1.0
  9
$DIMTOFL
 70
     1
  9
$DIMTVP
 40
0.0
  9
$DIMTIX
 70
     1
  9
$DIMSOXD
 70
     0
  9
$DIMSAH
 70
     0
  9
$DIMBLK1
  1

  9
$DIMBLK2
  1

  9
$DIMSTYLE
  2
DUKITEC
  9
$DIMCLRD
 70
     5
  9
$DIMCLRE
 70
     5
  9
$DIMCLRT
 70
     0
  9
$DIMTFAC
 40
1.0
  9
$DIMGAP
 40
1.0
  9
$LUNITS
 70
     2
  9
$LUPREC
 70
     4
  9
$SKETCHINC
 40
0.1
  9
$FILLETRAD
 40
0.2
  9
$AUNITS
 70
     0
  9
$AUPREC
 70
     0
  9
$MENU
  1
.
  9
$ELEVATION
 40
0.0
  9
$PELEVATION
 40
0.0
  9
$THICKNESS
 40
0.0
  9
$LIMCHECK
 70
     0
  9
$BLIPMODE
 70
     0
  9
$CHAMFERA
 40
0.5
  9
$CHAMFERB
 40
0.5
  9
$SKPOLY
 70
     0
  9
$TDCREATE
 40
2454396.6930121528
  9
$TDUPDATE
 40
2456630.454574584
  9
$TDINDWG
 40
0.0009428241
  9
$TDUSRTIMER
 40
0.0009428241
  9
$USRTIMER
 70
     1
  9
$ANGBASE
 50
0.0
  9
$ANGDIR
 70
     0
  9
$PDMODE
 70
     0
  9
$PDSIZE
 40
0.0
  9
$PLINEWID
 40
0.0
  9
$COORDS
 70
     1
  9
$SPLFRAME
 70
     0
  9
$SPLINETYPE
 70
     6
  9
$SPLINESEGS
 70
     8
  9
$ATTDIA
 70
     0
  9
$ATTREQ
 70
     1
  9
$HANDLING
 70
     1
  9
$HANDSEED
  5
142AF
  9
$SURFTAB1
 70
     6
  9
$SURFTAB2
 70
     6
  9
$SURFTYPE
 70
     6
  9
$SURFU
 70
     6
  9
$SURFV
 70
     6
  9
$UCSNAME
  2

  9
$UCSORG
 10
0.0
 20
0.0
 30
0.0
  9
$UCSXDIR
 10
1.0
 20
0.0
 30
0.0
  9
$UCSYDIR
 10
0.0
 20
1.0
 30
0.0
  9
$PUCSNAME
  2

  9
$PUCSORG
 10
0.0
 20
0.0
 30
0.0
  9
$PUCSXDIR
 10
1.0
 20
0.0
 30
0.0
  9
$PUCSYDIR
 10
0.0
 20
1.0
 30
0.0
  9
$USERI1
 70
     0
  9
$USERI2
 70
     0
  9
$USERI3
 70
     0
  9
$USERI4
 70
     0
  9
$USERI5
 70
     0
  9
$USERR1
 40
0.0
  9
$USERR2
 40
0.0
  9
$USERR3
 40
0.0
  9
$USERR4
 40
0.0
  9
$USERR5
 40
0.0
  9
$WORLDVIEW
 70
     1
  9
$SHADEDGE
 70
     3
  9
$SHADEDIF
 70
    70
  9
$TILEMODE
 70
     1
  9
$MAXACTVP
 70
    64
  9
$PLIMCHECK
 70
     0
  9
$PEXTMIN
 10
0.0
 20
0.0
 30
0.0
  9
$PEXTMAX
 10
0.0
 20
0.0
 30
0.0
  9
$PLIMMIN
 10
0.0
 20
0.0
  9
$PLIMMAX
 10
12.0
 20
9.0
  9
$UNITMODE
 70
     0
  9
$VISRETAIN
 70
     1
  9
$PLINEGEN
 70
     0
  9
$PSLTSCALE
 70
     1
  0
ENDSEC
  0
SECTION
  2
TABLES
  0
TABLE
  2
VPORT
 70
     1
  0
VPORT
  2
*ACTIVE
 70
     0
 10
0.0
 20
0.0
 11
1.0
 21
1.0
 12
2123.7161597559239
 22
1583.477747131996
 13
0.0
 23
0.0
 14
0.5
 24
0.5
 15
0.5
 25
0.5
 16
0.0
 26
0.0
 36
1.0
 17
0.0
 27
0.0
 37
0.0
 40
366.36528790538682
 41
2.1408934707903771
 42
50.0
 43
0.0
 44
0.0
 50
0.0
 51
0.0
 71
     0
 72
  2000
 73
     1
 74
     3
 75
     0
 76
     0
 77
     0
 78
     0
  0
ENDTAB
  0
TABLE
  2
LTYPE
 70
     4
  0
LTYPE
  2
CONTINUOUS
 70
     0
  3
Solid line
 72
    65
 73
     0
 40
0.0
  0
LTYPE
  2
PHANTOM2
 70
     0
  3
Phantom (.5x) ___ _ _ ___ _ _ ___ _ _ ___ _ _
 72
    65
 73
     6
 40
1.25
 49
0.625
 49
-0.125
 49
0.125
 49
-0.125
 49
0.125
 49
-0.125
  0
LTYPE
  2
CENTER
 70
     0
  3
___ _ ___ _ ___ _ ___ _ ___ _ ___ _ ___ _ ___ _
 72
    65
 73
     4
 40
0.95
 49
0.625
 49
-0.125
 49
0.075
 49
-0.125
  0
LTYPE
  2
DASHED2
 70
     0
  3
Dashed (.5x) _ _ _ _ _ _ _ _ _ _ _ _ _ _ _ _ _
 72
    65
 73
     2
 40
0.375
 49
0.25
 49
-0.125
  0
ENDTAB
  0
TABLE
  2
LAYER
 70
     4
  0
LAYER
  2
0
 70
     0
 62
     7
  6
CONTINUOUS
  0
LAYER
  2
HIDE
 70
     0
 62
     1
  6
DASHED2
  0
LAYER
  2
CENTER
 70
     0
 62
     3
  6
CENTER
  0
ENDTAB
  0
TABLE
  2
STYLE
 70
     3
  0
STYLE
  2
STANDARD
 70
     0
 40
5.0
 41
1.0
 50
0.0
 71
     0
 42
5.0
  3
txt.shx
  4
whgtxt.shx
  0
STYLE
  2
BIG
 70
     0
 40
20.0
 41
1.0
 50
0.0
 71
     0
 42
2.5
  3
txt
  4

  0
ENDTAB
  0
TABLE
  2
VIEW
 70
     0
  0
ENDTAB
  0
TABLE
  2
UCS
 70
     0
  0
ENDTAB
  0
TABLE
  2
APPID
 70
    10
  0
APPID
  2
ACAD
 70
     0
  0
APPID
  2
ACADANNOTATIVE
 70
     0
  0
APPID
  2
ACAD_EXEMPT_FROM_CAD_STANDARDS
 70
     0
  0
APPID
  2
ACAD_DSTYLE_DIMJOGGED_JOGA
 70
     0
  0
APPID
  2
ACAD_PSEXT
 70
     0
  0
APPID
  2
ACAECLAYERSTANDARD
 70
     0
  0
APPID
  2
DCO15
 70
     0
  0
APPID
  2
CONTENTBLOCKICON
 70
     0
  0
APPID
  2
ACAD_NAV_VCDISPLAY
 70
     0
  0
APPID
  2
ACAD_MLEADERVER
 70
     0
  0
ENDTAB
  0
TABLE
  2
DIMSTYLE
 70
     3
  0
DIMSTYLE
  2
DUKITEC
 70
     0
  3

  4

  5

  6

  7

 40
1.0
 41
3.0
 42
1.0
 43
0.0
 44
1.0
 45
0.0
 46
0.0
 47
0.0
 48
0.0
140
3.0
141
0.0
142
0.0
143
25.399999999999999
144
1.0
145
0.0
146
1.0
147
1.0
 71
     0
 72
     0
 73
     0
 74
     0
 75
     0
 76
     0
 77
     1
 78
     8
170
     0
171
     2
172
     1
173
     0
174
     1
175
     0
176
     5
177
     5
178
     0
  0
ENDTAB
  0
ENDSEC
  0
SECTION
  2
BLOCKS
  0
BLOCK
  8
0
  2
$MODEL_SPACE
 70
     0
 10
0.0
 20
0.0
 30
0.0
  3
$MODEL_SPACE
  1

  0
ENDBLK
  5
140D5
  8
0
  0
BLOCK
 67
     1
  8
0
  2
$PAPER_SPACE
 70
     0
 10
0.0
 20
0.0
 30
0.0
  3
$PAPER_SPACE
  1

  0
ENDBLK
  5
140D1
 67
     1
  8
0
  0
ENDSEC
  0
SECTION
  2
ENTITIES
  0
POLYLINE
  5
13E1C
  8
0
 66
     1
 10
0.0
 20
0.0
 30
0.0
 70
     1
  0
VERTEX
  5
14261
  8
0
 10
1903.0405749290021
 20
1433.173578249188
 30
0.0
  0
VERTEX
  5
14262
  8
0
 10
1903.0405749290021
 20
1748.173578249188
 30
0.0
  0
VERTEX
  5
14263
  8
0
 10
2348.540574929003
 20
1748.173578249188
 30
0.0
  0
VERTEX
  5
14264
  8
0
 10
2348.540574929003
 20
1433.173578249188
 30
0.0
  0
VERTEX
  5
14265
  8
0
 10
1903.0405749290021
 20
1433.173578249188
 30
0.0
  0
SEQEND
  5
14266
  8
0
  0
TEXT
  5
14035
  8
0
 10
2083.3466103011278
 20
1467.00417882645
 30
0.0
 40
20.0
  1
BK20
  7
BIG
  0
LINE
  5
140F3
  8
0
 10
2041.340039895196
 20
1641.902300101882
 30
0.0
 11
2041.340039895196
 21
1649.9022801018821
 31
0.0
  0
LINE
  5
140F4
  8
0
 10
2091.3400072839891
 20
1641.902300101882
 30
0.0
 11
2091.3400072839891
 21
1649.9022801018821
 31
0.0
  0
LINE
  5
140F5
  8
0
 10
2022.340038283988
 20
1684.902290101882
 30
0.0
 11
2022.340038283988
 21
1649.9022801018821
 31
0.0
  0
LINE
  5
140F6
  8
0
 10
2110.3400382839882
 20
1649.9022801018821
 30
0.0
 11
2110.3400382839882
 21
1684.902290101882
 31
0.0
  0
LINE
  5
140F7
  8
HIDE
 10
2056.3400382839891
 20
1632.902290101882
 30
0.0
 11
2056.3400382839882
 21
1684.902290101882
 31
0.0
  0
LINE
  5
140F8
  8
HIDE
 10
2076.3400382839882
 20
1632.902290101882
 30
0.0
 11
2076.3400382839882
 21
1684.902290101882
 31
0.0
  0
LINE
  5
140F9
  8
0
 10
2040.340038283988
 20
1649.9022801018821
 30
0.0
 11
2040.340038283988
 21
1684.902290101882
 31
0.0
  0
LINE
  5
140FA
  8
0
 10
2042.3401542899469
 20
1649.9022801018821
 30
0.0
 11
2042.3401542899469
 21
1684.902290101882
 31
0.0
  0
LINE
  5
140FB
  8
0
 10
2092.3400382839882
 20
1649.9022801018821
 30
0.0
 11
2092.3400382839882
 21
1684.902290101882
 31
0.0
  0
LINE
  5
140FC
  8
0
 10
2090.340121284295
 20
1649.9022801018821
 30
0.0
 11
2090.340121284295
 21
1684.902290101882
 31
0.0
  0
LINE
  5
140FD
  8
0
 10
2050.3400382839882
 20
1632.9022901018809
 30
0.0
 11
2050.3400382839882
 21
1641.902300101882
 31
0.0
  0
LINE
  5
140FE
  8
0
 10
2082.3400382839882
 20
1632.9022901018809
 30
0.0
 11
2082.3400382839882
 21
1641.902300101882
 31
0.0
  0
CIRCLE
  5
140FF
  8
0
 10
2101.3400382839882
 20
1657.902300101882
 30
0.0
 40
7.0000009999999993
  0
CIRCLE
  5
14100
  8
0
 10
2101.3400382839882
 20
1657.902300101882
 30
0.0
 40
4.5
  0
CIRCLE
  5
14101
  8
0
 10
2031.3400382839891
 20
1676.902290101882
 30
0.0
 40
7.0000009999999993
  0
CIRCLE
  5
14102
  8
0
 10
2101.3400382839882
 20
1676.902290101882
 30
0.0
 40
7.0000009999999993
  0
CIRCLE
  5
14103
  8
0
 10
2101.3400382839882
 20
1676.902290101882
 30
0.0
 40
4.5
  0
CIRCLE
  5
14104
  8
0
 10
2031.3400382839891
 20
1676.902290101882
 30
0.0
 40
4.5
  0
LINE
  5
14105
  8
0
 10
2066.3400397207479
 20
1639.5610435024271
 30
0.0
 11
2064.9030372436209
 21
1638.7313823237409
 31
0.0
  0
LINE
  5
14106
  8
0
 10
2067.7765580098689
 20
1637.0723545021001
 30
0.0
 11
2066.3400382839882
 21
1636.242987859147
 31
0.0
  0
LINE
  5
14107
  8
0
 10
2067.7765594466282
 20
1638.731666802154
 30
0.0
 11
2066.340036847228
 21
1639.5610435024271
 31
0.0
  0
LINE
  5
14108
  8
0
 10
2066.3400382839882
 20
1636.242987859147
 30
0.0
 11
2064.903040117139
 21
1637.0726389805129
 31
0.0
  0
LINE
  5
14109
  8
0
 10
2067.7765565731102
 20
1637.0723545021001
 30
0.0
 11
2067.7765565731102
 21
1638.731666802154
 31
0.0
  0
LINE
  5
1410A
  8
0
 10
2064.9030372436209
 20
1637.0726389805129
 30
0.0
 11
2064.9030372436209
 21
1638.7313823237409
 31
0.0
  0
LINE
  5
1410B
  8
CENTER
 10
2063.3400382839882
 20
1637.902290101882
 30
0.0
 11
2069.3400382839882
 21
1637.902290101882
 31
0.0
  0
LINE
  5
1410C
  8
CENTER
 10
2066.3400382839882
 20
1626.7329560658191
 30
0.0
 11
2066.3400382839882
 21
1691.245804312254
 31
0.0
  0
LINE
  5
1410D
  8
0
 10
2022.340038283988
 20
1649.9022801018821
 30
0.0
 11
2110.3400382839882
 21
1649.9022801018821
 31
0.0
  0
LINE
  5
1410E
  8
0
 10
2022.340038283988
 20
1684.902290101882
 30
0.0
 11
2110.3400382839882
 21
1684.902290101882
 31
0.0
  0
LINE
  5
1410F
  8
0
 10
2041.340039895196
 20
1641.902300101882
 30
0.0
 11
2091.3400072839891
 21
1641.902300101882
 31
0.0
  0
LINE
  5
14110
  8
0
 10
2082.3400382839891
 20
1632.902290101882
 30
0.0
 11
2050.3400382839891
 21
1632.902290101882
 31
0.0
  0
CIRCLE
  5
14111
  8
0
 10
2066.3400382839882
 20
1637.902290101882
 30
0.0
 40
2.100000000002181
  0
CIRCLE
  5
14112
  8
0
 10
2066.3400382839882
 20
1637.902290101882
 30
0.0
 40
2.5000000000018181
  0
LINE
  5
14113
  8
0
 10
2061.917768922428
 20
1632.9022901018809
 30
0.0
 11
2061.9177689224289
 21
1641.902300101882
 31
0.0
  0
LINE
  5
14114
  8
0
 10
2070.7623076455479
 20
1632.9022901018809
 30
0.0
 11
2070.7623076455479
 21
1641.902300101882
 31
0.0
  0
CIRCLE
  5
14115
  8
0
 10
2031.3400382839891
 20
1657.902300101882
 30
0.0
 40
7.0000010000003368
  0
CIRCLE
  5
14116
  8
0
 10
2031.3400382839891
 20
1657.902300101882
 30
0.0
 40
4.5
  0
LINE
  5
14117
  8
CENTER
 10
2023.1587851897391
 20
1657.902300101882
 30
0.0
 11
2039.5212913782379
 21
1657.902300101882
 31
0.0
  0
LINE
  5
14118
  8
CENTER
 10
2031.3400382839891
 20
1649.721047007632
 30
0.0
 11
2031.3400382839891
 21
1666.0835531961311
 31
0.0
  0
LINE
  5
14119
  8
CENTER
 10
2023.1587851897391
 20
1676.902290101882
 30
0.0
 11
2039.5212913782379
 21
1676.902290101882
 31
0.0
  0
LINE
  5
1411A
  8
CENTER
 10
2031.3400382839891
 20
1668.721037007632
 30
0.0
 11
2031.3400382839891
 21
1685.083543196132
 31
0.0
  0
LINE
  5
1411B
  8
CENTER
 10
2093.158785189738
 20
1676.902290101882
 30
0.0
 11
2109.5212913782379
 21
1676.902290101882
 31
0.0
  0
LINE
  5
1411C
  8
CENTER
 10
2101.3400382839882
 20
1668.721037007632
 30
0.0
 11
2101.3400382839882
 21
1685.083543196132
 31
0.0
  0
LINE
  5
1411D
  8
CENTER
 10
2093.158785189738
 20
1657.902300101882
 30
0.0
 11
2109.5212913782379
 21
1657.902300101882
 31
0.0
  0
LINE
  5
1411E
  8
CENTER
 10
2101.3400382839882
 20
1649.721047007632
 30
0.0
 11
2101.3400382839882
 21
1666.0835531961311
 31
0.0
  0
LINE
  5
14121
  8
HIDE
 10
2157.6379888751999
 20
1568.4936350856419
 30
0.0
 11
2166.6379888751999
 21
1568.493635085641
 31
0.0
  0
LINE
  5
14122
  8
HIDE
 10
2190.6379888751999
 20
1568.493635085641
 30
0.0
 11
2199.6379888752008
 21
1568.493635085641
 31
0.0
  0
LINE
  5
14123
  8
HIDE
 10
2157.6379888751999
 20
1588.4936350856419
 30
0.0
 11
2166.6379888751999
 21
1588.493635085641
 31
0.0
  0
LINE
  5
14124
  8
HIDE
 10
2190.6379888751999
 20
1588.493635085641
 30
0.0
 11
2199.6379888752008
 21
1588.493635085641
 31
0.0
  0
LINE
  5
14125
  8
0
 10
2156.6379988752001
 20
1553.4936366968491
 30
0.0
 11
2164.6379988752001
 21
1553.4936366968491
 31
0.0
  0
LINE
  5
14126
  8
0
 10
2156.6379988752001
 20
1603.493634812316
 30
0.0
 11
2164.6379988752001
 21
1603.493634812316
 31
0.0
  0
LINE
  5
14127
  8
CENTER
 10
2144.6538175092201
 20
1578.493635085641
 30
0.0
 11
2204.3423246900361
 21
1578.493635085641
 31
0.0
  0
LINE
  5
14128
  8
HIDE
 10
2157.6379888751999
 20
1566.243635085641
 30
0.0
 11
2166.6379888751999
 21
1566.243635085641
 31
0.0
  0
LINE
  5
14129
  8
HIDE
 10
2190.6379888751999
 20
1566.243635085641
 30
0.0
 11
2199.6379888751999
 21
1566.243635085641
 31
0.0
  0
LINE
  5
1412A
  8
HIDE
 10
2157.6379888751999
 20
1590.7436350856401
 30
0.0
 11
2166.6379888751999
 21
1590.7436350856401
 31
0.0
  0
LINE
  5
1412B
  8
HIDE
 10
2190.6379888751999
 20
1590.7436350856401
 30
0.0
 11
2199.6379888751999
 21
1590.7436350856401
 31
0.0
  0
LINE
  5
1412C
  8
0
 10
2164.6379988752001
 20
1544.49365008564
 30
0.0
 11
2199.6379888751999
 21
1544.49365008564
 31
0.0
  0
LINE
  5
1412D
  8
0
 10
2164.6379988752001
 20
1604.49365008564
 30
0.0
 11
2199.6379888751999
 21
1604.49365008564
 31
0.0
  0
LINE
  5
1412E
  8
0
 10
2199.6379888751999
 20
1604.49365008564
 30
0.0
 11
2199.6379888751999
 21
1544.49365008564
 31
0.0
  0
LINE
  5
1412F
  8
0
 10
2156.6379988752001
 20
1603.493634812316
 30
0.0
 11
2156.6379988752001
 21
1553.4936366968491
 31
0.0
  0
LINE
  5
14130
  8
0
 10
2164.6379988752001
 20
1604.49365008564
 30
0.0
 11
2164.6379988752001
 21
1544.49365008564
 31
0.0
  0
LINE
  5
14131
  8
0
 10
2164.6379988752001
 20
1602.49370408564
 30
0.0
 11
2199.6379888751999
 21
1602.49370408564
 31
0.0
  0
LINE
  5
14132
  8
0
 10
2164.6379988752001
 20
1594.4936200856409
 30
0.0
 11
2199.6379888751999
 21
1594.4936200856409
 31
0.0
  0
CIRCLE
  5
14133
  8
HIDE
 10
2184.6379888751999
 20
1562.993635085641
 30
0.0
 40
3.299999999999998
  0
CIRCLE
  5
14134
  8
HIDE
 10
2184.6379888751999
 20
1593.993635085641
 30
0.0
 40
3.299999999999998
  0
CIRCLE
  5
14135
  8
HIDE
 10
2172.6379888751999
 20
1562.993635085641
 30
0.0
 40
3.2999999999999989
  0
CIRCLE
  5
14136
  8
HIDE
 10
2172.6379888751999
 20
1593.993635085641
 30
0.0
 40
3.2999999999999989
  0
ARC
  5
14137
  8
HIDE
 10
2178.3379888752002
 20
1599.1936350856399
 30
0.0
 40
0.3000000000000007
 50
0.0
 51
90.0
  0
ARC
  5
14138
  8
HIDE
 10
2167.2379888751998
 20
1598.89363508564
 30
0.0
 40
0.6000000000000015
 50
90.0
 51
180.0
  0
ARC
  5
14139
  8
HIDE
 10
2178.0379888752
 20
1589.0936350856409
 30
0.0
 40
0.5999999999999996
 50
270.0
 51
0.0
  0
ARC
  5
1413A
  8
HIDE
 10
2178.0379888752
 20
1567.89363508564
 30
0.0
 40
0.5999999999999996
 50
0.0
 51
90.0
  0
ARC
  5
1413B
  8
HIDE
 10
2166.9379888751992
 20
1588.793635085641
 30
0.0
 40
0.3000000000000007
 50
180.0
 51
270.0
  0
ARC
  5
1413C
  8
HIDE
 10
2166.9379888751992
 20
1568.1936350856399
 30
0.0
 40
0.3000000000000007
 50
90.0
 51
180.0
  0
ARC
  5
1413D
  8
HIDE
 10
2178.3379888752002
 20
1557.793635085641
 30
0.0
 40
0.3000000000000007
 50
270.0
 51
0.0
  0
ARC
  5
1413E
  8
HIDE
 10
2167.2379888751998
 20
1558.0936350856409
 30
0.0
 40
0.6000000000000015
 50
180.0
 51
270.0
  0
LINE
  5
1413F
  8
HIDE
 10
2166.6379888751999
 20
1595.743635085641
 30
0.0
 11
2169.8402219084919
 21
1595.743635085641
 31
0.0
  0
LINE
  5
14140
  8
HIDE
 10
2167.2379888751998
 20
1599.4936350856401
 30
0.0
 11
2178.3379888752002
 21
1599.4936350856401
 31
0.0
  0
LINE
  5
14141
  8
HIDE
 10
2178.6379888751999
 20
1592.2436350856401
 30
0.0
 11
2175.4357558419069
 21
1592.2436350856401
 31
0.0
  0
LINE
  5
14142
  8
HIDE
 10
2173.8550619149519
 20
1597.0610009288209
 30
0.0
 11
2178.6379888751999
 21
1597.4436350856399
 31
0.0
  0
LINE
  5
14143
  8
HIDE
 10
2166.6379888751999
 20
1592.2436350856401
 30
0.0
 11
2169.8402219084919
 21
1592.2436350856401
 31
0.0
  0
LINE
  5
14144
  8
HIDE
 10
2166.6379888751999
 20
1564.743635085641
 30
0.0
 11
2169.8402219084919
 21
1564.743635085641
 31
0.0
  0
LINE
  5
14145
  8
HIDE
 10
2166.9379888751992
 20
1588.493635085641
 30
0.0
 11
2178.0379888752
 21
1588.493635085641
 31
0.0
  0
LINE
  5
14146
  8
HIDE
 10
2166.9379888751992
 20
1568.493635085641
 30
0.0
 11
2178.0379888752
 21
1568.493635085641
 31
0.0
  0
LINE
  5
14147
  8
HIDE
 10
2178.6379888751999
 20
1564.743635085641
 30
0.0
 11
2175.4357558419069
 21
1564.743635085641
 31
0.0
  0
LINE
  5
14148
  8
HIDE
 10
2166.6379888751999
 20
1561.243635085641
 30
0.0
 11
2169.8402219084919
 21
1561.243635085641
 31
0.0
  0
LINE
  5
14149
  8
HIDE
 10
2178.3379888752002
 20
1557.493635085641
 30
0.0
 11
2167.2379888751998
 21
1557.493635085641
 31
0.0
  0
LINE
  5
1414A
  8
HIDE
 10
2173.8550619149519
 20
1559.9262692424611
 30
0.0
 11
2178.6379888751999
 21
1559.543635085641
 31
0.0
  0
LINE
  5
1414B
  8
HIDE
 10
2166.6379888751999
 20
1558.0936350856409
 30
0.0
 11
2166.6379888751999
 21
1598.89363508564
 31
0.0
  0
LINE
  5
1414C
  8
HIDE
 10
2178.6379888751999
 20
1599.1936350856399
 30
0.0
 11
2178.6379888751999
 21
1557.793635085641
 31
0.0
  0
ARC
  5
1414D
  8
HIDE
 10
2178.9379888751992
 20
1557.793635085641
 30
0.0
 40
0.3000000000000007
 50
180.0
 51
270.0
  0
ARC
  5
1414E
  8
HIDE
 10
2190.0379888752
 20
1558.0936350856409
 30
0.0
 40
0.6000000000000015
 50
270.0
 51
0.0
  0
ARC
  5
1414F
  8
HIDE
 10
2179.2379888751998
 20
1567.8936350856411
 30
0.0
 40
0.5999999999999996
 50
90.0
 51
180.0
  0
ARC
  5
14150
  8
HIDE
 10
2179.2379888751998
 20
1589.0936350856409
 30
0.0
 40
0.5999999999999996
 50
180.0
 51
270.0
  0
ARC
  5
14151
  8
HIDE
 10
2190.3379888751988
 20
1568.1936350856399
 30
0.0
 40
0.3
 50
0.0
 51
90.0
  0
ARC
  5
14152
  8
HIDE
 10
2190.3379888751988
 20
1588.793635085641
 30
0.0
 40
0.3000000000000007
 50
270.0
 51
0.0
  0
ARC
  5
14153
  8
HIDE
 10
2178.9379888752001
 20
1599.1936350856399
 30
0.0
 40
0.3000000000000007
 50
90.0
 51
180.0
  0
ARC
  5
14154
  8
HIDE
 10
2190.0379888752
 20
1598.89363508564
 30
0.0
 40
0.6
 50
0.0
 51
90.0
  0
LINE
  5
14155
  8
HIDE
 10
2190.6379888751999
 20
1561.243635085641
 30
0.0
 11
2187.4357558419069
 21
1561.243635085641
 31
0.0
  0
LINE
  5
14156
  8
HIDE
 10
2190.0379888752
 20
1557.493635085641
 30
0.0
 11
2178.9379888751992
 21
1557.493635085641
 31
0.0
  0
LINE
  5
14157
  8
HIDE
 10
2178.6379888751999
 20
1564.743635085641
 30
0.0
 11
2181.8402219084919
 21
1564.743635085641
 31
0.0
  0
LINE
  5
14158
  8
HIDE
 10
2183.420915835447
 20
1559.9262692424611
 30
0.0
 11
2178.637988875199
 21
1559.543635085641
 31
0.0
  0
LINE
  5
14159
  8
HIDE
 10
2190.6379888751999
 20
1564.743635085641
 30
0.0
 11
2187.4357558419069
 21
1564.743635085641
 31
0.0
  0
LINE
  5
1415A
  8
HIDE
 10
2190.6379888751999
 20
1592.2436350856401
 30
0.0
 11
2187.4357558419069
 21
1592.2436350856401
 31
0.0
  0
LINE
  5
1415B
  8
HIDE
 10
2190.3379888751988
 20
1568.493635085641
 30
0.0
 11
2179.2379888751998
 21
1568.493635085641
 31
0.0
  0
LINE
  5
1415C
  8
HIDE
 10
2190.3379888751988
 20
1588.493635085641
 30
0.0
 11
2179.2379888751998
 21
1588.493635085641
 31
0.0
  0
LINE
  5
1415D
  8
HIDE
 10
2178.6379888751999
 20
1592.2436350856401
 30
0.0
 11
2181.8402219084919
 21
1592.2436350856401
 31
0.0
  0
LINE
  5
1415E
  8
HIDE
 10
2190.6379888751999
 20
1595.743635085641
 30
0.0
 11
2187.4357558419069
 21
1595.743635085641
 31
0.0
  0
LINE
  5
1415F
  8
HIDE
 10
2178.9379888752001
 20
1599.4936350856401
 30
0.0
 11
2190.0379888752
 21
1599.4936350856401
 31
0.0
  0
LINE
  5
14160
  8
HIDE
 10
2183.4209158354479
 20
1597.0610009288209
 30
0.0
 11
2178.6379888751999
 21
1597.4436350856399
 31
0.0
  0
LINE
  5
14161
  8
HIDE
 10
2190.6379888751999
 20
1598.89363508564
 30
0.0
 11
2190.6379888751999
 21
1558.0936350856409
 31
0.0
  0
LINE
  5
14162
  8
HIDE
 10
2157.6379888751999
 20
1591.4911507303671
 30
0.0
 11
2157.6379888751999
 21
1565.4961194409141
 31
0.0
  0
LINE
  5
14163
  8
CENTER
 10
2152.6379888751999
 20
1595.5409178285479
 30
0.0
 11
2152.6379888751999
 21
1587.3507282394351
 31
0.0
  0
LINE
  5
14164
  8
HIDE
 10
2157.1379888751999
 20
1594.493635085641
 30
0.0
 11
2157.1379888751999
 21
1562.493635085641
 31
0.0
  0
LINE
  5
14165
  8
0
 10
2147.6379888751999
 20
1594.493635085641
 30
0.0
 11
2147.6379888751999
 21
1562.493635085641
 31
0.0
  0
LINE
  5
14166
  8
0
 10
2156.6379988751992
 20
1594.493635085641
 30
0.0
 11
2147.6379888751999
 21
1594.493635085641
 31
0.0
  0
LINE
  5
14167
  8
HIDE
 10
2157.6379888751999
 20
1591.4911507303671
 30
0.0
 11
2157.1379888751999
 21
1591.7798258649609
 31
0.0
  0
LINE
  5
14168
  8
HIDE
 10
2157.6379888751981
 20
1587.993635085641
 30
0.0
 11
2147.6379888751999
 21
1587.993635085641
 31
0.0
  0
LINE
  5
14169
  8
HIDE
 10
2157.6379888751981
 20
1588.493635085641
 30
0.0
 11
2147.6379888751999
 21
1588.493635085641
 31
0.0
  0
LINE
  5
1416A
  8
0
 10
2156.6379988751992
 20
1582.9159044472001
 30
0.0
 11
2147.6379888751999
 21
1582.9159044472001
 31
0.0
  0
LINE
  5
1416B
  8
HIDE
 10
2150.1379888751981
 20
1594.493635085641
 30
0.0
 11
2150.1379888751958
 21
1588.493635085641
 31
0.0
  0
LINE
  5
1416C
  8
HIDE
 10
2150.5379888751982
 20
1594.493635085641
 30
0.0
 11
2150.5379888751982
 21
1588.493635085641
 31
0.0
  0
LINE
  5
1416D
  8
HIDE
 10
2155.1379888751981
 20
1594.493635085641
 30
0.0
 11
2155.1379888751958
 21
1588.493635085641
 31
0.0
  0
LINE
  5
1416E
  8
HIDE
 10
2154.737988875198
 20
1594.493635085641
 30
0.0
 11
2154.737988875198
 21
1588.493635085641
 31
0.0
  0
LINE
  5
1416F
  8
HIDE
 10
2155.1379888751981
 20
1594.208126020982
 30
0.0
 11
2150.1379888751981
 21
1594.2081260209829
 31
0.0
  0
LINE
  5
14170
  8
HIDE
 10
2155.1379888751958
 20
1590.208126020982
 30
0.0
 11
2150.1379888751958
 21
1590.2081260209829
 31
0.0
  0
LINE
  5
14171
  8
HIDE
 10
2155.1379888751958
 20
1590.208126020982
 30
0.0
 11
2154.737988875198
 21
1589.977185913307
 31
0.0
  0
LINE
  5
14172
  8
HIDE
 10
2150.1379888752058
 20
1590.2081260209891
 30
0.0
 11
2150.5379888752018
 21
1589.9771859133141
 31
0.0
  0
LINE
  5
14173
  8
HIDE
 10
2154.737988875198
 20
1589.977185913307
 30
0.0
 11
2150.5379888751982
 21
1589.977185913307
 31
0.0
  0
LINE
  5
14174
  8
CENTER
 10
2159.8146918631551
 20
1578.493635085641
 30
0.0
 11
2145.0973285071468
 21
1578.493635085641
 31
0.0
  0
LINE
  5
14175
  8
CENTER
 10
2152.6379888751999
 20
1561.446352342733
 30
0.0
 11
2152.6379888751999
 21
1569.6365419318461
 31
0.0
  0
LINE
  5
14176
  8
0
 10
2156.6379988751992
 20
1562.493635085641
 30
0.0
 11
2147.6379888751999
 21
1562.493635085641
 31
0.0
  0
LINE
  5
14177
  8
HIDE
 10
2157.6379888751999
 20
1565.4961194409141
 30
0.0
 11
2157.1379888751999
 21
1565.20744430632
 31
0.0
  0
LINE
  5
14178
  8
HIDE
 10
2157.6379888751981
 20
1568.993635085641
 30
0.0
 11
2147.6379888751999
 21
1568.993635085641
 31
0.0
  0
LINE
  5
14179
  8
HIDE
 10
2157.6379888751981
 20
1568.493635085641
 30
0.0
 11
2147.6379888751999
 21
1568.493635085641
 31
0.0
  0
LINE
  5
1417A
  8
0
 10
2156.6379988751992
 20
1574.0713657240799
 30
0.0
 11
2147.6379888751999
 21
1574.071365724081
 31
0.0
  0
LINE
  5
1417B
  8
HIDE
 10
2150.1379888751981
 20
1562.493635085641
 30
0.0
 11
2150.1379888751958
 21
1568.493635085641
 31
0.0
  0
LINE
  5
1417C
  8
HIDE
 10
2150.5379888751982
 20
1562.493635085641
 30
0.0
 11
2150.5379888751982
 21
1568.493635085641
 31
0.0
  0
LINE
  5
1417D
  8
HIDE
 10
2155.1379888751981
 20
1562.493635085641
 30
0.0
 11
2155.1379888751958
 21
1568.493635085641
 31
0.0
  0
LINE
  5
1417E
  8
HIDE
 10
2154.737988875198
 20
1562.493635085641
 30
0.0
 11
2154.737988875198
 21
1568.493635085641
 31
0.0
  0
LINE
  5
1417F
  8
HIDE
 10
2155.1379888751981
 20
1562.7791441503
 30
0.0
 11
2150.1379888751981
 21
1562.779144150298
 31
0.0
  0
LINE
  5
14180
  8
HIDE
 10
2155.1379888751958
 20
1566.7791441503
 30
0.0
 11
2150.1379888751958
 21
1566.779144150298
 31
0.0
  0
LINE
  5
14181
  8
HIDE
 10
2155.1379888751958
 20
1566.7791441503
 30
0.0
 11
2154.737988875198
 21
1567.0100842579741
 31
0.0
  0
LINE
  5
14182
  8
HIDE
 10
2150.1379888752058
 20
1566.779144150292
 30
0.0
 11
2150.5379888752018
 21
1567.0100842579679
 31
0.0
  0
LINE
  5
14183
  8
HIDE
 10
2154.737988875198
 20
1567.0100842579741
 30
0.0
 11
2150.5379888751982
 21
1567.0100842579741
 31
0.0
  0
LINE
  5
14184
  8
HIDE
 10
2156.6379988752001
 20
1562.493635085641
 30
0.0
 11
2157.1379888751999
 21
1562.493635085641
 31
0.0
  0
LINE
  5
14185
  8
HIDE
 10
2156.6379988751992
 20
1574.0713657240799
 30
0.0
 11
2157.1379888751999
 21
1574.0713657240799
 31
0.0
  0
LINE
  5
14186
  8
HIDE
 10
2156.6379988751992
 20
1582.9159044472001
 30
0.0
 11
2157.1379888751999
 21
1582.9159044472001
 31
0.0
  0
LINE
  5
14187
  8
HIDE
 10
2156.6379988752001
 20
1594.493635085641
 30
0.0
 11
2157.1379888751999
 21
1594.493635085641
 31
0.0
  0
LINE
  5
14188
  8
CENTER
 10
2172.6380188751991
 20
1550.8968862859861
 30
0.0
 11
2172.6380188751991
 21
1534.5548798642251
 31
0.0
  0
LINE
  5
14189
  8
CENTER
 10
2191.6380088751989
 20
1550.8968862859861
 30
0.0
 11
2191.6380088751989
 21
1534.5548798642251
 31
0.0
  0
LINE
  5
1418A
  8
HIDE
 10
2038.340039283989
 20
1594.4936200856409
 30
0.0
 11
2038.340039283989
 21
1585.9936200856409
 31
0.0
  0
LINE
  5
1418B
  8
HIDE
 10
2035.840038283988
 20
1585.9936200856409
 30
0.0
 11
2035.840038283988
 21
1544.493627085641
 31
0.0
  0
LINE
  5
1418C
  8
HIDE
 10
2024.3400372839881
 20
1594.4936200856409
 30
0.0
 11
2024.3400372839881
 21
1585.9936200856409
 31
0.0
  0
LINE
  5
1418D
  8
HIDE
 10
2026.840038283988
 20
1585.9936200856409
 30
0.0
 11
2026.840038283988
 21
1544.493627085641
 31
0.0
  0
LINE
  5
1418E
  8
HIDE
 10
2024.3400372839881
 20
1585.9936200856409
 30
0.0
 11
2038.340039283989
 21
1585.9936200856409
 31
0.0
  0
LINE
  5
1418F
  8
HIDE
 10
2094.3400372839878
 20
1585.9936200856409
 30
0.0
 11
2108.340039283989
 21
1585.9936200856409
 31
0.0
  0
LINE
  5
14190
  8
HIDE
 10
2096.8400382839882
 20
1585.9936200856409
 30
0.0
 11
2096.8400382839882
 21
1544.493627085641
 31
0.0
  0
LINE
  5
14191
  8
HIDE
 10
2105.8400382839882
 20
1585.9936200856409
 30
0.0
 11
2105.8400382839882
 21
1544.493627085641
 31
0.0
  0
LINE
  5
14192
  8
HIDE
 10
2108.340039283989
 20
1594.4936200856409
 30
0.0
 11
2108.340039283989
 21
1585.9936200856409
 31
0.0
  0
LINE
  5
14193
  8
HIDE
 10
2094.3400372839878
 20
1594.4936200856409
 30
0.0
 11
2094.3400372839878
 21
1585.9936200856409
 31
0.0
  0
LINE
  5
14194
  8
CENTER
 10
2080.4251579907709
 20
1592.5788057924231
 30
0.0
 11
2088.0938171811122
 21
1600.2474649827641
 31
0.0
  0
LINE
  5
14195
  8
CENTER
 10
2052.2549185772059
 20
1592.5788057924231
 30
0.0
 11
2044.586259386864
 21
1600.2474649827641
 31
0.0
  0
LINE
  5
14196
  8
CENTER
 10
2080.4251579907709
 20
1564.4084643788581
 30
0.0
 11
2088.0938171811122
 21
1556.739805188517
 31
0.0
  0
LINE
  5
14197
  8
0
 10
2022.340038283988
 20
1544.493627085641
 30
0.0
 11
2022.340038283988
 21
1594.4936200856409
 31
0.0
  0
LINE
  5
14198
  8
0
 10
2110.3400382839882
 20
1544.493627085641
 30
0.0
 11
2110.3400382839882
 21
1594.4936200856409
 31
0.0
  0
LINE
  5
14199
  8
0
 10
2092.3400382839882
 20
1594.4936200856409
 30
0.0
 11
2092.3400382839882
 21
1602.493706085641
 31
0.0
  0
LINE
  5
1419A
  8
0
 10
2040.340038283988
 20
1594.4936200856409
 30
0.0
 11
2040.340038283988
 21
1602.4936200856409
 31
0.0
  0
ARC
  5
1419B
  8
0
 10
2066.3400382839882
 20
1578.493635085641
 30
0.0
 40
31.5
 50
217.47199999998779
 51
232.52799999999391
  0
ARC
  5
1419C
  8
CENTER
 10
2066.3400382839882
 20
1578.493635085641
 30
0.0
 40
25.5
 50
119.1494399999995
 51
152.68440000001061
  0
ARC
  5
1419D
  8
0
 10
2066.3400382839882
 20
1578.493635085641
 30
0.0
 40
31.5
 50
307.47200000000601
 51
322.52800000001218
  0
ARC
  5
1419E
  8
0
 10
2066.3400382839882
 20
1578.493635085641
 30
0.0
 40
31.5
 50
127.4720000000061
 51
142.52800000001221
  0
ARC
  5
1419F
  8
0
 10
2066.3400382839882
 20
1578.493635085641
 30
0.0
 40
31.5
 50
37.471995999985438
 51
52.52800399999628
  0
ARC
  5
141A0
  8
CENTER
 10
2066.3400382839882
 20
1578.493635085641
 30
0.0
 40
25.5
 50
209.3710699999865
 51
239.2290599999989
  0
ARC
  5
141A1
  8
CENTER
 10
2066.3400382839882
 20
1578.493635085641
 30
0.0
 40
25.5
 50
27.68693500001261
 51
62.963238000000921
  0
CIRCLE
  5
141A2
  8
0
 10
2101.3400382839882
 20
1578.493635085641
 30
0.0
 40
3.299999999999998
  0
CIRCLE
  5
141A3
  8
0
 10
2101.3400382839882
 20
1556.49365008564
 30
0.0
 40
3.299999999999998
  0
CIRCLE
  5
141A4
  8
0
 10
2031.3400382839891
 20
1578.493635085641
 30
0.0
 40
3.299999999999998
  0
CIRCLE
  5
141A5
  8
0
 10
2031.3400382839891
 20
1556.49365008564
 30
0.0
 40
3.299999999999998
  0
CIRCLE
  5
141A6
  8
0
 10
2048.3088192839882
 20
1560.4624310856409
 30
0.0
 40
4.3071589999999986
  0
CIRCLE
  5
141A7
  8
0
 10
2084.3712572839891
 20
1560.4624310856409
 30
0.0
 40
4.3071589999999986
  0
CIRCLE
  5
141A8
  8
0
 10
2084.3712572839891
 20
1596.524885085641
 30
0.0
 40
4.3071589999999986
  0
CIRCLE
  5
141A9
  8
0
 10
2048.3088192839882
 20
1596.524885085641
 30
0.0
 40
4.3071589999999986
  0
ARC
  5
141AA
  8
CENTER
 10
2066.3400382839882
 20
1578.493635085641
 30
0.0
 40
25.5
 50
298.75797999999651
 51
332.6981799999902
  0
CIRCLE
  5
141AB
  8
0
 10
2066.3400382839882
 20
1578.493635085641
 30
0.0
 40
19.5
  0
LINE
  5
141AC
  8
0
 10
2091.3400072839891
 20
1597.657408085641
 30
0.0
 11
2091.3400072839891
 21
1559.3298620856399
 31
0.0
  0
LINE
  5
141AD
  8
0
 10
2047.1762502839881
 20
1553.493643085641
 30
0.0
 11
2085.503795283988
 21
1553.493643085641
 31
0.0
  0
LINE
  5
141AE
  8
0
 10
2041.340038283988
 20
1597.657408085641
 30
0.0
 11
2041.340038283988
 21
1559.3298620856399
 31
0.0
  0
LINE
  5
141AF
  8
0
 10
2047.1762502839881
 20
1603.49365008564
 30
0.0
 11
2085.503795283988
 21
1603.49365008564
 31
0.0
  0
LINE
  5
141B0
  8
CENTER
 10
2066.3400382839882
 20
1611.0377940856411
 30
0.0
 11
2066.3400382839882
 21
1539.29858208564
 31
0.0
  0
LINE
  5
141B1
  8
0
 10
2022.340038283988
 20
1544.493627085641
 30
0.0
 11
2110.3400382839882
 21
1544.493627085641
 31
0.0
  0
LINE
  5
141B2
  8
0
 10
2042.3401542899469
 20
1604.4936350856401
 30
0.0
 11
2090.340121284295
 21
1604.4936350856401
 31
0.0
  0
LINE
  5
141B3
  8
0
 10
2022.340038283988
 20
1594.4936200856409
 30
0.0
 11
2040.340038283988
 21
1594.4936200856409
 31
0.0
  0
LINE
  5
141B4
  8
0
 10
2092.3400382839882
 20
1594.4936200856409
 30
0.0
 11
2110.3400382839882
 21
1594.4936200856409
 31
0.0
  0
LINE
  5
141B5
  8
0
 10
2042.3401542899469
 20
1604.4936350856401
 30
0.0
 11
2040.340038283988
 21
1602.4936200856409
 31
0.0
  0
LINE
  5
141B6
  8
0
 10
2090.340121284295
 20
1604.4936350856401
 30
0.0
 11
2092.3400382839882
 21
1602.493706085641
 31
0.0
  0
LINE
  5
141B7
  8
CENTER
 10
2101.3400382839882
 20
1596.8959630856409
 30
0.0
 11
2101.3400382839882
 21
1539.29858208564
 31
0.0
  0
LINE
  5
141B8
  8
CENTER
 10
2031.3400382839891
 20
1596.8959630856409
 30
0.0
 11
2031.3400382839891
 21
1539.29858208564
 31
0.0
  0
LINE
  5
141B9
  8
CENTER
 10
2025.7906002839879
 20
1556.493627085641
 30
0.0
 11
2036.908153283988
 21
1556.493627085641
 31
0.0
  0
LINE
  5
141BA
  8
0
 10
2050.8088632839881
 20
1561.9059220856409
 30
0.0
 11
2048.308864283988
 21
1563.3492960856399
 31
0.0
  0
LINE
  5
141BB
  8
0
 10
2048.308864283988
 20
1557.5757940856399
 30
0.0
 11
2045.8088642839889
 21
1559.0191690856409
 31
0.0
  0
LINE
  5
141BC
  8
0
 10
2048.308860283988
 20
1563.349191085641
 30
0.0
 11
2045.808889283988
 21
1561.90583008564
 31
0.0
  0
LINE
  5
141BD
  8
0
 10
2050.8088452839879
 20
1559.019090085641
 30
0.0
 11
2048.3088742839882
 21
1557.5757310856411
 31
0.0
  0
LINE
  5
141BE
  8
0
 10
2050.8087882839882
 20
1559.0190560856411
 30
0.0
 11
2050.8087882839882
 21
1561.9058050856399
 31
0.0
  0
LINE
  5
141BF
  8
0
 10
2045.808819283988
 20
1559.0190560856411
 30
0.0
 11
2045.808819283988
 21
1561.9057900856401
 31
0.0
  0
LINE
  5
141C0
  8
0
 10
2086.8712712839879
 20
1561.905933085641
 30
0.0
 11
2084.3713242839881
 21
1563.349277085641
 31
0.0
  0
LINE
  5
141C1
  8
0
 10
2084.3712752839879
 20
1557.57581308564
 30
0.0
 11
2081.871329283988
 21
1559.01915708564
 31
0.0
  0
LINE
  5
141C2
  8
0
 10
2084.371265283989
 20
1563.3491840856409
 30
0.0
 11
2081.8713192839882
 21
1561.90584008564
 31
0.0
  0
LINE
  5
141C3
  8
0
 10
2086.8712572839891
 20
1559.0190690856409
 30
0.0
 11
2084.371313283988
 21
1557.57572708564
 31
0.0
  0
LINE
  5
141C4
  8
0
 10
2086.8712272839889
 20
1559.0190560856411
 30
0.0
 11
2086.8712272839889
 21
1561.9058050856399
 31
0.0
  0
LINE
  5
141C5
  8
0
 10
2081.8712572839891
 20
1559.0190560856411
 30
0.0
 11
2081.8712572839891
 21
1561.9057900856401
 31
0.0
  0
LINE
  5
141C6
  8
0
 10
2081.8712572839891
 20
1595.08150308564
 30
0.0
 11
2081.8712572839891
 21
1597.968229085641
 31
0.0
  0
LINE
  5
141C7
  8
0
 10
2086.8712272839889
 20
1595.08150308564
 30
0.0
 11
2086.8712272839889
 21
1597.9682600856411
 31
0.0
  0
LINE
  5
141C8
  8
0
 10
2086.871282283988
 20
1595.0815050856411
 30
0.0
 11
2084.3713222839879
 21
1593.6381520856401
 31
0.0
  0
LINE
  5
141C9
  8
0
 10
2084.3712752839879
 20
1599.4116440856401
 30
0.0
 11
2081.8713162839881
 21
1597.968294085641
 31
0.0
  0
LINE
  5
141CA
  8
0
 10
2084.371273283989
 20
1593.6382510856399
 30
0.0
 11
2081.8713272839882
 21
1595.081594085641
 31
0.0
  0
LINE
  5
141CB
  8
0
 10
2086.8712652839881
 20
1597.96836508564
 30
0.0
 11
2084.3713192839882
 21
1599.411709085641
 31
0.0
  0
LINE
  5
141CC
  8
CENTER
 10
2052.2549185772059
 20
1564.4084643788581
 30
0.0
 11
2044.586259386864
 21
1556.739805188517
 31
0.0
  0
LINE
  5
141CD
  8
0
 10
2045.808819283988
 20
1595.08150308564
 30
0.0
 11
2045.808819283988
 21
1597.968229085641
 31
0.0
  0
LINE
  5
141CE
  8
0
 10
2050.8087882839882
 20
1595.08150308564
 30
0.0
 11
2050.8087882839882
 21
1597.9682600856411
 31
0.0
  0
LINE
  5
141CF
  8
0
 10
2050.8088712839881
 20
1595.08148708564
 30
0.0
 11
2048.3088992839889
 21
1593.6381280856399
 31
0.0
  0
LINE
  5
141D0
  8
0
 10
2048.3088572839879
 20
1599.411642085641
 30
0.0
 11
2045.808883283989
 21
1597.96828108564
 31
0.0
  0
LINE
  5
141D1
  8
0
 10
2048.308859283989
 20
1593.6382330856411
 30
0.0
 11
2045.808860283988
 21
1595.08160808564
 31
0.0
  0
LINE
  5
141D2
  8
0
 10
2050.8088552839881
 20
1597.968353085641
 30
0.0
 11
2048.3088572839879
 21
1599.411728085641
 31
0.0
  0
LINE
  5
141D3
  8
CENTER
 10
2018.7174297972199
 20
1578.493635085641
 30
0.0
 11
2113.9626467707571
 21
1578.493635085641
 31
0.0
  0
LINE
  5
141D4
  8
CENTER
 10
2106.8400382839882
 20
1556.49365008564
 30
0.0
 11
2095.8400382839882
 21
1556.49365008564
 31
0.0
  0
ARC
  5
141D5
  8
0
 10
2066.3400382839882
 20
1578.493635085641
 30
0.0
 40
16.0
 50
163.95502437185911
 51
196.04497562814089
  0
ARC
  5
141D6
  8
0
 10
2066.3400382839882
 20
1578.493635085641
 30
0.0
 40
16.0
 50
253.95502437186269
 51
286.04497562813731
  0
ARC
  5
141D7
  8
0
 10
2066.3400382839882
 20
1578.493635085641
 30
0.0
 40
16.0
 50
343.95502437185911
 51
16.044975628140929
  0
ARC
  5
141D8
  8
0
 10
2066.3400382839882
 20
1578.493635085641
 30
0.0
 40
16.0
 50
73.955024371862663
 51
106.04497562813729
  0
POLYLINE
  5
141D9
  8
0
 66
     1
 10
0.0
 20
0.0
 30
0.0
  0
VERTEX
  5
142A3
  8
0
 10
2061.9177689224289
 20
1593.8703555973041
 30
0.0
  0
VERTEX
  5
142A4
  8
0
 10
2050.9633177723249
 20
1582.9159044472001
 30
0.0
  0
SEQEND
  5
142A5
  8
0
  0
POLYLINE
  5
141DA
  8
0
 66
     1
 10
0.0
 20
0.0
 30
0.0
  0
VERTEX
  5
142A6
  8
0
 10
2050.9633177723249
 20
1574.071365724079
 30
0.0
  0
VERTEX
  5
142A7
  8
0
 10
2061.9177689224289
 20
1563.1169145739771
 30
0.0
  0
SEQEND
  5
142A8
  8
0
  0
POLYLINE
  5
141DB
  8
0
 66
     1
 10
0.0
 20
0.0
 30
0.0
  0
VERTEX
  5
142A9
  8
0
 10
2070.7623076455479
 20
1563.1169145739771
 30
0.0
  0
VERTEX
  5
142AA
  8
0
 10
2081.7167587956519
 20
1574.071365724081
 30
0.0
  0
SEQEND
  5
142AB
  8
0
  0
POLYLINE
  5
141DC
  8
0
 66
     1
 10
0.0
 20
0.0
 30
0.0
  0
VERTEX
  5
142AC
  8
0
 10
2081.7167587956519
 20
1582.9159044472001
 30
0.0
  0
VERTEX
  5
142AD
  8
0
 10
2070.7623076455479
 20
1593.8703555973041
 30
0.0
  0
SEQEND
  5
142AE
  8
0
  0
ARC
  5
141DD
  8
HIDE
 10
2066.3400382839882
 20
1578.493635085641
 30
0.0
 40
10.0
 50
270.0
 51
180.0
  0
CIRCLE
  5
141DE
  8
0
 10
2066.3400382839882
 20
1578.493635085641
 30
0.0
 40
9.5
  0
LINE
  5
141DF
  8
HIDE
 10
2068.8400382839891
 20
1594.29711571492
 30
0.0
 11
2068.8400382839918
 21
1587.6587864755511
 31
0.0
  0
LINE
  5
141E0
  8
HIDE
 10
2068.440038283989
 20
1594.355223908959
 30
0.0
 11
2068.4400382839899
 21
1587.7586229431611
 31
0.0
  0
LINE
  5
141E1
  8
HIDE
 10
2063.8400382839882
 20
1594.29711571492
 30
0.0
 11
2063.8400382839918
 21
1587.6587864755529
 31
0.0
  0
LINE
  5
141E2
  8
HIDE
 10
2064.2400382839878
 20
1594.355223908959
 30
0.0
 11
2064.2400382839901
 21
1587.758622943162
 31
0.0
  0
LINE
  5
141E3
  8
HIDE
 10
2063.84003828399
 20
1594.208126020982
 30
0.0
 11
2068.84003828399
 21
1594.2081260209829
 31
0.0
  0
LINE
  5
141E4
  8
HIDE
 10
2063.8400382839918
 20
1590.208126020982
 30
0.0
 11
2068.8400382839918
 21
1590.2081260209829
 31
0.0
  0
LINE
  5
141E5
  8
HIDE
 10
2063.8400382839918
 20
1590.208126020982
 30
0.0
 11
2064.2400382839901
 21
1589.977185913307
 31
0.0
  0
LINE
  5
141E6
  8
HIDE
 10
2068.8400382839832
 20
1590.2081260209891
 30
0.0
 11
2068.4400382839872
 21
1589.9771859133141
 31
0.0
  0
LINE
  5
141E7
  8
HIDE
 10
2064.2400382839901
 20
1589.977185913307
 30
0.0
 11
2068.4400382839899
 21
1589.977185913307
 31
0.0
  0
LINE
  5
141E8
  8
HIDE
 10
2068.8400382839891
 20
1562.6901544563621
 30
0.0
 11
2068.8400382839918
 21
1569.32848369573
 31
0.0
  0
LINE
  5
141E9
  8
HIDE
 10
2068.440038283989
 20
1562.632046262323
 30
0.0
 11
2068.4400382839899
 21
1569.2286472281201
 31
0.0
  0
LINE
  5
141EA
  8
HIDE
 10
2063.8400382839882
 20
1562.6901544563621
 30
0.0
 11
2063.8400382839918
 21
1569.328483695728
 31
0.0
  0
LINE
  5
141EB
  8
HIDE
 10
2064.2400382839878
 20
1562.632046262323
 30
0.0
 11
2064.2400382839901
 21
1569.2286472281201
 31
0.0
  0
LINE
  5
141EC
  8
HIDE
 10
2063.84003828399
 20
1562.7791441503
 30
0.0
 11
2068.84003828399
 21
1562.779144150298
 31
0.0
  0
LINE
  5
141ED
  8
HIDE
 10
2063.8400382839918
 20
1566.7791441503
 30
0.0
 11
2068.8400382839918
 21
1566.779144150298
 31
0.0
  0
LINE
  5
141EE
  8
HIDE
 10
2063.8400382839918
 20
1566.7791441503
 30
0.0
 11
2064.2400382839901
 21
1567.0100842579741
 31
0.0
  0
LINE
  5
141EF
  8
HIDE
 10
2068.8400382839832
 20
1566.779144150292
 30
0.0
 11
2068.4400382839872
 21
1567.0100842579679
 31
0.0
  0
LINE
  5
141F0
  8
HIDE
 10
2064.2400382839901
 20
1567.0100842579741
 30
0.0
 11
2068.4400382839899
 21
1567.0100842579741
 31
0.0
  0
ENDSEC
  0
EOF
