  0
SECTION
  2
HEADER
  9
$ACADVER
  1
AC1009
  9
$INSBASE
 10
0.0
 20
0.0
 30
0.0
  9
$EXTMIN
 10
152.2953015439025
 20
60.14888779707006
 30
0.0
  9
$EXTMAX
 10
407.57198410012637
 20
311.40963520285919
 30
0.0
  9
$LIMMIN
 10
0.0
 20
0.0
  9
$LIMMAX
 10
12.0
 20
9.0
  9
$ORTHOMODE
 70
     1
  9
$REGENMODE
 70
     1
  9
$FILLMODE
 70
     1
  9
$QTEXTMODE
 70
     0
  9
$MIRRTEXT
 70
     0
  9
$DRAGMODE
 70
     2
  9
$LTSCALE
 40
4.0
  9
$OSMODE
 70
  2239
  9
$ATTMODE
 70
     1
  9
$TEXTSIZE
 40
1.1999999999999991
  9
$TRACEWID
 40
0.05
  9
$TEXTSTYLE
  7
DUKI
  9
$CLAYER
  8
0
  9
$CELTYPE
  6
BYLAYER
  9
$CECOLOR
 62
   256
  9
$DIMSCALE
 40
1.0
  9
$DIMASZ
 40
0.18
  9
$DIMEXO
 40
0.0625
  9
$DIMDLI
 40
0.38
  9
$DIMRND
 40
0.0
  9
$DIMDLE
 40
0.0
  9
$DIMEXE
 40
0.18
  9
$DIMTP
 40
0.0
  9
$DIMTM
 40
0.0
  9
$DIMTXT
 40
0.18
  9
$DIMCEN
 40
0.09
  9
$DIMTSZ
 40
0.0
  9
$DIMTOL
 70
     0
  9
$DIMLIM
 70
     0
  9
$DIMTIH
 70
     1
  9
$DIMTOH
 70
     1
  9
$DIMSE1
 70
     0
  9
$DIMSE2
 70
     0
  9
$DIMTAD
 70
     0
  9
$DIMZIN
 70
     0
  9
$DIMBLK
  1

  9
$DIMASO
 70
     1
  9
$DIMSHO
 70
     1
  9
$DIMPOST
  1

  9
$DIMAPOST
  1

  9
$DIMALT
 70
     0
  9
$DIMALTD
 70
     2
  9
$DIMALTF
 40
25.399999999999999
  9
$DIMLFAC
 40
1.0
  9
$DIMTOFL
 70
     0
  9
$DIMTVP
 40
0.0
  9
$DIMTIX
 70
     0
  9
$DIMSOXD
 70
     0
  9
$DIMSAH
 70
     0
  9
$DIMBLK1
  1

  9
$DIMBLK2
  1

  9
$DIMSTYLE
  2
STANDARD
  9
$DIMCLRD
 70
     0
  9
$DIMCLRE
 70
     0
  9
$DIMCLRT
 70
     0
  9
$DIMTFAC
 40
1.0
  9
$DIMGAP
 40
0.09
  9
$LUNITS
 70
     2
  9
$LUPREC
 70
     4
  9
$SKETCHINC
 40
0.1
  9
$FILLETRAD
 40
0.2
  9
$AUNITS
 70
     0
  9
$AUPREC
 70
     0
  9
$MENU
  1
.
  9
$ELEVATION
 40
0.0
  9
$PELEVATION
 40
0.0
  9
$THICKNESS
 40
0.0
  9
$LIMCHECK
 70
     0
  9
$BLIPMODE
 70
     0
  9
$CHAMFERA
 40
0.5
  9
$CHAMFERB
 40
0.5
  9
$SKPOLY
 70
     0
  9
$TDCREATE
 40
2455131.522303808
  9
$TDUPDATE
 40
2456630.4519607411
  9
$TDINDWG
 40
0.0024199884
  9
$TDUSRTIMER
 40
0.0024197801
  9
$USRTIMER
 70
     1
  9
$ANGBASE
 50
0.0
  9
$ANGDIR
 70
     0
  9
$PDMODE
 70
     0
  9
$PDSIZE
 40
0.0
  9
$PLINEWID
 40
0.0
  9
$COORDS
 70
     1
  9
$SPLFRAME
 70
     0
  9
$SPLINETYPE
 70
     6
  9
$SPLINESEGS
 70
     8
  9
$ATTDIA
 70
     0
  9
$ATTREQ
 70
     1
  9
$HANDLING
 70
     1
  9
$HANDSEED
  5
1C5D1
  9
$SURFTAB1
 70
     6
  9
$SURFTAB2
 70
     6
  9
$SURFTYPE
 70
     6
  9
$SURFU
 70
     6
  9
$SURFV
 70
     6
  9
$UCSNAME
  2

  9
$UCSORG
 10
0.0
 20
0.0
 30
0.0
  9
$UCSXDIR
 10
1.0
 20
0.0
 30
0.0
  9
$UCSYDIR
 10
0.0
 20
1.0
 30
0.0
  9
$PUCSNAME
  2

  9
$PUCSORG
 10
0.0
 20
0.0
 30
0.0
  9
$PUCSXDIR
 10
1.0
 20
0.0
 30
0.0
  9
$PUCSYDIR
 10
0.0
 20
1.0
 30
0.0
  9
$USERI1
 70
     0
  9
$USERI2
 70
     0
  9
$USERI3
 70
     0
  9
$USERI4
 70
     0
  9
$USERI5
 70
     0
  9
$USERR1
 40
0.0
  9
$USERR2
 40
0.0
  9
$USERR3
 40
0.0
  9
$USERR4
 40
0.0
  9
$USERR5
 40
0.0
  9
$WORLDVIEW
 70
     1
  9
$SHADEDGE
 70
     3
  9
$SHADEDIF
 70
    70
  9
$TILEMODE
 70
     1
  9
$MAXACTVP
 70
    48
  9
$PLIMCHECK
 70
     0
  9
$PEXTMIN
 10
0.0
 20
0.0
 30
0.0
  9
$PEXTMAX
 10
0.0
 20
0.0
 30
0.0
  9
$PLIMMIN
 10
0.0
 20
0.0
  9
$PLIMMAX
 10
12.0
 20
9.0
  9
$UNITMODE
 70
     0
  9
$VISRETAIN
 70
     1
  9
$PLINEGEN
 70
     0
  9
$PSLTSCALE
 70
     1
  0
ENDSEC
  0
SECTION
  2
TABLES
  0
TABLE
  2
VPORT
 70
     1
  0
VPORT
  2
*ACTIVE
 70
     0
 10
0.0
 20
0.0
 11
1.0
 21
1.0
 12
350.50089317970441
 22
196.1505527802303
 13
0.0
 23
0.0
 14
0.5
 24
0.5
 15
0.5
 25
0.5
 16
0.0
 26
0.0
 36
1.0
 17
0.0
 27
0.0
 37
0.0
 40
342.88351672682398
 41
2.1408934707903771
 42
50.0
 43
0.0
 44
0.0
 50
0.0
 51
0.0
 71
     0
 72
  2000
 73
     1
 74
     3
 75
     0
 76
     0
 77
     0
 78
     0
  0
ENDTAB
  0
TABLE
  2
LTYPE
 70
     3
  0
LTYPE
  2
CONTINUOUS
 70
     0
  3
Solid line
 72
    65
 73
     0
 40
0.0
  0
LTYPE
  2
PHANTOM2
 70
     0
  3
Phantom (.5x) ___ _ _ ___ _ _ ___ _ _ ___ _ _
 72
    65
 73
     6
 40
1.25
 49
0.625
 49
-0.125
 49
0.125
 49
-0.125
 49
0.125
 49
-0.125
  0
LTYPE
  2
CENTER
 70
     0
  3
____ _ ____ _ ____ _ ____ _ ____ _ ____ _ ____ 
 72
    65
 73
     4
 40
2.0
 49
1.25
 49
-0.25
 49
0.25
 49
-0.25
  0
ENDTAB
  0
TABLE
  2
LAYER
 70
     6
  0
LAYER
  2
0
 70
     0
 62
     7
  6
CONTINUOUS
  0
LAYER
  2
HIDE
 70
     0
 62
     1
  6
CONTINUOUS
  0
LAYER
  2
CENTER
 70
     0
 62
     3
  6
CENTER
  0
LAYER
  2
HIDE1
 70
     0
 62
     1
  6
CONTINUOUS
  0
LAYER
  2
HL
 70
     0
 62
     1
  6
CONTINUOUS
  0
ENDTAB
  0
TABLE
  2
STYLE
 70
     3
  0
STYLE
  2
STANDARD
 70
     0
 40
5.0
 41
1.0
 50
0.0
 71
     0
 42
5.0
  3
txt.shx
  4
whgtxt.shx
  0
STYLE
  2
DUKI
 70
     0
 40
1.1999999999999991
 41
1.0
 50
0.0
 71
     0
 42
1.1999999999999991
  3
txt
  4

  0
ENDTAB
  0
TABLE
  2
VIEW
 70
     0
  0
ENDTAB
  0
TABLE
  2
UCS
 70
     0
  0
ENDTAB
  0
TABLE
  2
APPID
 70
    17
  0
APPID
  2
ACAD
 70
     0
  0
APPID
  2
ACADANNOTATIVE
 70
     0
  0
APPID
  2
ACAD_EXEMPT_FROM_CAD_STANDARDS
 70
     0
  0
APPID
  2
ACAD_DSTYLE_DIMJOGGED_JOGA
 70
     0
  0
APPID
  2
ACAD_PSEXT
 70
     0
  0
APPID
  2
ACAECLAYERSTANDARD
 70
     0
  0
APPID
  2
DCO15
 70
     0
  0
APPID
  2
ACAD_MLEADERVER
 70
     0
  0
APPID
  2
ACAD_DSTYLE_DIMJAG
 70
     0
  0
APPID
  2
ACAD_DSTYLE_DIMBREAK
 70
     0
  0
APPID
  2
ACAD_DSTYLE_DIMTALN
 70
     0
  0
APPID
  2
ACAD_DSTYLE_DIMRADIAL_EXTENSION
 70
     0
  0
APPID
  2
ACAD_DSTYLE_DIMTEXT_FILL
 70
     0
  0
APPID
  2
ACADANNOPO
 70
     0
  0
APPID
  2
ACADSTRINGINFO
 70
     0
  0
APPID
  2
CONTENTBLOCKICON
 70
     0
  0
APPID
  2
ACAD_NAV_VCDISPLAY
 70
     0
  0
ENDTAB
  0
TABLE
  2
DIMSTYLE
 70
     2
  0
DIMSTYLE
  2
STANDARD
 70
     0
  3

  4

  5

  6

  7

 40
1.0
 41
0.18
 42
0.0625
 43
0.38
 44
0.18
 45
0.0
 46
0.0
 47
0.0
 48
0.0
140
0.18
141
0.09
142
0.0
143
25.399999999999999
144
1.0
145
0.0
146
1.0
147
0.09
 71
     0
 72
     0
 73
     1
 74
     1
 75
     0
 76
     0
 77
     0
 78
     0
170
     0
171
     2
172
     0
173
     0
174
     0
175
     0
176
     0
177
     0
178
     0
  0
ENDTAB
  0
ENDSEC
  0
SECTION
  2
BLOCKS
  0
BLOCK
  8
0
  2
$MODEL_SPACE
 70
     0
 10
0.0
 20
0.0
 30
0.0
  3
$MODEL_SPACE
  1

  0
ENDBLK
  5
1C3AE
  8
0
  0
BLOCK
 67
     1
  8
0
  2
$PAPER_SPACE
 70
     0
 10
0.0
 20
0.0
 30
0.0
  3
$PAPER_SPACE
  1

  0
ENDBLK
  5
1C3AA
 67
     1
  8
0
  0
BLOCK
  8
0
  2
*U5
 70
     1
 10
0.0
 20
0.0
 30
0.0
  3
*U5
  1

  0
TEXT
  5
1C33A
  8
0
 10
229.95652985219951
 20
64.205886166088376
 30
0.0
 40
20.0
  1
BK30
  7
DUKI
  0
ENDBLK
  5
1C33C
  8
0
  0
ENDSEC
  0
SECTION
  2
ENTITIES
  0
INSERT
  5
1C2D7
  8
0
  2
*U5
 10
0.0
 20
0.0
 30
0.0
  0
LINE
  5
1C42A
  8
HIDE1
 10
348.29037493406207
 20
145.3900848501907
 30
0.0
 11
359.29037493407668
 21
145.3900848501907
 31
0.0
  0
LINE
  5
1C42B
  8
HIDE1
 10
391.29037493407668
 20
145.3900848501907
 30
0.0
 11
402.29037493407662
 21
145.3900848501907
 31
0.0
  0
LINE
  5
1C42C
  8
HIDE1
 10
348.29037493406207
 20
175.3900848501907
 30
0.0
 11
359.29037493407668
 21
175.3900848501907
 31
0.0
  0
LINE
  5
1C42D
  8
HIDE1
 10
391.29037493407668
 20
175.3900848501907
 30
0.0
 11
402.29037493407662
 21
175.3900848501907
 31
0.0
  0
LINE
  5
1C42E
  8
0
 10
343.29039493408339
 20
197.3900928501898
 30
0.0
 11
357.29040493407228
 21
197.3900928501898
 31
0.0
  0
LINE
  5
1C42F
  8
0
 10
343.29039493408339
 20
123.3900991849095
 30
0.0
 11
357.29040493407228
 21
123.3900991849095
 31
0.0
  0
LINE
  5
1C430
  8
0
 10
357.29040493407228
 20
195.39013885019079
 30
0.0
 11
402.29037493407662
 21
195.39013885019079
 31
0.0
  0
LINE
  5
1C431
  8
0
 10
357.29040493407228
 20
187.3900848501907
 30
0.0
 11
402.29037493407662
 21
187.3900848501907
 31
0.0
  0
LINE
  5
1C432
  8
CENTER
 10
329.59468163965357
 20
160.3900848501907
 30
0.0
 11
407.57198410012637
 21
160.3900848501907
 31
0.0
  0
LINE
  5
1C433
  8
HIDE1
 10
348.29037493406207
 20
142.1400848501907
 30
0.0
 11
359.29037493407668
 21
142.1400848501907
 31
0.0
  0
LINE
  5
1C434
  8
HIDE1
 10
391.29037493407668
 20
142.1400848501907
 30
0.0
 11
402.29037493407662
 21
142.1400848501907
 31
0.0
  0
LINE
  5
1C435
  8
HIDE1
 10
348.29037493406207
 20
178.6400848501907
 30
0.0
 11
359.29037493407668
 21
178.6400848501907
 31
0.0
  0
LINE
  5
1C436
  8
HIDE1
 10
391.29037493407668
 20
178.6400848501907
 30
0.0
 11
402.29037493407662
 21
178.6400848501907
 31
0.0
  0
LINE
  5
1C437
  8
0
 10
402.29037493407662
 20
198.3900998501903
 30
0.0
 11
402.29037493407662
 21
109.39011185019081
 31
0.0
  0
LINE
  5
1C438
  8
0
 10
357.29040493407228
 20
109.39011185019081
 30
0.0
 11
402.29037493407662
 21
109.39011185019081
 31
0.0
  0
LINE
  5
1C439
  8
0
 10
357.29040493407228
 20
198.3900998501903
 30
0.0
 11
402.29037493407662
 21
198.3900998501903
 31
0.0
  0
LINE
  5
1C43A
  8
0
 10
357.29040493407228
 20
198.3900998501903
 30
0.0
 11
357.29040493407228
 21
109.39011185019081
 31
0.0
  0
LINE
  5
1C43B
  8
0
 10
343.29039493408339
 20
197.3900928501898
 30
0.0
 11
343.29039493408339
 21
123.3900991849095
 31
0.0
  0
CIRCLE
  5
1C43C
  8
HIDE1
 10
383.29037493407668
 20
137.3900848501907
 30
0.0
 40
4.799999999999998
  0
CIRCLE
  5
1C43D
  8
HIDE1
 10
383.29037493407668
 20
183.3900848501907
 30
0.0
 40
4.799999999999998
  0
CIRCLE
  5
1C43E
  8
HIDE1
 10
367.29037493406207
 20
137.3900848501907
 30
0.0
 40
4.799999999999998
  0
CIRCLE
  5
1C43F
  8
HIDE1
 10
367.29037493406207
 20
183.3900848501907
 30
0.0
 40
4.799999999999998
  0
ARC
  5
1C440
  8
HIDE1
 10
374.69037493407092
 20
190.7900848501904
 30
0.0
 40
0.5999999999999996
 50
0.0
 51
90.0
  0
ARC
  5
1C441
  8
HIDE1
 10
360.29037493407668
 20
190.3900848501907
 30
0.0
 40
1.0
 50
90.0
 51
180.0
  0
ARC
  5
1C442
  8
HIDE1
 10
374.29037493407668
 20
176.3900848501907
 30
0.0
 40
1.0
 50
270.0
 51
0.0
  0
ARC
  5
1C443
  8
HIDE1
 10
374.29037493407668
 20
144.3900848501907
 30
0.0
 40
1.0
 50
0.0
 51
90.0
  0
ARC
  5
1C444
  8
HIDE1
 10
359.89037493407523
 20
175.99008485018931
 30
0.0
 40
0.6000000000000015
 50
180.0
 51
270.0
  0
ARC
  5
1C445
  8
HIDE1
 10
359.89037493407523
 20
144.7900848501904
 30
0.0
 40
0.5999999999999996
 50
90.0
 51
180.0
  0
ARC
  5
1C446
  8
HIDE1
 10
374.69037493407092
 20
129.99008485018931
 30
0.0
 40
0.6000000000000015
 50
270.0
 51
0.0
  0
ARC
  5
1C447
  8
HIDE1
 10
360.29037493407668
 20
130.3900848501907
 30
0.0
 40
1.0
 50
180.0
 51
270.0
  0
LINE
  5
1C448
  8
HIDE1
 10
359.29037493407668
 20
185.44008485019
 30
0.0
 11
362.9501560455974
 21
185.44008485019
 31
0.0
  0
LINE
  5
1C449
  8
HIDE1
 10
360.29037493407668
 20
191.3900848501907
 30
0.0
 11
374.69037493407092
 21
191.3900848501907
 31
0.0
  0
LINE
  5
1C44A
  8
HIDE1
 10
375.29037493406207
 20
181.24008485018931
 30
0.0
 11
371.58193642145488
 21
181.24008485018931
 31
0.0
  0
LINE
  5
1C44B
  8
HIDE1
 10
369.0194038525151
 20
187.86785873900041
 30
0.0
 11
375.29037493406207
 21
188.44008485019
 31
0.0
  0
LINE
  5
1C44C
  8
HIDE1
 10
359.29037493407668
 20
181.24008485018931
 30
0.0
 11
362.9988134466912
 21
181.24008485018931
 31
0.0
  0
LINE
  5
1C44D
  8
HIDE1
 10
359.29037493407668
 20
139.5400848501904
 30
0.0
 11
362.9988134466912
 21
139.5400848501904
 31
0.0
  0
LINE
  5
1C44E
  8
HIDE1
 10
359.89037493407523
 20
175.3900848501907
 30
0.0
 11
374.29037493407668
 21
175.3900848501907
 31
0.0
  0
LINE
  5
1C44F
  8
HIDE1
 10
359.89037493407523
 20
145.3900848501907
 30
0.0
 11
374.29037493407668
 21
145.3900848501907
 31
0.0
  0
LINE
  5
1C450
  8
HIDE1
 10
375.29037493406207
 20
139.5400848501904
 30
0.0
 11
371.58193642145488
 21
139.5400848501904
 31
0.0
  0
LINE
  5
1C451
  8
HIDE1
 10
359.29037493407668
 20
135.34008485018961
 30
0.0
 11
362.9501560455974
 21
135.34008485018961
 31
0.0
  0
LINE
  5
1C452
  8
HIDE1
 10
374.69037493407092
 20
129.3900848501907
 30
0.0
 11
360.29037493407668
 21
129.3900848501907
 31
0.0
  0
LINE
  5
1C453
  8
HIDE1
 10
369.0194038525151
 20
132.912310961381
 30
0.0
 11
375.29037493406207
 21
132.34008485018961
 31
0.0
  0
LINE
  5
1C454
  8
HIDE1
 10
359.29037493407668
 20
130.3900848501907
 30
0.0
 11
359.29037493407668
 21
190.3900848501907
 31
0.0
  0
LINE
  5
1C455
  8
HIDE1
 10
375.29037493406207
 20
190.7900848501904
 30
0.0
 11
375.29037493406207
 21
129.99008485018931
 31
0.0
  0
LINE
  5
1C456
  8
HIDE1
 10
371.73554093813442
 20
139.5400848501904
 30
0.0
 11
371.39166580884921
 21
139.88395997947009
 31
0.0
  0
ARC
  5
1C457
  8
HIDE1
 10
375.8903749340825
 20
129.99008485018931
 30
0.0
 40
0.6000000000000015
 50
180.0
 51
270.0
  0
ARC
  5
1C458
  8
HIDE1
 10
390.29037493406207
 20
130.3900848501907
 30
0.0
 40
1.0
 50
270.0
 51
0.0
  0
ARC
  5
1C459
  8
HIDE1
 10
376.29037493408401
 20
144.3900848501907
 30
0.0
 40
1.0
 50
90.0
 51
180.0
  0
ARC
  5
1C45A
  8
HIDE1
 10
376.29037493408401
 20
176.3900848501907
 30
0.0
 40
1.0
 50
180.0
 51
270.0
  0
ARC
  5
1C45B
  8
HIDE1
 10
390.69037493407092
 20
144.7900848501904
 30
0.0
 40
0.6
 50
0.0
 51
90.0
  0
ARC
  5
1C45C
  8
HIDE1
 10
390.69037493407092
 20
175.99008485018931
 30
0.0
 40
0.5999999999999996
 50
270.0
 51
0.0
  0
ARC
  5
1C45D
  8
HIDE1
 10
375.8903749340825
 20
190.7900848501904
 30
0.0
 40
0.6000000000000015
 50
90.0
 51
180.0
  0
ARC
  5
1C45E
  8
HIDE1
 10
390.29037493406207
 20
190.3900848501907
 30
0.0
 40
1.0
 50
0.0
 51
90.0
  0
LINE
  5
1C45F
  8
HIDE1
 10
391.29037493407668
 20
135.34008485018961
 30
0.0
 11
387.63059382257052
 21
135.34008485018961
 31
0.0
  0
LINE
  5
1C460
  8
HIDE1
 10
390.29037493406207
 20
129.3900848501907
 30
0.0
 11
375.8903749340825
 21
129.3900848501907
 31
0.0
  0
LINE
  5
1C461
  8
HIDE1
 10
375.29037493406207
 20
139.5400848501904
 30
0.0
 11
378.9988134466912
 21
139.5400848501904
 31
0.0
  0
LINE
  5
1C462
  8
HIDE1
 10
381.56134601565282
 20
132.912310961381
 30
0.0
 11
375.29037493406207
 21
132.34008485018961
 31
0.0
  0
LINE
  5
1C463
  8
HIDE1
 10
391.29037493407668
 20
139.5400848501904
 30
0.0
 11
387.58193642145488
 21
139.5400848501904
 31
0.0
  0
LINE
  5
1C464
  8
HIDE1
 10
391.29037493407668
 20
181.24008485018931
 30
0.0
 11
387.58193642145488
 21
181.24008485018931
 31
0.0
  0
LINE
  5
1C465
  8
HIDE1
 10
390.69037493407092
 20
145.3900848501907
 30
0.0
 11
376.29037493408401
 21
145.3900848501907
 31
0.0
  0
LINE
  5
1C466
  8
HIDE1
 10
390.69037493407092
 20
175.3900848501907
 30
0.0
 11
376.29037493408401
 21
175.3900848501907
 31
0.0
  0
LINE
  5
1C467
  8
HIDE1
 10
375.29037493406207
 20
181.24008485018931
 30
0.0
 11
378.9988134466912
 21
181.24008485018931
 31
0.0
  0
LINE
  5
1C468
  8
HIDE1
 10
391.29037493407668
 20
185.44008485019
 30
0.0
 11
387.63059382257052
 21
185.44008485019
 31
0.0
  0
LINE
  5
1C469
  8
HIDE1
 10
375.8903749340825
 20
191.3900848501907
 30
0.0
 11
390.29037493406207
 21
191.3900848501907
 31
0.0
  0
LINE
  5
1C46A
  8
HIDE1
 10
381.56134601565282
 20
187.86785873900041
 30
0.0
 11
375.29037493406207
 21
188.44008485019
 31
0.0
  0
LINE
  5
1C46B
  8
HIDE1
 10
391.29037493407668
 20
190.3900848501907
 30
0.0
 11
391.29037493407668
 21
130.3900848501907
 31
0.0
  0
LINE
  5
1C46C
  8
HIDE1
 10
379.18908405929687
 20
139.88395997947009
 30
0.0
 11
378.84520893003349
 21
139.5400848501904
 31
0.0
  0
LINE
  5
1C46D
  8
CENTER
 10
368.29012493407208
 20
121.1374620120823
 30
0.0
 11
368.29012493407208
 21
89.708577193459845
 31
0.0
  0
LINE
  5
1C46E
  8
CENTER
 10
391.29012493407208
 20
121.1374620120823
 30
0.0
 11
391.29012493407208
 21
89.708577193459845
 31
0.0
  0
LINE
  5
1C46F
  8
0
 10
348.29037493406207
 20
140.8900848501907
 30
0.0
 11
348.29037493406207
 21
179.8900848501907
 31
0.0
  0
LINE
  5
1C470
  8
CENTER
 10
339.7903749340839
 20
136.0334234019501
 30
0.0
 11
339.7903749340839
 21
148.1206127882196
 31
0.0
  0
LINE
  5
1C471
  8
0
 10
347.79037493407668
 20
137.8900848501907
 30
0.0
 11
347.79037493407668
 21
182.8900848501907
 31
0.0
  0
LINE
  5
1C472
  8
0
 10
332.29037493407668
 20
137.8900848501907
 30
0.0
 11
332.29037493407668
 21
182.8900848501907
 31
0.0
  0
LINE
  5
1C473
  8
0
 10
347.79037493407668
 20
137.8900848501907
 30
0.0
 11
332.29037493407668
 21
137.8900848501907
 31
0.0
  0
LINE
  5
1C474
  8
CENTER
 10
354.0570417573544
 20
160.3900848501907
 30
0.0
 11
332.29037493407668
 21
160.3900848501907
 31
0.0
  0
LINE
  5
1C475
  8
0
 10
348.29037493406207
 20
140.8900848501907
 30
0.0
 11
347.79037493407668
 21
140.6014097156021
 31
0.0
  0
LINE
  5
1C476
  8
HIDE1
 10
342.79037493408401
 20
137.8900848501907
 30
0.0
 11
342.79037493408401
 21
146.1400848501907
 31
0.0
  0
LINE
  5
1C477
  8
HIDE1
 10
342.29037493408401
 20
137.8900848501907
 30
0.0
 11
342.29037493408401
 21
146.1400848501907
 31
0.0
  0
LINE
  5
1C478
  8
HIDE1
 10
342.79037493408401
 20
138.18533054399811
 30
0.0
 11
336.79037493406207
 21
138.18533054399811
 31
0.0
  0
LINE
  5
1C479
  8
HIDE1
 10
342.79037493408401
 20
143.18533054399811
 30
0.0
 11
336.79037493406207
 21
143.18533054399811
 31
0.0
  0
LINE
  5
1C47A
  8
HIDE1
 10
342.79037493408401
 20
143.18533054399811
 30
0.0
 11
342.29037493408401
 21
143.4740056785904
 31
0.0
  0
LINE
  5
1C47B
  8
HIDE1
 10
337.29037493406207
 20
143.4740056785904
 30
0.0
 11
342.29037493408401
 21
143.4740056785904
 31
0.0
  0
LINE
  5
1C47C
  8
HIDE1
 10
348.29037493406207
 20
145.3900848501907
 30
0.0
 11
332.29037493407668
 21
145.3900848501907
 31
0.0
  0
LINE
  5
1C47D
  8
HIDE1
 10
348.29037493406207
 20
146.1400848501907
 30
0.0
 11
332.29037493407668
 21
146.1400848501907
 31
0.0
  0
LINE
  5
1C47E
  8
0
 10
347.79037493407668
 20
152.4518343601703
 30
0.0
 11
332.29037493407668
 21
152.4518343601703
 31
0.0
  0
LINE
  5
1C47F
  8
CENTER
 10
339.7903749340839
 20
184.7467462984296
 30
0.0
 11
339.7903749340839
 21
172.65955691216001
 31
0.0
  0
LINE
  5
1C480
  8
0
 10
347.79037493407668
 20
182.8900848501907
 30
0.0
 11
332.29037493407668
 21
182.8900848501907
 31
0.0
  0
LINE
  5
1C481
  8
0
 10
348.29037493406207
 20
179.8900848501907
 30
0.0
 11
347.79037493407668
 21
180.1787599847903
 31
0.0
  0
LINE
  5
1C482
  8
HIDE1
 10
342.79037493408401
 20
182.8900848501907
 30
0.0
 11
342.79037493408401
 21
174.6400848501907
 31
0.0
  0
LINE
  5
1C483
  8
HIDE1
 10
342.29037493408401
 20
182.8900848501907
 30
0.0
 11
342.29037493408401
 21
174.6400848501907
 31
0.0
  0
LINE
  5
1C484
  8
HIDE1
 10
336.79037493406207
 20
182.8900848501907
 30
0.0
 11
336.79037493406207
 21
174.6400848501907
 31
0.0
  0
LINE
  5
1C485
  8
HIDE1
 10
337.29037493406207
 20
182.8900848501907
 30
0.0
 11
337.29037493406207
 21
174.6400848501907
 31
0.0
  0
LINE
  5
1C486
  8
HIDE1
 10
342.79037493408401
 20
182.5948391563816
 30
0.0
 11
336.79037493406207
 21
182.5948391563816
 31
0.0
  0
LINE
  5
1C487
  8
HIDE1
 10
342.79037493408401
 20
177.59483915638151
 30
0.0
 11
336.79037493406207
 21
177.59483915638151
 31
0.0
  0
LINE
  5
1C488
  8
HIDE1
 10
342.79037493408401
 20
177.59483915638151
 30
0.0
 11
342.29037493408401
 21
177.3061640217893
 31
0.0
  0
LINE
  5
1C489
  8
HIDE1
 10
336.79037493406207
 20
177.59483915638151
 30
0.0
 11
337.29037493406207
 21
177.3061640217893
 31
0.0
  0
LINE
  5
1C48A
  8
HIDE1
 10
337.29037493406207
 20
177.3061640217893
 30
0.0
 11
342.29037493408401
 21
177.3061640217893
 31
0.0
  0
LINE
  5
1C48B
  8
HIDE1
 10
348.29037493406207
 20
175.3900848501907
 30
0.0
 11
332.29037493407668
 21
175.3900848501907
 31
0.0
  0
LINE
  5
1C48C
  8
HIDE1
 10
348.29037493406207
 20
174.6400848501907
 30
0.0
 11
332.29037493407668
 21
174.6400848501907
 31
0.0
  0
LINE
  5
1C48D
  8
0
 10
347.79037493407668
 20
168.3283353402021
 30
0.0
 11
332.29037493407668
 21
168.3283353402021
 31
0.0
  0
LINE
  5
1C490
  8
HIDE
 10
158.29603454390229
 20
187.3900848501894
 30
0.0
 11
158.29603454390229
 21
174.3900848501894
 31
0.0
  0
LINE
  5
1C491
  8
HIDE
 10
161.29603454390229
 20
174.3900848501894
 30
0.0
 11
161.29603454390229
 21
109.3901118501894
 31
0.0
  0
LINE
  5
1C492
  8
HIDE
 10
175.29603254390261
 20
174.3900848501894
 30
0.0
 11
175.29603254390261
 21
109.3901118501894
 31
0.0
  0
LINE
  5
1C493
  8
HIDE
 10
178.29603254390261
 20
187.3900848501894
 30
0.0
 11
178.29603254390261
 21
174.3900848501894
 31
0.0
  0
LINE
  5
1C494
  8
HIDE
 10
158.29603454390229
 20
174.3900848501894
 30
0.0
 11
178.29603254390261
 21
174.3900848501894
 31
0.0
  0
LINE
  5
1C495
  8
HIDE
 10
260.29603454390229
 20
174.3900848501894
 30
0.0
 11
280.29603254390258
 21
174.3900848501894
 31
0.0
  0
LINE
  5
1C496
  8
HIDE
 10
280.29603254390258
 20
187.3900848501894
 30
0.0
 11
280.29603254390258
 21
174.3900848501894
 31
0.0
  0
LINE
  5
1C497
  8
HIDE
 10
277.29603254390258
 20
174.3900848501894
 30
0.0
 11
277.29603254390258
 21
109.3901118501894
 31
0.0
  0
LINE
  5
1C498
  8
HIDE
 10
263.29603454390229
 20
174.3900848501894
 30
0.0
 11
263.29603454390229
 21
109.3901118501894
 31
0.0
  0
LINE
  5
1C499
  8
HIDE
 10
260.29603454390229
 20
187.3900848501894
 30
0.0
 11
260.29603454390229
 21
174.3900848501894
 31
0.0
  0
LINE
  5
1C49A
  8
0
 10
155.2953015439025
 20
109.3901118501894
 30
0.0
 11
155.2953015439025
 21
187.3900848501894
 31
0.0
  0
LINE
  5
1C49B
  8
0
 10
283.2953015439025
 20
187.3900848501894
 30
0.0
 11
283.2953015439025
 21
109.3901118501894
 31
0.0
  0
LINE
  5
1C49C
  8
0
 10
181.2953015439025
 20
187.3900848501894
 30
0.0
 11
181.2953015439025
 21
195.3893758501886
 31
0.0
  0
LINE
  5
1C49D
  8
0
 10
257.2953015439025
 20
187.3900848501894
 30
0.0
 11
257.2953015439025
 21
195.39012685018901
 31
0.0
  0
CIRCLE
  5
1C49E
  8
0
 10
219.29566754390271
 20
160.390107850189
 30
0.0
 40
25.5
  0
CIRCLE
  5
1C49F
  8
0
 10
168.29566754390271
 20
160.390107850189
 30
0.0
 40
5.4999989999999972
  0
CIRCLE
  5
1C4A0
  8
0
 10
270.29566754390271
 20
160.390107850189
 30
0.0
 40
5.4999989999999972
  0
CIRCLE
  5
1C4A1
  8
0
 10
270.29566754390271
 20
127.3901118501894
 30
0.0
 40
5.4999989999999972
  0
CIRCLE
  5
1C4A2
  8
0
 10
168.29566754390271
 20
127.3901118501894
 30
0.0
 40
5.4999989999999972
  0
ARC
  5
1C4A3
  8
0
 10
219.29566754390271
 20
160.390107850189
 30
0.0
 40
47.999977000000001
 50
129.57119999999381
 51
140.42902000002289
  0
ARC
  5
1C4A4
  8
0
 10
219.29566754390271
 20
160.390107850189
 30
0.0
 40
47.999977000000001
 50
219.57097999997711
 51
230.42884999999771
  0
ARC
  5
1C4A5
  8
0
 10
219.29566754390271
 20
160.390107850189
 30
0.0
 40
47.999977000000001
 50
39.571643999985483
 51
50.428782000002869
  0
ARC
  5
1C4A6
  8
CENTER
 10
219.29566754390271
 20
160.390107850189
 30
0.0
 40
37.499977000000001
 50
297.01833000000619
 51
332.49048000000329
  0
CIRCLE
  5
1C4A7
  8
0
 10
245.81153654390249
 20
133.87350985018881
 30
0.0
 40
7.4999989999999981
  0
ARC
  5
1C4A8
  8
0
 10
219.29566754390271
 20
160.390107850189
 30
0.0
 40
47.999977000000001
 50
309.57116999999511
 51
320.42835999998931
  0
CIRCLE
  5
1C4A9
  8
0
 10
192.77906654390239
 20
133.87424285018869
 30
0.0
 40
7.4999989999999981
  0
ARC
  5
1C4AA
  8
CENTER
 10
219.29566754390271
 20
160.390107850189
 30
0.0
 40
37.499977000000001
 50
27.01824400000282
 51
62.490438999978039
  0
ARC
  5
1C4AB
  8
CENTER
 10
219.29566754390271
 20
160.390107850189
 30
0.0
 40
37.499977000000001
 50
117.01824000000479
 51
152.49042000000301
  0
ARC
  5
1C4AC
  8
CENTER
 10
219.29566754390271
 20
160.390107850189
 30
0.0
 40
37.499977000000001
 50
207.018299999975
 51
242.49046999998799
  0
CIRCLE
  5
1C4AD
  8
0
 10
245.81263554390259
 20
186.90634285018899
 30
0.0
 40
7.4999989999999981
  0
CIRCLE
  5
1C4AE
  8
0
 10
192.7797985439029
 20
186.9070528501893
 30
0.0
 40
7.4999989999999981
  0
LINE
  5
1C4AF
  8
CENTER
 10
152.2953015439025
 20
160.390107850189
 30
0.0
 11
286.2953015439025
 21
160.390107850189
 31
0.0
  0
LINE
  5
1C4B0
  8
CENTER
 10
219.2953015439025
 20
104.6175358501891
 30
0.0
 11
219.2953015439025
 21
204.07129785018921
 31
0.0
  0
LINE
  5
1C4B1
  8
0
 10
155.2953015439025
 20
109.3901118501894
 30
0.0
 11
283.2953015439025
 21
109.3901118501894
 31
0.0
  0
LINE
  5
1C4B2
  8
0
 10
155.2953015439025
 20
187.3900848501894
 30
0.0
 11
181.2953015439025
 21
187.3900848501894
 31
0.0
  0
LINE
  5
1C4B3
  8
0
 10
184.29580453462219
 20
198.39009985018899
 30
0.0
 11
254.29529754070879
 21
198.39009985018899
 31
0.0
  0
LINE
  5
1C4B4
  8
0
 10
184.29580453462219
 20
198.39009985018899
 30
0.0
 11
181.2953015439025
 21
195.3893758501886
 31
0.0
  0
LINE
  5
1C4B5
  8
0
 10
254.29529754070879
 20
198.39009985018899
 30
0.0
 11
257.2953015439025
 21
195.39012685018901
 31
0.0
  0
LINE
  5
1C4B6
  8
0
 10
257.2953015439025
 20
187.3900848501894
 30
0.0
 11
283.2953015439025
 21
187.3900848501894
 31
0.0
  0
LINE
  5
1C4B7
  8
CENTER
 10
270.2953015439025
 20
104.6175358501891
 30
0.0
 11
270.2953015439025
 21
191.49851385018931
 31
0.0
  0
LINE
  5
1C4B8
  8
CENTER
 10
168.2953015439025
 20
191.49849085018869
 30
0.0
 11
168.2953015439025
 21
104.617513850189
 31
0.0
  0
LINE
  5
1C4B9
  8
CENTER
 10
157.94068754390261
 20
127.3901118501894
 30
0.0
 11
178.57301154390279
 21
127.3901118501894
 31
0.0
  0
LINE
  5
1C4BA
  8
CENTER
 10
260.13477954390243
 20
127.3901118501894
 30
0.0
 11
280.44447154390218
 21
127.3901118501894
 31
0.0
  0
LINE
  5
1C4BB
  8
0
 10
188.71815354390219
 20
197.3900928501894
 30
0.0
 11
249.8735485439029
 21
197.3900928501894
 31
0.0
  0
LINE
  5
1C4BC
  8
0
 10
188.71815354390219
 20
123.3901038501885
 30
0.0
 11
249.8735485439029
 21
123.3901038501885
 31
0.0
  0
LINE
  5
1C4BD
  8
0
 10
256.29542354390293
 20
129.81207085018869
 30
0.0
 11
256.29542354390293
 21
190.9681258501891
 31
0.0
  0
LINE
  5
1C4BE
  8
0
 10
182.29554554390231
 20
129.8125058501887
 30
0.0
 11
182.29554554390231
 21
190.9676908501892
 31
0.0
  0
LINE
  5
1C4BF
  8
CENTER
 10
238.28729854390261
 20
141.39854985018931
 30
0.0
 11
252.8853475439027
 21
126.8005008501891
 31
0.0
  0
LINE
  5
1C4C0
  8
0
 10
242.54587554390221
 20
137.1380788501888
 30
0.0
 11
241.35057654390221
 21
132.67716185018929
 31
0.0
  0
LINE
  5
1C4C1
  8
0
 10
250.2730675439025
 20
135.06720485018869
 30
0.0
 11
249.07776854390249
 21
130.60628685018901
 31
0.0
  0
LINE
  5
1C4C2
  8
0
 10
241.35016054390229
 20
132.6765878501887
 30
0.0
 11
244.61604154390261
 21
129.4107068501894
 31
0.0
  0
LINE
  5
1C4C3
  8
0
 10
247.00667054390209
 20
138.33361385018861
 30
0.0
 11
250.2730675439025
 21
135.0672168501892
 31
0.0
  0
LINE
  5
1C4C4
  8
0
 10
244.6152575439028
 20
129.41154085018891
 30
0.0
 11
249.07688754390259
 21
130.60703085018889
 31
0.0
  0
LINE
  5
1C4C5
  8
0
 10
242.54508954390261
 20
137.1389238501892
 30
0.0
 11
247.00601254390219
 21
138.334224850189
 31
0.0
  0
LINE
  5
1C4C6
  8
CENTER
 10
238.2873955439027
 20
179.38094885018879
 30
0.0
 11
252.8855195439028
 21
193.9790738501892
 31
0.0
  0
LINE
  5
1C4C7
  8
0
 10
242.54815654390219
 20
183.6398028501894
 30
0.0
 11
247.0090795439028
 21
182.44450185018869
 31
0.0
  0
LINE
  5
1C4C8
  8
0
 10
244.61902654390269
 20
191.36698085018861
 30
0.0
 11
249.0799485439029
 21
190.17168185018861
 31
0.0
  0
LINE
  5
1C4C9
  8
0
 10
247.00944354390231
 20
182.44389885018921
 30
0.0
 11
250.27519454390219
 21
185.70964985018921
 31
0.0
  0
LINE
  5
1C4CA
  8
0
 10
241.35247954390249
 20
188.10047285018891
 30
0.0
 11
244.6187175439027
 21
191.3667088501893
 31
0.0
  0
LINE
  5
1C4CB
  8
0
 10
250.2746025439028
 20
185.70992085018901
 30
0.0
 11
249.07911354390211
 21
190.17155085018879
 31
0.0
  0
LINE
  5
1C4CC
  8
0
 10
242.54721854390209
 20
183.6397528501889
 30
0.0
 11
241.35191954390211
 21
188.10067485018911
 31
0.0
  0
LINE
  5
1C4CD
  8
CENTER
 10
200.3049945439025
 20
179.38136985018849
 30
0.0
 11
185.70693454390221
 21
193.97943285018891
 31
0.0
  0
LINE
  5
1C4CE
  8
0
 10
196.04631854390209
 20
183.64228185018919
 30
0.0
 11
197.24161954390269
 21
188.10320285018901
 31
0.0
  0
LINE
  5
1C4CF
  8
0
 10
188.31912254390221
 20
185.71315785018891
 30
0.0
 11
189.51442354390289
 21
190.17407785018941
 31
0.0
  0
LINE
  5
1C4D0
  8
0
 10
197.2421305439029
 20
188.10333185018911
 30
0.0
 11
193.97625154390241
 21
191.36921285018931
 31
0.0
  0
LINE
  5
1C4D1
  8
0
 10
191.5856225439029
 20
182.44630585018919
 30
0.0
 11
188.31922354390281
 21
185.712703850189
 31
0.0
  0
LINE
  5
1C4D2
  8
0
 10
193.97634754390219
 20
191.36891885018889
 30
0.0
 11
189.51471754390241
 21
190.17342885018891
 31
0.0
  0
LINE
  5
1C4D3
  8
0
 10
196.04651254390231
 20
183.64153685018891
 30
0.0
 11
191.58559254390269
 21
182.44623585018911
 31
0.0
  0
LINE
  5
1C4D4
  8
CENTER
 10
200.30472554390241
 20
141.3987978501886
 30
0.0
 11
185.70666354390229
 21
126.8007368501889
 31
0.0
  0
LINE
  5
1C4D5
  8
CENTER
 10
219.2953015439025
 20
104.6175358501891
 30
0.0
 11
219.2953015439025
 21
204.07129785018921
 31
0.0
  0
LINE
  5
1C4D6
  8
0
 10
196.04399654390269
 20
137.14040685018921
 30
0.0
 11
191.58307454390251
 21
138.33570685018859
 31
0.0
  0
LINE
  5
1C4D7
  8
0
 10
193.97312354390209
 20
129.41321385018861
 30
0.0
 11
189.51220154390279
 21
130.60851485018929
 31
0.0
  0
LINE
  5
1C4D8
  8
0
 10
191.5827635439027
 20
138.33593385018909
 30
0.0
 11
188.3168835439028
 21
135.0700528501888
 31
0.0
  0
LINE
  5
1C4D9
  8
0
 10
197.2397905439029
 20
132.67942385018929
 30
0.0
 11
193.97339254390221
 21
129.413026850189
 31
0.0
  0
LINE
  5
1C4DA
  8
0
 10
188.3173565439028
 20
135.07063485018941
 30
0.0
 11
189.51284454390219
 21
130.60900485018871
 31
0.0
  0
LINE
  5
1C4DB
  8
0
 10
196.04473854390289
 20
137.14080185018929
 30
0.0
 11
197.24003954390261
 21
132.679879850189
 31
0.0
  0
LINE
  5
1C4DC
  8
CENTER
 10
219.2953015439025
 20
104.6175358501891
 30
0.0
 11
219.2953015439025
 21
204.07129785018921
 31
0.0
  0
ARC
  5
1C4DD
  8
0
 10
219.29566754390271
 20
160.390107850189
 30
0.0
 40
22.5
 50
249.3406467286691
 51
290.65935327133087
  0
ARC
  5
1C4DE
  8
0
 10
219.29566754390271
 20
160.390107850189
 30
0.0
 40
22.5
 50
339.3406467286207
 51
20.659353271379281
  0
ARC
  5
1C4DF
  8
0
 10
219.29566754390271
 20
160.390107850189
 30
0.0
 40
22.5
 50
69.340646728669114
 51
110.6593532713309
  0
ARC
  5
1C4E0
  8
0
 10
219.29566754390271
 20
160.390107850189
 30
0.0
 40
22.5
 50
159.3406467286207
 51
200.6593532713793
  0
POLYLINE
  5
1C4E1
  8
0
 66
     1
 10
0.0
 20
0.0
 30
0.0
  0
VERTEX
  5
1C5BE
  8
0
 10
198.2425400052752
 20
152.45185736016671
 30
0.0
  0
VERTEX
  5
1C5BF
  8
0
 10
211.35741705388051
 20
139.33698031156149
 30
0.0
  0
SEQEND
  5
1C5C0
  8
0
  0
POLYLINE
  5
1C4E2
  8
0
 66
     1
 10
0.0
 20
0.0
 30
0.0
  0
VERTEX
  5
1C5C1
  8
0
 10
227.23391803392499
 20
139.33698031156149
 30
0.0
  0
VERTEX
  5
1C5C2
  8
0
 10
240.34879508252831
 20
152.45185736016489
 30
0.0
  0
SEQEND
  5
1C5C3
  8
0
  0
POLYLINE
  5
1C4E3
  8
0
 66
     1
 10
0.0
 20
0.0
 30
0.0
  0
VERTEX
  5
1C5C4
  8
0
 10
240.34879508252831
 20
168.32835834020941
 30
0.0
  0
VERTEX
  5
1C5C5
  8
0
 10
227.2339180339232
 20
181.4432353888146
 30
0.0
  0
SEQEND
  5
1C5C6
  8
0
  0
POLYLINE
  5
1C4E4
  8
0
 66
     1
 10
0.0
 20
0.0
 30
0.0
  0
VERTEX
  5
1C5C7
  8
0
 10
211.35741705387861
 20
181.4432353888146
 30
0.0
  0
VERTEX
  5
1C5C8
  8
0
 10
198.2425400052752
 20
168.3283583402112
 30
0.0
  0
SEQEND
  5
1C5C9
  8
0
  0
ARC
  5
1C4E5
  8
HIDE
 10
219.29566754390271
 20
160.390107850189
 30
0.0
 40
15.0
 50
270.0
 51
180.0
  0
CIRCLE
  5
1C4E6
  8
0
 10
219.29566754390271
 20
160.390107850189
 30
0.0
 40
14.25
  0
LINE
  5
1C4E7
  8
HIDE
 10
216.29566754390271
 20
182.6892109711666
 30
0.0
 11
216.29566754390089
 21
174.32073956594331
 31
0.0
  0
LINE
  5
1C4E8
  8
HIDE
 10
216.79566754390271
 20
182.750787625187
 30
0.0
 11
216.79566754390089
 21
174.41909569678629
 31
0.0
  0
LINE
  5
1C4E9
  8
HIDE
 10
222.29566754390271
 20
182.6892109711666
 30
0.0
 11
222.29566754390271
 21
174.32073956594419
 31
0.0
  0
LINE
  5
1C4EA
  8
HIDE
 10
221.79566754390271
 20
182.750787625187
 30
0.0
 11
221.79566754390271
 21
174.41909569678731
 31
0.0
  0
LINE
  5
1C4EB
  8
HIDE
 10
216.29566754390271
 20
182.59486215638159
 30
0.0
 11
222.29566754390271
 21
182.59486215638159
 31
0.0
  0
LINE
  5
1C4EC
  8
HIDE
 10
216.29566754390271
 20
177.59486215638159
 30
0.0
 11
222.29566754390271
 21
177.59486215638159
 31
0.0
  0
LINE
  5
1C4ED
  8
HIDE
 10
216.29566754390271
 20
177.59486215638159
 30
0.0
 11
216.79566754390271
 21
177.30618702178751
 31
0.0
  0
LINE
  5
1C4EE
  8
HIDE
 10
222.29566754390271
 20
177.59486215638159
 30
0.0
 11
221.79566754390271
 21
177.30618702178751
 31
0.0
  0
LINE
  5
1C4EF
  8
HIDE
 10
221.79566754390271
 20
177.30618702178751
 30
0.0
 11
216.79566754390271
 21
177.30618702178751
 31
0.0
  0
LINE
  5
1C4F0
  8
HIDE
 10
216.29566754390271
 20
138.09100472921131
 30
0.0
 11
216.29566754390089
 21
146.45947613443471
 31
0.0
  0
LINE
  5
1C4F1
  8
HIDE
 10
216.79566754390271
 20
138.02942807519091
 30
0.0
 11
216.79566754390089
 21
146.36112000359159
 31
0.0
  0
LINE
  5
1C4F2
  8
HIDE
 10
222.29566754390271
 20
138.09100472921131
 30
0.0
 11
222.29566754390271
 21
146.45947613443369
 31
0.0
  0
LINE
  5
1C4F3
  8
HIDE
 10
221.79566754390271
 20
138.02942807519091
 30
0.0
 11
221.79566754390271
 21
146.36112000359071
 31
0.0
  0
LINE
  5
1C4F4
  8
HIDE
 10
216.29566754390271
 20
138.18535354399631
 30
0.0
 11
222.29566754390271
 21
138.18535354399631
 31
0.0
  0
LINE
  5
1C4F5
  8
HIDE
 10
216.29566754390271
 20
143.18535354399631
 30
0.0
 11
222.29566754390271
 21
143.18535354399631
 31
0.0
  0
LINE
  5
1C4F6
  8
HIDE
 10
216.29566754390271
 20
143.18535354399631
 30
0.0
 11
216.79566754390271
 21
143.4740286785904
 31
0.0
  0
LINE
  5
1C4F7
  8
HIDE
 10
222.29566754390271
 20
143.18535354399631
 30
0.0
 11
221.79566754390271
 21
143.4740286785904
 31
0.0
  0
LINE
  5
1C4F8
  8
HIDE
 10
221.79566754390271
 20
143.4740286785904
 30
0.0
 11
216.79566754390271
 21
143.4740286785904
 31
0.0
  0
LINE
  5
1C4F9
  8
HIDE1
 10
204.29493554393409
 20
236.59900165869109
 30
0.0
 11
204.29493554393409
 21
302.59889165869032
 31
0.0
  0
LINE
  5
1C4FA
  8
HIDE1
 10
234.29493554390501
 20
236.59900165869109
 30
0.0
 11
234.29493554390501
 21
302.59889165869032
 31
0.0
  0
LINE
  5
1C4FB
  8
0
 10
182.29517954393671
 20
243.59888165869049
 30
0.0
 11
182.29517954393671
 21
257.59889165869021
 31
0.0
  0
LINE
  5
1C4FC
  8
0
 10
256.29505754391721
 20
243.59888165869049
 30
0.0
 11
256.29505754391721
 21
257.59889165869021
 31
0.0
  0
LINE
  5
1C4FD
  8
0
 10
257.2949355439269
 20
257.59889165869021
 30
0.0
 11
257.2949355439269
 21
302.59889165869032
 31
0.0
  0
LINE
  5
1C4FE
  8
0
 10
254.29493154072409
 20
257.59889165869021
 30
0.0
 11
254.29493154072409
 21
302.59889165869032
 31
0.0
  0
LINE
  5
1C4FF
  8
0
 10
184.2954385346311
 20
257.59889165869021
 30
0.0
 11
184.2954385346311
 21
302.59889165869032
 31
0.0
  0
LINE
  5
1C500
  8
0
 10
181.29493554392681
 20
257.59889165869021
 30
0.0
 11
181.29493554392681
 21
302.59889165869032
 31
0.0
  0
LINE
  5
1C501
  8
0
 10
155.295301543927
 20
302.59889165869032
 30
0.0
 11
155.295301543927
 21
257.59889165869021
 31
0.0
  0
LINE
  5
1C502
  8
0
 10
283.29530154390523
 20
257.59889165869021
 30
0.0
 11
283.29530154390523
 21
302.59889165869032
 31
0.0
  0
CIRCLE
  5
1C503
  8
0
 10
168.295301543927
 20
291.59828165869112
 30
0.0
 40
9.9999990000000007
  0
CIRCLE
  5
1C504
  8
0
 10
270.29566754392732
 20
291.59864165869112
 30
0.0
 40
6.9999989999999981
  0
CIRCLE
  5
1C505
  8
0
 10
270.29566754392732
 20
268.5986416586984
 30
0.0
 40
9.9999990000000007
  0
CIRCLE
  5
1C506
  8
0
 10
270.29566754392732
 20
291.59864165869112
 30
0.0
 40
9.9999990000000007
  0
CIRCLE
  5
1C507
  8
0
 10
168.295301543927
 20
291.59828165869112
 30
0.0
 40
6.9999989999999981
  0
CIRCLE
  5
1C508
  8
0
 10
168.295301543927
 20
268.5986416586984
 30
0.0
 40
6.9999989999999981
  0
CIRCLE
  5
1C509
  8
0
 10
270.29566754392732
 20
268.5986416586984
 30
0.0
 40
6.9999989999999981
  0
CIRCLE
  5
1C50A
  8
0
 10
168.295301543927
 20
268.5986416586984
 30
0.0
 40
9.9999990000000007
  0
LINE
  5
1C50B
  8
CENTER
 10
219.295301543927
 20
229.35049949990031
 30
0.0
 11
219.295301543927
 21
311.40963520285919
 31
0.0
  0
LINE
  5
1C50C
  8
0
 10
155.295301543927
 20
302.59889165869032
 30
0.0
 11
283.29530154390523
 21
302.59889165869032
 31
0.0
  0
LINE
  5
1C50D
  8
0
 10
155.295301543927
 20
257.59889165869021
 30
0.0
 11
283.29530154390523
 21
257.59889165869021
 31
0.0
  0
LINE
  5
1C50E
  8
0
 10
182.29517954393671
 20
243.59888165869049
 30
0.0
 11
256.29505754391721
 21
243.59888165869049
 31
0.0
  0
LINE
  5
1C50F
  8
CENTER
 10
270.29530154392711
 20
255.5250416587005
 30
0.0
 11
270.29530154392711
 21
304.31019165869111
 31
0.0
  0
LINE
  5
1C510
  8
CENTER
 10
258.50037954391149
 20
291.59864165869112
 30
0.0
 11
282.29566754392721
 21
291.59864165869112
 31
0.0
  0
LINE
  5
1C511
  8
CENTER
 10
258.34840254392469
 20
268.5986416586984
 30
0.0
 11
282.29566754392721
 21
268.5986416586984
 31
0.0
  0
LINE
  5
1C512
  8
CENTER
 10
168.295301543927
 20
304.30983165869111
 30
0.0
 11
168.295301543927
 21
255.5250116586904
 31
0.0
  0
LINE
  5
1C513
  8
CENTER
 10
156.295301543927
 20
291.59828165869112
 30
0.0
 11
180.09058954392819
 21
291.59828165869112
 31
0.0
  0
LINE
  5
1C514
  8
CENTER
 10
156.295301543927
 20
268.59861165869012
 30
0.0
 11
180.2425675439153
 21
268.59861165869012
 31
0.0
  0
LINE
  5
1C515
  8
0
 10
241.795301543927
 20
232.59886165869099
 30
0.0
 11
196.795301543927
 21
232.59886165869099
 31
0.0
  0
LINE
  5
1C516
  8
0
 10
241.795301543927
 20
243.59888165869049
 30
0.0
 11
241.795301543927
 21
232.59886165869099
 31
0.0
  0
LINE
  5
1C517
  8
HIDE1
 10
234.295301543927
 20
248.59886165869099
 30
0.0
 11
234.295301543927
 21
232.5988616586983
 31
0.0
  0
LINE
  5
1C518
  8
HIDE1
 10
233.5453015439052
 20
243.59888165869779
 30
0.0
 11
233.5453015439052
 21
232.5988616586983
 31
0.0
  0
LINE
  5
1C519
  8
0
 10
227.23355203394021
 20
243.59888165869049
 30
0.0
 11
227.23355203394021
 21
232.59886165869099
 31
0.0
  0
LINE
  5
1C51A
  8
0
 10
196.795301543927
 20
243.59888165869049
 30
0.0
 11
196.795301543927
 21
232.59886165869099
 31
0.0
  0
LINE
  5
1C51B
  8
HIDE1
 10
204.295301543927
 20
248.59886165869099
 30
0.0
 11
204.295301543927
 21
232.5988616586983
 31
0.0
  0
LINE
  5
1C51C
  8
HIDE1
 10
205.045301543927
 20
243.59888165869779
 30
0.0
 11
205.045301543927
 21
232.5988616586983
 31
0.0
  0
LINE
  5
1C51D
  8
0
 10
211.35705105390659
 20
243.59888165869049
 30
0.0
 11
211.35705105390659
 21
232.59886165869099
 31
0.0
  0
LINE
  5
1C51E
  8
CENTER
 10
213.86977178491361
 20
240.09886165869099
 30
0.0
 11
224.7208313029187
 21
240.09886165869099
 31
0.0
  0
CIRCLE
  5
1C51F
  8
0
 10
219.295301543927
 20
240.09886165869099
 30
0.0
 40
2.5
  0
ARC
  5
1C520
  8
HL
 10
219.295301543927
 20
240.09886165869099
 30
0.0
 40
2.9999999999990878
 50
270.0
 51
180.0
  0
POLYLINE
  5
1C521
  8
0
 66
     1
 10
0.0
 20
0.0
 30
0.0
 70
     1
  0
VERTEX
  5
1C5CA
  8
0
 10
219.295301543927
 20
241.62628960044819
 30
0.0
  0
VERTEX
  5
1C5CB
  8
0
 10
217.97251014389619
 20
240.86257562956959
 30
0.0
  0
VERTEX
  5
1C5CC
  8
0
 10
217.97251014389619
 20
239.33514768780881
 30
0.0
  0
VERTEX
  5
1C5CD
  8
0
 10
219.295301543927
 20
238.57143371693019
 30
0.0
  0
VERTEX
  5
1C5CE
  8
0
 10
220.61809294395059
 20
239.33514768780881
 30
0.0
  0
VERTEX
  5
1C5CF
  8
0
 10
220.61809294395059
 20
240.86257562956959
 30
0.0
  0
SEQEND
  5
1C5D0
  8
0
  0
ENDSEC
  0
EOF
