  0
SECTION
  2
HEADER
  9
$ACADVER
  1
AC1009
  9
$INSBASE
 10
0.0
 20
0.0
 30
0.0
  9
$EXTMIN
 10
1903.0405749290021
 20
1433.173578249188
 30
0.0
  9
$EXTMAX
 10
2348.540574929003
 20
1748.173578249188
 30
0.0
  9
$LIMMIN
 10
0.0
 20
0.0
  9
$LIMMAX
 10
12.0
 20
9.0
  9
$ORTHOMODE
 70
     0
  9
$REGENMODE
 70
     1
  9
$FILLMODE
 70
     1
  9
$QTEXTMODE
 70
     0
  9
$MIRRTEXT
 70
     0
  9
$DRAGMODE
 70
     2
  9
$LTSCALE
 40
5.0
  9
$OSMODE
 70
  2477
  9
$ATTMODE
 70
     1
  9
$TEXTSIZE
 40
2.5
  9
$TRACEWID
 40
0.05
  9
$TEXTSTYLE
  7
BIG
  9
$CLAYER
  8
0
  9
$CELTYPE
  6
BYLAYER
  9
$CECOLOR
 62
   256
  9
$DIMSCALE
 40
1.0
  9
$DIMASZ
 40
3.0
  9
$DIMEXO
 40
1.0
  9
$DIMDLI
 40
0.0
  9
$DIMRND
 40
0.0
  9
$DIMDLE
 40
0.0
  9
$DIMEXE
 40
1.0
  9
$DIMTP
 40
0.0
  9
$DIMTM
 40
0.0
  9
$DIMTXT
 40
3.0
  9
$DIMCEN
 40
0.0
  9
$DIMTSZ
 40
0.0
  9
$DIMTOL
 70
     0
  9
$DIMLIM
 70
     0
  9
$DIMTIH
 70
     0
  9
$DIMTOH
 70
     0
  9
$DIMSE1
 70
     0
  9
$DIMSE2
 70
     0
  9
$DIMTAD
 70
     1
  9
$DIMZIN
 70
     8
  9
$DIMBLK
  1

  9
$DIMASO
 70
     1
  9
$DIMSHO
 70
     1
  9
$DIMPOST
  1

  9
$DIMAPOST
  1

  9
$DIMALT
 70
     0
  9
$DIMALTD
 70
     2
  9
$DIMALTF
 40
25.399999999999999
  9
$DIMLFAC
 40
1.0
  9
$DIMTOFL
 70
     1
  9
$DIMTVP
 40
0.0
  9
$DIMTIX
 70
     1
  9
$DIMSOXD
 70
     0
  9
$DIMSAH
 70
     0
  9
$DIMBLK1
  1

  9
$DIMBLK2
  1

  9
$DIMSTYLE
  2
DUKITEC
  9
$DIMCLRD
 70
     5
  9
$DIMCLRE
 70
     5
  9
$DIMCLRT
 70
     0
  9
$DIMTFAC
 40
1.0
  9
$DIMGAP
 40
1.0
  9
$LUNITS
 70
     2
  9
$LUPREC
 70
     4
  9
$SKETCHINC
 40
0.1
  9
$FILLETRAD
 40
0.2
  9
$AUNITS
 70
     0
  9
$AUPREC
 70
     0
  9
$MENU
  1
.
  9
$ELEVATION
 40
0.0
  9
$PELEVATION
 40
0.0
  9
$THICKNESS
 40
0.0
  9
$LIMCHECK
 70
     0
  9
$BLIPMODE
 70
     0
  9
$CHAMFERA
 40
0.5
  9
$CHAMFERB
 40
0.5
  9
$SKPOLY
 70
     0
  9
$TDCREATE
 40
2454396.7081841319
  9
$TDUPDATE
 40
2454396.708318322
  9
$TDINDWG
 40
0.0001356366
  9
$TDUSRTIMER
 40
0.0001354514
  9
$USRTIMER
 70
     1
  9
$ANGBASE
 50
0.0
  9
$ANGDIR
 70
     0
  9
$PDMODE
 70
     0
  9
$PDSIZE
 40
0.0
  9
$PLINEWID
 40
0.0
  9
$COORDS
 70
     1
  9
$SPLFRAME
 70
     0
  9
$SPLINETYPE
 70
     6
  9
$SPLINESEGS
 70
     8
  9
$ATTDIA
 70
     0
  9
$ATTREQ
 70
     1
  9
$HANDLING
 70
     1
  9
$HANDSEED
  5
13FBF
  9
$SURFTAB1
 70
     6
  9
$SURFTAB2
 70
     6
  9
$SURFTYPE
 70
     6
  9
$SURFU
 70
     6
  9
$SURFV
 70
     6
  9
$UCSNAME
  2

  9
$UCSORG
 10
0.0
 20
0.0
 30
0.0
  9
$UCSXDIR
 10
1.0
 20
0.0
 30
0.0
  9
$UCSYDIR
 10
0.0
 20
1.0
 30
0.0
  9
$PUCSNAME
  2

  9
$PUCSORG
 10
0.0
 20
0.0
 30
0.0
  9
$PUCSXDIR
 10
1.0
 20
0.0
 30
0.0
  9
$PUCSYDIR
 10
0.0
 20
1.0
 30
0.0
  9
$USERI1
 70
     0
  9
$USERI2
 70
     0
  9
$USERI3
 70
     0
  9
$USERI4
 70
     0
  9
$USERI5
 70
     0
  9
$USERR1
 40
0.0
  9
$USERR2
 40
0.0
  9
$USERR3
 40
0.0
  9
$USERR4
 40
0.0
  9
$USERR5
 40
0.0
  9
$WORLDVIEW
 70
     1
  9
$SHADEDGE
 70
     3
  9
$SHADEDIF
 70
    70
  9
$TILEMODE
 70
     1
  9
$MAXACTVP
 70
    64
  9
$PLIMCHECK
 70
     0
  9
$PEXTMIN
 10
0.0
 20
0.0
 30
0.0
  9
$PEXTMAX
 10
0.0
 20
0.0
 30
0.0
  9
$PLIMMIN
 10
0.0
 20
0.0
  9
$PLIMMAX
 10
12.0
 20
9.0
  9
$UNITMODE
 70
     0
  9
$VISRETAIN
 70
     1
  9
$PLINEGEN
 70
     0
  9
$PSLTSCALE
 70
     1
  0
ENDSEC
  0
SECTION
  2
TABLES
  0
TABLE
  2
VPORT
 70
     1
  0
VPORT
  2
*ACTIVE
 70
     0
 10
0.0
 20
0.0
 11
1.0
 21
1.0
 12
2168.5023465051058
 22
1556.476323120695
 13
0.0
 23
0.0
 14
0.5
 24
0.5
 15
0.5
 25
0.5
 16
0.0
 26
0.0
 36
1.0
 17
0.0
 27
0.0
 37
0.0
 40
726.41081841370851
 41
1.685233160621761
 42
50.0
 43
0.0
 44
0.0
 50
0.0
 51
0.0
 71
     0
 72
  2000
 73
     1
 74
     3
 75
     0
 76
     0
 77
     0
 78
     0
  0
ENDTAB
  0
TABLE
  2
LTYPE
 70
     3
  0
LTYPE
  2
CONTINUOUS
 70
     0
  3
Solid line
 72
    65
 73
     0
 40
0.0
  0
LTYPE
  2
CENTER
 70
     0
  3
___ _ ___ _ ___ _ ___ _ ___ _ ___ _ ___ _ ___ _
 72
    65
 73
     4
 40
0.95
 49
0.625
 49
-0.125
 49
0.075
 49
-0.125
  0
LTYPE
  2
DASHED2
 70
     0
  3
Dashed (.5x) _ _ _ _ _ _ _ _ _ _ _ _ _ _ _ _ _
 72
    65
 73
     2
 40
0.375
 49
0.25
 49
-0.125
  0
ENDTAB
  0
TABLE
  2
LAYER
 70
     4
  0
LAYER
  2
0
 70
     0
 62
     7
  6
CONTINUOUS
  0
LAYER
  2
DEFPOINTS
 70
     0
 62
     7
  6
CONTINUOUS
  0
LAYER
  2
HIDE
 70
     0
 62
     1
  6
DASHED2
  0
LAYER
  2
CENTER
 70
     0
 62
     3
  6
CENTER
  0
ENDTAB
  0
TABLE
  2
STYLE
 70
     2
  0
STYLE
  2
STANDARD
 70
     0
 40
5.0
 41
1.0
 50
0.0
 71
     0
 42
5.0
  3
txt.shx
  4
whgtxt.shx
  0
STYLE
  2
BIG
 70
     0
 40
20.0
 41
1.0
 50
0.0
 71
     0
 42
2.5
  3
txt
  4

  0
ENDTAB
  0
TABLE
  2
VIEW
 70
     0
  0
ENDTAB
  0
TABLE
  2
UCS
 70
     0
  0
ENDTAB
  0
TABLE
  2
APPID
 70
     7
  0
APPID
  2
ACAD
 70
     0
  0
APPID
  2
ACAD_EXEMPT_FROM_CAD_STANDARDS
 70
     0
  0
APPID
  2
ACAD_DSTYLE_DIMJOGGED_JOGA
 70
     0
  0
APPID
  2
ACAD_PSEXT
 70
     0
  0
APPID
  2
ACAECLAYERSTANDARD
 70
     0
  0
APPID
  2
DCO15
 70
     0
  0
APPID
  2
CONTENTBLOCKICON
 70
     0
  0
ENDTAB
  0
TABLE
  2
DIMSTYLE
 70
     2
  0
DIMSTYLE
  2
DUKITEC
 70
     0
  3

  4

  5

  6

  7

 40
1.0
 41
3.0
 42
1.0
 43
0.0
 44
1.0
 45
0.0
 46
0.0
 47
0.0
 48
0.0
140
3.0
141
0.0
142
0.0
143
25.399999999999999
144
1.0
145
0.0
146
1.0
147
1.0
 71
     0
 72
     0
 73
     0
 74
     0
 75
     0
 76
     0
 77
     1
 78
     8
170
     0
171
     2
172
     1
173
     0
174
     1
175
     0
176
     5
177
     5
178
     0
  0
DIMSTYLE
  2
STANDARD
 70
     0
  3

  4

  5

  6

  7

 40
1.0
 41
0.18
 42
0.0625
 43
0.38
 44
0.18
 45
0.0
 46
0.0
 47
0.0
 48
0.0
140
0.18
141
0.09
142
0.0
143
25.399999999999999
144
1.0
145
0.0
146
1.0
147
0.09
 71
     0
 72
     0
 73
     1
 74
     1
 75
     0
 76
     0
 77
     0
 78
     0
170
     0
171
     2
172
     0
173
     0
174
     0
175
     0
176
     0
177
     0
178
     0
  0
ENDTAB
  0
ENDSEC
  0
SECTION
  2
BLOCKS
  0
BLOCK
  8
0
  2
$MODEL_SPACE
 70
     0
 10
0.0
 20
0.0
 30
0.0
  3
$MODEL_SPACE
  1

  0
ENDBLK
  5
21
  8
0
  0
BLOCK
 67
     1
  8
0
  2
$PAPER_SPACE
 70
     0
 10
0.0
 20
0.0
 30
0.0
  3
$PAPER_SPACE
  1

  0
ENDBLK
  5
5B
 67
     1
  8
0
  0
BLOCK
  8
0
  2
EF10F
 70
     0
 10
0.0
 20
0.0
 30
0.0
  3
EF10F
  1

  0
LINE
  5
13F24
  8
HIDE
 10
21.5
 20
-25.0
 30
0.0
 11
21.5
 21
-1.0
 31
0.0
  0
LINE
  5
13F25
  8
HIDE
 10
30.5
 20
-25.0
 30
0.0
 11
30.5
 21
-1.0
 31
0.0
  0
CIRCLE
  5
13F26
  8
0
 10
0.0
 20
0.0
 30
0.0
 40
4.0
  0
LINE
  5
13F27
  8
HIDE
 10
-30.5
 20
-25.0
 30
0.0
 11
-30.5
 21
-1.0
 31
0.0
  0
LINE
  5
13F28
  8
HIDE
 10
-21.5
 20
-25.0
 30
0.0
 11
-21.5
 21
-1.0
 31
0.0
  0
LINE
  5
13F29
  8
0
 10
-15.999997999999771
 20
17.999995999999548
 30
0.0
 11
-17.99999600000001
 21
15.99999599999955
 31
0.0
  0
LINE
  5
13F2A
  8
CENTER
 10
-26.0
 20
-27.0
 30
0.0
 11
-26.0
 21
1.525786999999581
 31
0.0
  0
LINE
  5
13F2B
  8
0
 10
35.0
 20
-1.0
 30
0.0
 11
18.0
 21
-1.0
 31
0.0
  0
LINE
  5
13F2C
  8
0
 10
-18.0
 20
-1.0
 30
0.0
 11
-18.0
 21
16.0
 31
0.0
  0
LINE
  5
13F2D
  8
0
 10
-35.0
 20
-1.0
 30
0.0
 11
-18.0
 21
-1.0
 31
0.0
  0
LINE
  5
13F2E
  8
CENTER
 10
-21.634186000000231
 20
0.0
 30
0.0
 11
21.677208000000061
 21
0.0
 31
0.0
  0
LINE
  5
13F2F
  8
CENTER
 10
26.0
 20
-27.0
 30
0.0
 11
26.0
 21
1.525786999999581
 31
0.0
  0
LINE
  5
13F30
  8
CENTER
 10
0.0
 20
-27.0
 30
0.0
 11
0.0
 21
19.307915000000321
 31
0.0
  0
LINE
  5
13F31
  8
0
 10
16.000006000000209
 20
17.999993999999791
 30
0.0
 11
17.99999600000001
 21
16.000001999999771
 31
0.0
  0
LINE
  5
13F32
  8
0
 10
18.0
 20
-1.0
 30
0.0
 11
18.0
 21
16.0
 31
0.0
  0
LINE
  5
13F33
  8
0
 10
-16.0
 20
18.0
 30
0.0
 11
16.0
 21
18.0
 31
0.0
  0
LINE
  5
13F34
  8
0
 10
-35.0
 20
-25.0
 30
0.0
 11
-35.0
 21
-1.0
 31
0.0
  0
LINE
  5
13F35
  8
0
 10
35.0
 20
-25.0
 30
0.0
 11
35.0
 21
-1.0
 31
0.0
  0
LINE
  5
13F36
  8
0
 10
-35.0
 20
-25.0
 30
0.0
 11
35.0
 21
-25.0
 31
0.0
  0
CIRCLE
  5
13F37
  8
0
 10
0.0215109999999186
 20
0.0
 30
0.0
 40
10.99998471277285
  0
ENDBLK
  5
13F38
  8
0
  0
BLOCK
  8
0
  2
EF10S
 70
     0
 10
0.0
 20
0.0
 30
0.0
  3
EF10S
  1

  0
LINE
  5
13F3B
  8
0
 10
0.0
 20
-1.0
 30
0.0
 11
20.0
 21
-1.0
 31
0.0
  0
LINE
  5
13F3C
  8
0
 10
0.0
 20
16.000004000000441
 30
0.0
 11
20.0
 21
16.000004000000441
 31
0.0
  0
LINE
  5
13F3D
  8
CENTER
 10
-2.258788999999978
 20
0.0
 30
0.0
 11
22.422247999999861
 21
0.0
 31
0.0
  0
LINE
  5
13F3E
  8
0
 10
0.0
 20
-25.0
 30
0.0
 11
0.0
 21
18.0
 31
0.0
  0
LINE
  5
13F3F
  8
0
 10
20.0
 20
-25.0
 30
0.0
 11
20.0
 21
18.0
 31
0.0
  0
LINE
  5
13F40
  8
0
 10
0.0
 20
18.0
 30
0.0
 11
20.0
 21
18.0
 31
0.0
  0
LINE
  5
13F41
  8
0
 10
0.0
 20
-25.0
 30
0.0
 11
20.0
 21
-25.0
 31
0.0
  0
LINE
  5
13F42
  8
HIDE
 10
7.0
 20
-10.5
 30
0.0
 11
7.0
 21
0.0
 31
0.0
  0
LINE
  5
13F43
  8
HIDE
 10
6.4526999999998216
 20
-4.9375
 30
0.0
 11
6.4526999999998216
 21
-9.875
 31
0.0
  0
LINE
  5
13F44
  8
HIDE
 10
6.5527099999999328
 20
-4.9375
 30
0.0
 11
6.5527099999999328
 21
-9.875
 31
0.0
  0
LINE
  5
13F45
  8
HIDE
 10
0.0
 20
0.0
 30
0.0
 11
0.0
 21
-10.5
 31
0.0
  0
LINE
  5
13F46
  8
HIDE
 10
0.5473200000001272
 20
-4.9375
 30
0.0
 11
0.5473200000001272
 21
-9.875
 31
0.0
  0
LINE
  5
13F47
  8
HIDE
 10
0.647309999999834
 20
-4.9375
 30
0.0
 11
0.647309999999834
 21
-9.875
 31
0.0
  0
LINE
  5
13F48
  8
HIDE
 10
0.5
 20
-11.0
 30
0.0
 11
6.5
 21
-11.0
 31
0.0
  0
ARC
  5
13F49
  8
HIDE
 10
0.9107699999999567
 20
-10.08922999999959
 30
0.0
 40
0.9990969999999999
 50
204.27561999999
 51
245.72432000000441
  0
ARC
  5
13F4A
  8
HIDE
 10
6.0892499999999918
 20
-10.08922999999959
 30
0.0
 40
0.9990969999999999
 50
294.27565999999018
 51
335.72438000001
  0
LINE
  5
13F4B
  8
HIDE
 10
7.0
 20
0.0
 30
0.0
 11
7.0
 21
10.5
 31
0.0
  0
LINE
  5
13F4C
  8
HIDE
 10
0.0
 20
10.5
 30
0.0
 11
0.0
 21
0.0
 31
0.0
  0
LINE
  5
13F4D
  8
HIDE
 10
6.5
 20
-4.0
 30
0.0
 11
0.5
 21
-4.0
 31
0.0
  0
CIRCLE
  5
13F4E
  8
HIDE
 10
3.5
 20
-7.5
 30
0.0
 40
1.984499
  0
LINE
  5
13F4F
  8
HIDE
 10
2.1892299999999518
 20
-8.9899900000000343
 30
0.0
 11
0.5473200000001272
 21
-8.9899900000000343
 31
0.0
  0
LINE
  5
13F50
  8
HIDE
 10
0.5473200000001272
 20
-9.5
 30
0.0
 11
0.0
 21
-9.5
 31
0.0
  0
LINE
  5
13F51
  8
HIDE
 10
0.5473200000001272
 20
-8.9899900000000343
 30
0.0
 11
0.5473200000001272
 21
-9.5
 31
0.0
  0
LINE
  5
13F52
  8
HIDE
 10
0.5310100000001512
 20
-6.0699899999999607
 30
0.0
 11
2.124029999999947
 21
-6.0699899999999607
 31
0.0
  0
ARC
  5
13F53
  8
HIDE
 10
0.9107699999999567
 20
-4.9115400000000591
 30
0.0
 40
0.9998249999999999
 50
114.2568299999851
 51
155.682630000004
  0
LINE
  5
13F54
  8
HIDE
 10
0.0000199999999495
 20
-5.25
 30
0.0
 11
0.5310100000001512
 21
-5.25
 31
0.0
  0
LINE
  5
13F55
  8
HIDE
 10
0.5310100000001512
 20
-5.25
 30
0.0
 11
0.5310100000001512
 21
-6.0699899999999607
 31
0.0
  0
LINE
  5
13F56
  8
HIDE
 10
6.4526999999998216
 20
-8.9899900000000343
 30
0.0
 11
4.8107899999999972
 21
-8.9899900000000343
 31
0.0
  0
LINE
  5
13F57
  8
HIDE
 10
7.0
 20
-9.5
 30
0.0
 11
6.4526999999998216
 21
-9.5
 31
0.0
  0
LINE
  5
13F58
  8
HIDE
 10
6.4526999999998216
 20
-9.4999799999995957
 30
0.0
 11
6.4526999999998216
 21
-8.9899900000000343
 31
0.0
  0
ARC
  5
13F59
  8
HIDE
 10
6.0892499999999918
 20
-4.9115400000000591
 30
0.0
 40
0.999425
 50
24.317379000015599
 51
65.743194000000173
  0
LINE
  5
13F5A
  8
HIDE
 10
6.4690099999997983
 20
-5.25
 30
0.0
 11
7.0
 21
-5.25
 31
0.0
  0
LINE
  5
13F5B
  8
HIDE
 10
6.4690099999997983
 20
-6.0699899999999607
 30
0.0
 11
4.8759999999997481
 21
-6.0699899999999607
 31
0.0
  0
LINE
  5
13F5C
  8
HIDE
 10
6.4690099999997983
 20
-6.0699899999999607
 30
0.0
 11
6.4690099999997983
 21
-5.25
 31
0.0
  0
CIRCLE
  5
13F5D
  8
HIDE
 10
3.5
 20
7.5
 30
0.0
 40
1.984499
  0
LINE
  5
13F5E
  8
HIDE
 10
0.5473200000001272
 20
9.875
 30
0.0
 11
0.5473200000001272
 21
4.9375
 31
0.0
  0
LINE
  5
13F5F
  8
HIDE
 10
0.647309999999834
 20
9.875
 30
0.0
 11
0.647309999999834
 21
4.9375
 31
0.0
  0
LINE
  5
13F60
  8
HIDE
 10
6.4526999999998216
 20
9.875
 30
0.0
 11
6.4526999999998216
 21
4.9375
 31
0.0
  0
LINE
  5
13F61
  8
HIDE
 10
6.5527099999999328
 20
9.875
 30
0.0
 11
6.5527099999999328
 21
4.9375
 31
0.0
  0
LINE
  5
13F62
  8
HIDE
 10
0.5
 20
4.0
 30
0.0
 11
6.5
 21
4.0
 31
0.0
  0
LINE
  5
13F63
  8
HIDE
 10
0.5310100000001512
 20
6.0700100000003649
 30
0.0
 11
0.5310100000001512
 21
5.25
 31
0.0
  0
LINE
  5
13F64
  8
HIDE
 10
0.5310100000001512
 20
5.25
 30
0.0
 11
0.0000199999999495
 21
5.25
 31
0.0
  0
LINE
  5
13F65
  8
HIDE
 10
0.0
 20
5.25
 30
0.0
 11
0.0
 21
4.5
 31
0.0
  0
ARC
  5
13F66
  8
HIDE
 10
0.9107699999999567
 20
4.9115600000004633
 30
0.0
 40
0.999425
 50
204.317369999996
 51
245.74317000001491
  0
LINE
  5
13F67
  8
HIDE
 10
2.124029999999947
 20
6.0700100000003649
 30
0.0
 11
0.5310100000001512
 21
6.0700100000003649
 31
0.0
  0
LINE
  5
13F68
  8
HIDE
 10
6.4690099999997983
 20
5.25
 30
0.0
 11
6.4690099999997983
 21
6.0700100000003649
 31
0.0
  0
ARC
  5
13F69
  8
HIDE
 10
6.0892499999999918
 20
4.9115600000004633
 30
0.0
 40
0.9998249999999999
 50
294.25681000000668
 51
335.68262000001567
  0
LINE
  5
13F6A
  8
HIDE
 10
7.0
 20
4.5
 30
0.0
 11
7.0
 21
5.25
 31
0.0
  0
LINE
  5
13F6B
  8
HIDE
 10
7.0
 20
5.25
 30
0.0
 11
6.4690099999997983
 21
5.25
 31
0.0
  0
LINE
  5
13F6C
  8
HIDE
 10
4.8759999999997481
 20
6.0700100000003649
 30
0.0
 11
6.4690099999997983
 21
6.0700100000003649
 31
0.0
  0
LINE
  5
13F6D
  8
HIDE
 10
6.5
 20
11.0
 30
0.0
 11
0.5
 21
11.0
 31
0.0
  0
LINE
  5
13F6E
  8
HIDE
 10
0.5473200000001272
 20
8.9900100000004386
 30
0.0
 11
2.1892299999999518
 21
8.9900100000004386
 31
0.0
  0
ARC
  5
13F6F
  8
HIDE
 10
0.9107699999999567
 20
10.089249999999989
 30
0.0
 40
0.9990969999999999
 50
114.2756799999956
 51
155.72438000000989
  0
LINE
  5
13F70
  8
HIDE
 10
0.0
 20
10.5
 30
0.0
 11
0.0
 21
9.5
 31
0.0
  0
LINE
  5
13F71
  8
HIDE
 10
0.0
 20
9.5
 30
0.0
 11
0.5473200000001272
 21
9.5
 31
0.0
  0
LINE
  5
13F72
  8
HIDE
 10
0.5473200000001272
 20
9.5
 30
0.0
 11
0.5473200000001272
 21
8.9900100000004386
 31
0.0
  0
LINE
  5
13F73
  8
HIDE
 10
6.4526999999998216
 20
8.9900100000004386
 30
0.0
 11
6.4526999999998216
 21
9.5
 31
0.0
  0
LINE
  5
13F74
  8
HIDE
 10
6.4526999999998216
 20
9.5
 30
0.0
 11
7.0
 21
9.5
 31
0.0
  0
LINE
  5
13F75
  8
HIDE
 10
7.0
 20
9.5
 30
0.0
 11
7.0
 21
10.5
 31
0.0
  0
ARC
  5
13F76
  8
HIDE
 10
6.0892499999999918
 20
10.089249999999989
 30
0.0
 40
0.9990969999999999
 50
24.27561600000012
 51
65.724342000004754
  0
LINE
  5
13F77
  8
HIDE
 10
4.8107899999999972
 20
8.9900100000004386
 30
0.0
 11
6.4526999999998216
 21
8.9900100000004386
 31
0.0
  0
LINE
  5
13F78
  8
HIDE
 10
20.0
 20
-10.99998471277285
 30
0.0
 11
0.0
 21
-10.99998471277285
 31
0.0
  0
LINE
  5
13F79
  8
HIDE
 10
20.0
 20
11.0
 30
0.0
 11
0.0
 21
11.0
 31
0.0
  0
LINE
  5
13F7A
  8
CENTER
 10
10.0
 20
-31.981126075619621
 30
0.0
 11
10.0
 21
-18.340357026498172
 31
0.0
  0
ENDBLK
  5
13F7B
  8
0
  0
BLOCK
  8
0
  2
EF10U
 70
     0
 10
0.0
 20
0.0
 30
0.0
  3
EF10U
  1

  0
CIRCLE
  5
13F7E
  8
0
 10
26.0
 20
10.0
 30
0.0
 40
4.5
  0
CIRCLE
  5
13F7F
  8
0
 10
-26.0
 20
10.0
 30
0.0
 40
4.5
  0
LINE
  5
13F80
  8
0
 10
16.0
 20
0.0
 30
0.0
 11
16.0
 21
20.0
 31
0.0
  0
LINE
  5
13F81
  8
0
 10
-16.0
 20
0.0
 30
0.0
 11
-16.0
 21
20.0
 31
0.0
  0
LINE
  5
13F82
  8
CENTER
 10
-26.0
 20
16.26999700000033
 30
0.0
 11
-26.0
 21
3.7300029999996691
 31
0.0
  0
LINE
  5
13F83
  8
CENTER
 10
-32.270003999999972
 20
10.0
 30
0.0
 11
-19.729996000000028
 21
10.0
 31
0.0
  0
LINE
  5
13F84
  8
CENTER
 10
26.0
 20
16.26999700000033
 30
0.0
 11
26.0
 21
3.7300029999996691
 31
0.0
  0
LINE
  5
13F85
  8
CENTER
 10
19.730003000000121
 20
10.0
 30
0.0
 11
32.269996999999883
 21
10.0
 31
0.0
  0
LINE
  5
13F86
  8
0
 10
-18.0
 20
0.0
 30
0.0
 11
-18.0
 21
20.0
 31
0.0
  0
LINE
  5
13F87
  8
0
 10
18.0
 20
0.0
 30
0.0
 11
18.0
 21
20.0
 31
0.0
  0
LINE
  5
13F88
  8
CENTER
 10
0.0
 20
-1.848831000000245
 30
0.0
 11
0.0
 21
21.52515399999993
 31
0.0
  0
LINE
  5
13F89
  8
0
 10
-35.0
 20
20.0
 30
0.0
 11
35.0
 21
20.0
 31
0.0
  0
LINE
  5
13F8A
  8
0
 10
-35.0
 20
0.0
 30
0.0
 11
35.0
 21
0.0
 31
0.0
  0
LINE
  5
13F8B
  8
0
 10
35.0
 20
0.0
 30
0.0
 11
35.0
 21
20.0
 31
0.0
  0
LINE
  5
13F8C
  8
0
 10
-35.0
 20
0.0
 30
0.0
 11
-35.0
 21
20.0
 31
0.0
  0
ENDBLK
  5
13F8D
  8
0
  0
ENDSEC
  0
SECTION
  2
ENTITIES
  0
POLYLINE
  5
13E1C
  8
0
 66
     1
 10
0.0
 20
0.0
 30
0.0
 70
     1
  0
VERTEX
  5
13FB6
  8
0
 10
1903.0405749290021
 20
1433.173578249188
 30
0.0
  0
VERTEX
  5
13FB7
  8
0
 10
1903.0405749290021
 20
1748.173578249188
 30
0.0
  0
VERTEX
  5
13FB8
  8
0
 10
2348.540574929003
 20
1748.173578249188
 30
0.0
  0
VERTEX
  5
13FB9
  8
0
 10
2348.540574929003
 20
1433.173578249188
 30
0.0
  0
VERTEX
  5
13FBA
  8
0
 10
1903.0405749290021
 20
1433.173578249188
 30
0.0
  0
SEQEND
  5
13FBB
  8
0
  0
TEXT
  5
13F9C
  8
0
 10
2080.1751852000848
 20
1475.6667347035259
 30
0.0
 40
20.0
  1
EF 10
  7
BIG
  0
INSERT
  5
13F9D
  8
0
  2
EF10F
 10
2119.9781711424648
 20
1616.94461542101
 30
0.0
  0
INSERT
  5
13F9E
  8
0
  2
EF10S
 10
2174.069747142466
 20
1616.94461542101
 30
0.0
  0
INSERT
  5
13F9F
  8
0
  2
EF10U
 10
2119.9781711424648
 20
1657.6749544210099
 30
0.0
  0
ENDSEC
  0
EOF
