  0
SECTION
  2
HEADER
  9
$ACADVER
  1
AC1009
  9
$INSBASE
 10
0.0
 20
0.0
 30
0.0
  9
$EXTMIN
 10
1903.0405749290021
 20
1433.173578249188
 30
0.0
  9
$EXTMAX
 10
2348.540574929003
 20
1748.173578249188
 30
0.0
  9
$LIMMIN
 10
0.0
 20
0.0
  9
$LIMMAX
 10
12.0
 20
9.0
  9
$ORTHOMODE
 70
     1
  9
$REGENMODE
 70
     1
  9
$FILLMODE
 70
     1
  9
$QTEXTMODE
 70
     0
  9
$MIRRTEXT
 70
     0
  9
$DRAGMODE
 70
     2
  9
$LTSCALE
 40
5.0
  9
$OSMODE
 70
  2239
  9
$ATTMODE
 70
     1
  9
$TEXTSIZE
 40
2.5
  9
$TRACEWID
 40
0.05
  9
$TEXTSTYLE
  7
BIG
  9
$CLAYER
  8
0
  9
$CELTYPE
  6
BYLAYER
  9
$CECOLOR
 62
   256
  9
$DIMSCALE
 40
1.0
  9
$DIMASZ
 40
3.0
  9
$DIMEXO
 40
1.0
  9
$DIMDLI
 40
0.0
  9
$DIMRND
 40
0.0
  9
$DIMDLE
 40
0.0
  9
$DIMEXE
 40
1.0
  9
$DIMTP
 40
0.0
  9
$DIMTM
 40
0.0
  9
$DIMTXT
 40
3.0
  9
$DIMCEN
 40
0.0
  9
$DIMTSZ
 40
0.0
  9
$DIMTOL
 70
     0
  9
$DIMLIM
 70
     0
  9
$DIMTIH
 70
     0
  9
$DIMTOH
 70
     0
  9
$DIMSE1
 70
     0
  9
$DIMSE2
 70
     0
  9
$DIMTAD
 70
     1
  9
$DIMZIN
 70
     8
  9
$DIMBLK
  1

  9
$DIMASO
 70
     1
  9
$DIMSHO
 70
     1
  9
$DIMPOST
  1

  9
$DIMAPOST
  1

  9
$DIMALT
 70
     0
  9
$DIMALTD
 70
     2
  9
$DIMALTF
 40
25.399999999999999
  9
$DIMLFAC
 40
1.0
  9
$DIMTOFL
 70
     1
  9
$DIMTVP
 40
0.0
  9
$DIMTIX
 70
     1
  9
$DIMSOXD
 70
     0
  9
$DIMSAH
 70
     0
  9
$DIMBLK1
  1

  9
$DIMBLK2
  1

  9
$DIMSTYLE
  2
DUKITEC
  9
$DIMCLRD
 70
     5
  9
$DIMCLRE
 70
     5
  9
$DIMCLRT
 70
     0
  9
$DIMTFAC
 40
1.0
  9
$DIMGAP
 40
1.0
  9
$LUNITS
 70
     2
  9
$LUPREC
 70
     4
  9
$SKETCHINC
 40
0.1
  9
$FILLETRAD
 40
0.2
  9
$AUNITS
 70
     0
  9
$AUPREC
 70
     0
  9
$MENU
  1
.
  9
$ELEVATION
 40
0.0
  9
$PELEVATION
 40
0.0
  9
$THICKNESS
 40
0.0
  9
$LIMCHECK
 70
     0
  9
$BLIPMODE
 70
     0
  9
$CHAMFERA
 40
0.5
  9
$CHAMFERB
 40
0.5
  9
$SKPOLY
 70
     0
  9
$TDCREATE
 40
2454396.7053631372
  9
$TDUPDATE
 40
2456630.6271657408
  9
$TDINDWG
 40
0.0023932639
  9
$TDUSRTIMER
 40
0.0023932176
  9
$USRTIMER
 70
     1
  9
$ANGBASE
 50
0.0
  9
$ANGDIR
 70
     0
  9
$PDMODE
 70
     0
  9
$PDSIZE
 40
0.0
  9
$PLINEWID
 40
0.0
  9
$COORDS
 70
     1
  9
$SPLFRAME
 70
     0
  9
$SPLINETYPE
 70
     6
  9
$SPLINESEGS
 70
     8
  9
$ATTDIA
 70
     0
  9
$ATTREQ
 70
     1
  9
$HANDLING
 70
     1
  9
$HANDSEED
  5
14387
  9
$SURFTAB1
 70
     6
  9
$SURFTAB2
 70
     6
  9
$SURFTYPE
 70
     6
  9
$SURFU
 70
     6
  9
$SURFV
 70
     6
  9
$UCSNAME
  2

  9
$UCSORG
 10
0.0
 20
0.0
 30
0.0
  9
$UCSXDIR
 10
1.0
 20
0.0
 30
0.0
  9
$UCSYDIR
 10
0.0
 20
1.0
 30
0.0
  9
$PUCSNAME
  2

  9
$PUCSORG
 10
0.0
 20
0.0
 30
0.0
  9
$PUCSXDIR
 10
1.0
 20
0.0
 30
0.0
  9
$PUCSYDIR
 10
0.0
 20
1.0
 30
0.0
  9
$USERI1
 70
     0
  9
$USERI2
 70
     0
  9
$USERI3
 70
     0
  9
$USERI4
 70
     0
  9
$USERI5
 70
     0
  9
$USERR1
 40
0.0
  9
$USERR2
 40
0.0
  9
$USERR3
 40
0.0
  9
$USERR4
 40
0.0
  9
$USERR5
 40
0.0
  9
$WORLDVIEW
 70
     1
  9
$SHADEDGE
 70
     3
  9
$SHADEDIF
 70
    70
  9
$TILEMODE
 70
     1
  9
$MAXACTVP
 70
    64
  9
$PLIMCHECK
 70
     0
  9
$PEXTMIN
 10
0.0
 20
0.0
 30
0.0
  9
$PEXTMAX
 10
0.0
 20
0.0
 30
0.0
  9
$PLIMMIN
 10
0.0
 20
0.0
  9
$PLIMMAX
 10
12.0
 20
9.0
  9
$UNITMODE
 70
     0
  9
$VISRETAIN
 70
     1
  9
$PLINEGEN
 70
     0
  9
$PSLTSCALE
 70
     1
  0
ENDSEC
  0
SECTION
  2
TABLES
  0
TABLE
  2
VPORT
 70
     1
  0
VPORT
  2
*ACTIVE
 70
     0
 10
0.0
 20
0.0
 11
1.0
 21
1.0
 12
2101.1749873450949
 22
1576.9384714307289
 13
0.0
 23
0.0
 14
0.5
 24
0.5
 15
0.5
 25
0.5
 16
0.0
 26
0.0
 36
1.0
 17
0.0
 27
0.0
 37
0.0
 40
195.95770427164999
 41
2.1408934707903771
 42
50.0
 43
0.0
 44
0.0
 50
0.0
 51
0.0
 71
     0
 72
  2000
 73
     1
 74
     3
 75
     0
 76
     0
 77
     0
 78
     0
  0
ENDTAB
  0
TABLE
  2
LTYPE
 70
     5
  0
LTYPE
  2
CONTINUOUS
 70
     0
  3
Solid line
 72
    65
 73
     0
 40
0.0
  0
LTYPE
  2
PHANTOM2
 70
     0
  3
Phantom (.5x) ___ _ _ ___ _ _ ___ _ _ ___ _ _
 72
    65
 73
     6
 40
1.25
 49
0.625
 49
-0.125
 49
0.125
 49
-0.125
 49
0.125
 49
-0.125
  0
LTYPE
  2
CENTER
 70
     0
  3
___ _ ___ _ ___ _ ___ _ ___ _ ___ _ ___ _ ___ _
 72
    65
 73
     4
 40
0.95
 49
0.625
 49
-0.125
 49
0.075
 49
-0.125
  0
LTYPE
  2
DASHED2
 70
     0
  3
Dashed (.5x) _ _ _ _ _ _ _ _ _ _ _ _ _ _ _ _ _
 72
    65
 73
     2
 40
0.375
 49
0.25
 49
-0.125
  0
ENDTAB
  0
TABLE
  2
LAYER
 70
     4
  0
LAYER
  2
0
 70
     0
 62
     7
  6
CONTINUOUS
  0
LAYER
  2
HIDE
 70
     0
 62
     1
  6
DASHED2
  0
LAYER
  2
CENTER
 70
     0
 62
     3
  6
CENTER
  0
ENDTAB
  0
TABLE
  2
STYLE
 70
     3
  0
STYLE
  2
STANDARD
 70
     0
 40
5.0
 41
1.0
 50
0.0
 71
     0
 42
5.0
  3
txt.shx
  4
whgtxt.shx
  0
STYLE
  2
BIG
 70
     0
 40
20.0
 41
1.0
 50
0.0
 71
     0
 42
2.5
  3
txt
  4

  0
ENDTAB
  0
TABLE
  2
VIEW
 70
     0
  0
ENDTAB
  0
TABLE
  2
UCS
 70
     0
  0
ENDTAB
  0
TABLE
  2
APPID
 70
    11
  0
APPID
  2
ACAD
 70
     0
  0
APPID
  2
ACADANNOTATIVE
 70
     0
  0
APPID
  2
ACAD_EXEMPT_FROM_CAD_STANDARDS
 70
     0
  0
APPID
  2
ACAD_DSTYLE_DIMJOGGED_JOGA
 70
     0
  0
APPID
  2
ACAD_PSEXT
 70
     0
  0
APPID
  2
ACAECLAYERSTANDARD
 70
     0
  0
APPID
  2
DCO15
 70
     0
  0
APPID
  2
CONTENTBLOCKICON
 70
     0
  0
APPID
  2
ACAD_NAV_VCDISPLAY
 70
     0
  0
APPID
  2
ACAD_DSTYLE_DIMRADIAL_EXTENSION
 70
     0
  0
APPID
  2
ACAD_MLEADERVER
 70
     0
  0
ENDTAB
  0
TABLE
  2
DIMSTYLE
 70
     4
  0
DIMSTYLE
  2
DUKITEC
 70
     0
  3

  4

  5

  6

  7

 40
1.0
 41
3.0
 42
1.0
 43
0.0
 44
1.0
 45
0.0
 46
0.0
 47
0.0
 48
0.0
140
3.0
141
0.0
142
0.0
143
25.399999999999999
144
1.0
145
0.0
146
1.0
147
1.0
 71
     0
 72
     0
 73
     0
 74
     0
 75
     0
 76
     0
 77
     1
 78
     8
170
     0
171
     2
172
     1
173
     0
174
     1
175
     0
176
     5
177
     5
178
     0
  0
ENDTAB
  0
ENDSEC
  0
SECTION
  2
BLOCKS
  0
BLOCK
  8
0
  2
$MODEL_SPACE
 70
     0
 10
0.0
 20
0.0
 30
0.0
  3
$MODEL_SPACE
  1

  0
ENDBLK
  5
140B2
  8
0
  0
BLOCK
 67
     1
  8
0
  2
$PAPER_SPACE
 70
     0
 10
0.0
 20
0.0
 30
0.0
  3
$PAPER_SPACE
  1

  0
ENDBLK
  5
140AE
 67
     1
  8
0
  0
ENDSEC
  0
SECTION
  2
ENTITIES
  0
POLYLINE
  5
13E1C
  8
0
 66
     1
 10
0.0
 20
0.0
 30
0.0
 70
     1
  0
VERTEX
  5
1432A
  8
0
 10
1928.4659959728369
 20
1481.95304365584
 30
0.0
  0
VERTEX
  5
1432B
  8
0
 10
1928.4659959728369
 20
1702.45304365584
 30
0.0
  0
VERTEX
  5
1432C
  8
0
 10
2240.3159959728382
 20
1702.45304365584
 30
0.0
  0
VERTEX
  5
1432D
  8
0
 10
2240.3159959728382
 20
1481.95304365584
 30
0.0
  0
VERTEX
  5
1432E
  8
0
 10
1928.4659959728369
 20
1481.95304365584
 30
0.0
  0
SEQEND
  5
1432F
  8
0
  0
TEXT
  5
14012
  8
0
 10
2048.8896702296711
 20
1511.809431295319
 30
0.0
 40
20.0
  1
EK 12
  7
BIG
  0
ARC
  5
14117
  8
CENTER
 10
2059.082539640307
 20
1576.929857848274
 30
0.0
 40
17.0
 50
119.4810775055881
 51
150.67110791968111
  0
ARC
  5
14118
  8
CENTER
 10
2059.082539640307
 20
1576.929857848274
 30
0.0
 40
17.0
 50
31.120499175417208
 51
60.098043755689183
  0
ARC
  5
14119
  8
CENTER
 10
2059.082539640307
 20
1576.929857848274
 30
0.0
 40
17.0
 50
300.61809696235059
 51
330.15465030819502
  0
CIRCLE
  5
1411A
  8
0
 10
2059.082539640307
 20
1576.929857848274
 30
0.0
 40
12.5
  0
CIRCLE
  5
1411B
  8
0
 10
2071.1032916403069
 20
1588.9506178482741
 30
0.0
 40
3.25
  0
CIRCLE
  5
1411C
  8
0
 10
2047.0617876403071
 20
1564.9091058482741
 30
0.0
 40
3.25
  0
CIRCLE
  5
1411D
  8
0
 10
2047.0617876403071
 20
1588.9506178482741
 30
0.0
 40
3.25
  0
ARC
  5
1411E
  8
0
 10
2059.082539640307
 20
1576.929857848274
 30
0.0
 40
21.75
 50
308.59184999998422
 51
321.40816000000387
  0
ARC
  5
1411F
  8
0
 10
2059.082539640307
 20
1576.929857848274
 30
0.0
 40
21.75
 50
218.59185999998849
 51
231.40819000001321
  0
ARC
  5
14120
  8
0
 10
2059.082539640307
 20
1576.929857848274
 30
0.0
 40
21.75
 50
128.5918599999884
 51
141.4081400000114
  0
ARC
  5
14121
  8
0
 10
2059.082539640307
 20
1576.929857848274
 30
0.0
 40
21.75
 50
38.59184899998634
 51
51.408150000015773
  0
CIRCLE
  5
14122
  8
0
 10
2071.1032916403069
 20
1564.9090448482741
 30
0.0
 40
3.25
  0
ARC
  5
14123
  8
CENTER
 10
2059.082539640307
 20
1576.929857848274
 30
0.0
 40
17.0
 50
211.00408891408509
 51
240.35700389321161
  0
LINE
  5
14124
  8
CENTER
 10
2044.1861227212901
 20
1562.0335189292571
 30
0.0
 11
2049.962196640307
 21
1567.809592848274
 31
0.0
  0
LINE
  5
14125
  8
CENTER
 10
2043.7181296403071
 20
1592.2942868482739
 30
0.0
 11
2050.1081146403071
 21
1585.904300848274
 31
0.0
  0
LINE
  5
14126
  8
0
 10
2048.2865306403069
 20
1563.6841918482739
 30
0.0
 11
2048.7348516403072
 21
1565.357347848274
 31
0.0
  0
LINE
  5
14127
  8
0
 10
2045.3887526403071
 20
1564.4606498482731
 30
0.0
 11
2045.837074640307
 21
1566.1338048482739
 31
0.0
  0
LINE
  5
14128
  8
0
 10
2048.7349886403072
 20
1565.357376848274
 30
0.0
 11
2047.510153640307
 21
1566.582211848274
 31
0.0
  0
LINE
  5
14129
  8
0
 10
2046.6136676403071
 20
1563.2360568482729
 30
0.0
 11
2045.3888326403071
 21
1564.4608918482741
 31
0.0
  0
LINE
  5
1412A
  8
0
 10
2046.613429640307
 20
1563.236025848274
 30
0.0
 11
2048.2865836403071
 21
1563.6843458482731
 31
0.0
  0
LINE
  5
1412B
  8
0
 10
2045.836971640307
 20
1566.1338038482729
 30
0.0
 11
2047.5100676403069
 21
1566.5821078482741
 31
0.0
  0
LINE
  5
1412C
  8
0
 10
2072.3281286403071
 20
1566.1338618482739
 30
0.0
 11
2070.6549726403068
 21
1566.582182848274
 31
0.0
  0
LINE
  5
1412D
  8
0
 10
2071.5516706403068
 20
1563.236084848274
 30
0.0
 11
2069.8785166403072
 21
1563.6844048482731
 31
0.0
  0
LINE
  5
1412E
  8
0
 10
2070.6551256403068
 20
1566.5822108482739
 30
0.0
 11
2069.4302906403068
 21
1565.357376848274
 31
0.0
  0
LINE
  5
1412F
  8
0
 10
2072.776445640307
 20
1564.4608918482741
 30
0.0
 11
2071.551610640307
 21
1563.2360568482729
 31
0.0
  0
LINE
  5
14130
  8
0
 10
2072.7763896403071
 20
1564.4607268482739
 30
0.0
 11
2072.3280676403069
 21
1566.133882848274
 31
0.0
  0
LINE
  5
14131
  8
0
 10
2069.8786116403071
 20
1563.6842708482741
 30
0.0
 11
2069.430300640307
 21
1565.357388848274
 31
0.0
  0
LINE
  5
14132
  8
0
 10
2069.8784576403068
 20
1590.1754598482739
 30
0.0
 11
2069.4301376403068
 21
1588.5023048482731
 31
0.0
  0
LINE
  5
14133
  8
0
 10
2072.7762356403068
 20
1589.399002848274
 30
0.0
 11
2072.3279156403069
 21
1587.7258468482739
 31
0.0
  0
LINE
  5
14134
  8
0
 10
2069.4302916403071
 20
1588.502349848274
 30
0.0
 11
2070.6551256403068
 21
1587.277514848274
 31
0.0
  0
LINE
  5
14135
  8
0
 10
2071.551610640307
 20
1590.6236688482741
 30
0.0
 11
2072.7764466403069
 21
1589.398834848274
 31
0.0
  0
LINE
  5
14136
  8
0
 10
2071.5516906403068
 20
1590.6236728482741
 30
0.0
 11
2069.8785356403068
 21
1590.1753528482741
 31
0.0
  0
LINE
  5
14137
  8
0
 10
2072.3281476403072
 20
1587.725896848274
 30
0.0
 11
2070.655021640307
 21
1587.2775838482739
 31
0.0
  0
LINE
  5
14138
  8
0
 10
2045.8368606403069
 20
1587.725789848274
 30
0.0
 11
2047.5100156403071
 21
1587.277467848274
 31
0.0
  0
LINE
  5
14139
  8
0
 10
2046.6133176403071
 20
1590.6235668482741
 30
0.0
 11
2048.2864726403068
 21
1590.175245848274
 31
0.0
  0
LINE
  5
1413A
  8
0
 10
2047.5101526403071
 20
1587.2775138482741
 30
0.0
 11
2048.7349876403068
 21
1588.502349848274
 31
0.0
  0
LINE
  5
1413B
  8
0
 10
2045.3888326403071
 20
1589.398834848274
 30
0.0
 11
2046.6136676403071
 21
1590.6236688482741
 31
0.0
  0
LINE
  5
1413C
  8
0
 10
2045.388729640307
 20
1589.3989708482741
 30
0.0
 11
2045.837051640307
 21
1587.7258158482739
 31
0.0
  0
LINE
  5
1413D
  8
0
 10
2048.2865076403068
 20
1590.175427848274
 30
0.0
 11
2048.7348146403069
 21
1588.5023248482739
 31
0.0
  0
LINE
  5
1413E
  8
0
 10
2076.082539640307
 20
1563.362886848274
 30
0.0
 11
2076.082539640307
 21
1590.4968288482739
 31
0.0
  0
LINE
  5
1413F
  8
0
 10
2042.082539640307
 20
1563.362886848274
 30
0.0
 11
2042.082539640307
 21
1590.4968288482739
 31
0.0
  0
LINE
  5
14140
  8
0
 10
2045.5156446403071
 20
1559.929857848274
 30
0.0
 11
2072.6494346403069
 21
1559.929857848274
 31
0.0
  0
LINE
  5
14141
  8
0
 10
2045.5156446403071
 20
1593.9298658482739
 30
0.0
 11
2072.6494346403069
 21
1593.9298658482739
 31
0.0
  0
LINE
  5
14142
  8
CENTER
 10
2068.1551776403071
 20
1586.002572848274
 30
0.0
 11
2074.3453176403068
 21
1592.192713848274
 31
0.0
  0
LINE
  5
14143
  8
CENTER
 10
2068.150126640307
 20
1567.8622888482739
 30
0.0
 11
2074.1327123167989
 21
1561.879704126862
 31
0.0
  0
ARC
  5
14144
  8
0
 10
2059.082539640307
 20
1576.929857848274
 30
0.0
 40
11.0
 50
165.27264131893429
 51
194.7273586810656
  0
ARC
  5
14145
  8
0
 10
2059.082539640307
 20
1576.929857848274
 30
0.0
 40
11.0
 50
255.27264131888029
 51
284.72735868111971
  0
ARC
  5
14146
  8
0
 10
2059.082539640307
 20
1576.929857848274
 30
0.0
 40
11.0
 50
345.27264131893429
 51
14.72735868106567
  0
ARC
  5
14147
  8
0
 10
2059.082539640307
 20
1576.929857848274
 30
0.0
 40
11.0
 50
75.272641318880233
 51
104.7273586811197
  0
POLYLINE
  5
14148
  8
0
 66
     1
 10
0.0
 20
0.0
 30
0.0
  0
VERTEX
  5
14378
  8
0
 10
2056.2861220043742
 20
1587.568469054886
 30
0.0
  0
VERTEX
  5
14379
  8
0
 10
2048.443928433695
 20
1579.726275484205
 30
0.0
  0
SEQEND
  5
1437A
  8
0
  0
POLYLINE
  5
14149
  8
0
 66
     1
 10
0.0
 20
0.0
 30
0.0
  0
VERTEX
  5
1437B
  8
0
 10
2048.443928433695
 20
1574.1334402123409
 30
0.0
  0
VERTEX
  5
1437C
  8
0
 10
2056.2861220043742
 20
1566.2912466416619
 30
0.0
  0
SEQEND
  5
1437D
  8
0
  0
POLYLINE
  5
1414A
  8
0
 66
     1
 10
0.0
 20
0.0
 30
0.0
  0
VERTEX
  5
1437E
  8
0
 10
2061.8789572762398
 20
1566.2912466416601
 30
0.0
  0
VERTEX
  5
1437F
  8
0
 10
2069.721150846919
 20
1574.1334402123409
 30
0.0
  0
SEQEND
  5
14380
  8
0
  0
POLYLINE
  5
1414B
  8
0
 66
     1
 10
0.0
 20
0.0
 30
0.0
  0
VERTEX
  5
14381
  8
0
 10
2069.721150846919
 20
1579.726275484205
 30
0.0
  0
VERTEX
  5
14382
  8
0
 10
2061.8789572762398
 20
1587.568469054884
 30
0.0
  0
SEQEND
  5
14383
  8
0
  0
ARC
  5
1414C
  8
HIDE
 10
2059.082539640307
 20
1576.929857848274
 30
0.0
 40
6.0
 50
270.0
 51
180.0
  0
CIRCLE
  5
1414D
  8
0
 10
2059.082539640307
 20
1576.929857848274
 30
0.0
 40
5.5
  0
LINE
  5
1414E
  8
HIDE
 10
2061.0825396403088
 20
1587.746511674665
 30
0.0
 11
2061.082539640307
 21
1582.053333231253
 31
0.0
  0
LINE
  5
1414F
  8
HIDE
 10
2060.7325396403071
 20
1587.8054038115799
 30
0.0
 11
2060.7325396403071
 21
1582.1765234560669
 31
0.0
  0
LINE
  5
14150
  8
HIDE
 10
2057.082539640307
 20
1587.746511674666
 30
0.0
 11
2057.082539640307
 21
1582.0533332312541
 31
0.0
  0
LINE
  5
14151
  8
HIDE
 10
2057.4325396403069
 20
1587.8054038115799
 30
0.0
 11
2057.4325396403069
 21
1582.1765234560669
 31
0.0
  0
LINE
  5
14152
  8
HIDE
 10
2057.082539640307
 20
1587.3923811106249
 30
0.0
 11
2061.0825396403088
 21
1587.392381110624
 31
0.0
  0
LINE
  5
14153
  8
HIDE
 10
2057.082539640307
 20
1583.3923811106249
 30
0.0
 11
2061.0825396403088
 21
1583.392381110624
 31
0.0
  0
LINE
  5
14154
  8
HIDE
 10
2060.7325396403071
 20
1583.1903085164081
 30
0.0
 11
2061.082539640307
 21
1583.392381110624
 31
0.0
  0
LINE
  5
14155
  8
HIDE
 10
2060.7325396403071
 20
1583.1903085164081
 30
0.0
 11
2057.4325396403069
 21
1583.1903085164081
 31
0.0
  0
LINE
  5
14156
  8
HIDE
 10
2057.4325396403069
 20
1583.1903085164081
 30
0.0
 11
2057.082539640307
 21
1583.392381110624
 31
0.0
  0
LINE
  5
14157
  8
HIDE
 10
2053.082539640307
 20
1617.6967703150619
 30
0.0
 11
2053.082539640307
 21
1654.196801315062
 31
0.0
  0
LINE
  5
14158
  8
HIDE
 10
2065.082539640307
 20
1617.6967703150619
 30
0.0
 11
2065.082539640307
 21
1654.196801315062
 31
0.0
  0
LINE
  5
1415B
  8
0
 10
2048.082539640307
 20
1617.6967703150619
 30
0.0
 11
2048.082539640307
 21
1623.1967703150619
 31
0.0
  0
LINE
  5
1415C
  8
0
 10
2070.082539640307
 20
1617.6967703150619
 30
0.0
 11
2070.082539640307
 21
1623.1967703150619
 31
0.0
  0
CIRCLE
  5
1415D
  8
0
 10
2059.082539640307
 20
1621.1967703150619
 30
0.0
 40
1.25
  0
CIRCLE
  5
1415E
  8
0
 10
2059.082539640307
 20
1621.1967703150619
 30
0.0
 40
1.5
  0
CIRCLE
  5
1415F
  8
0
 10
2085.082539640307
 20
1641.196801315062
 30
0.0
 40
4.5
  0
CIRCLE
  5
14160
  8
0
 10
2033.082539640307
 20
1641.196801315062
 30
0.0
 40
4.5
  0
LINE
  5
14161
  8
0
 10
2059.8325386403071
 20
1620.763756315062
 30
0.0
 11
2059.0825406403069
 21
1620.3307433150619
 31
0.0
  0
LINE
  5
14162
  8
0
 10
2059.0825386403071
 20
1622.0627943150621
 30
0.0
 11
2058.3325406403069
 21
1621.629784315063
 31
0.0
  0
LINE
  5
14163
  8
0
 10
2059.0825386403071
 20
1620.3307433150619
 30
0.0
 11
2058.3325406403069
 21
1620.763756315062
 31
0.0
  0
LINE
  5
14164
  8
0
 10
2059.8325386403071
 20
1621.629784315063
 30
0.0
 11
2059.0825406403069
 21
1622.0627943150621
 31
0.0
  0
LINE
  5
14165
  8
0
 10
2058.332539640307
 20
1620.763756315062
 30
0.0
 11
2058.332539640307
 21
1621.629784315063
 31
0.0
  0
LINE
  5
14166
  8
0
 10
2059.832539640307
 20
1620.763756315062
 30
0.0
 11
2059.832539640307
 21
1621.629784315063
 31
0.0
  0
LINE
  5
14167
  8
CENTER
 10
2056.582539640307
 20
1621.1967703150619
 30
0.0
 11
2061.582539640307
 21
1621.1967703150619
 31
0.0
  0
LINE
  5
14168
  8
CENTER
 10
2059.082539640307
 20
1614.0566582060819
 30
0.0
 11
2059.082539640307
 21
1657.9890884952979
 31
0.0
  0
LINE
  5
14169
  8
0
 10
2051.4325396403069
 20
1653.1968013150631
 30
0.0
 11
2051.4325396403069
 21
1654.196801315062
 31
0.0
  0
LINE
  5
1416A
  8
0
 10
2066.7325396403071
 20
1653.1968013150631
 30
0.0
 11
2066.7325396403071
 21
1654.196801315062
 31
0.0
  0
LINE
  5
1416B
  8
0
 10
2041.082539640307
 20
1629.1967863150619
 30
0.0
 11
2041.082539640307
 21
1653.196801315062
 31
0.0
  0
LINE
  5
1416C
  8
0
 10
2077.082539640307
 20
1629.1967863150619
 30
0.0
 11
2077.082539640307
 21
1653.196801315062
 31
0.0
  0
LINE
  5
1416D
  8
0
 10
2042.0825417374519
 20
1623.1967703150619
 30
0.0
 11
2076.082539640307
 21
1623.1967703150619
 31
0.0
  0
LINE
  5
1416E
  8
0
 10
2074.9570516403069
 20
1629.1967863150619
 30
0.0
 11
2074.9570516403069
 21
1653.196801315062
 31
0.0
  0
LINE
  5
1416F
  8
0
 10
2043.2080276403069
 20
1629.1967863150619
 30
0.0
 11
2043.2080276403069
 21
1653.196801315062
 31
0.0
  0
LINE
  5
14170
  8
CENTER
 10
2085.082539640307
 20
1635.696801315062
 30
0.0
 11
2085.082539640307
 21
1646.696801315062
 31
0.0
  0
LINE
  5
14171
  8
CENTER
 10
2090.582539640307
 20
1641.196801315062
 30
0.0
 11
2079.582539640307
 21
1641.196801315062
 31
0.0
  0
LINE
  5
14172
  8
CENTER
 10
2033.082539640307
 20
1635.696801315062
 30
0.0
 11
2033.082539640307
 21
1646.696801315062
 31
0.0
  0
LINE
  5
14173
  8
CENTER
 10
2027.582539640307
 20
1641.196801315062
 30
0.0
 11
2038.582539640307
 21
1641.196801315062
 31
0.0
  0
LINE
  5
14174
  8
0
 10
2024.082539640307
 20
1653.196801315062
 30
0.0
 11
2094.082539640307
 21
1653.196801315062
 31
0.0
  0
LINE
  5
14175
  8
0
 10
2024.082539640307
 20
1629.1967863150619
 30
0.0
 11
2094.082539640307
 21
1629.1967863150619
 31
0.0
  0
LINE
  5
14176
  8
0
 10
2094.082539640307
 20
1629.1967863150619
 30
0.0
 11
2094.082539640307
 21
1653.196801315062
 31
0.0
  0
LINE
  5
14177
  8
0
 10
2024.082539640307
 20
1629.1967863150619
 30
0.0
 11
2024.082539640307
 21
1653.196801315062
 31
0.0
  0
LINE
  5
14178
  8
0
 10
2048.082539640307
 20
1617.6967703150619
 30
0.0
 11
2070.082539640307
 21
1617.6967703150619
 31
0.0
  0
LINE
  5
14179
  8
0
 10
2061.8790486403068
 20
1617.6967703150619
 30
0.0
 11
2061.8790486403068
 21
1623.1967703150619
 31
0.0
  0
LINE
  5
1417A
  8
0
 10
2056.2860006403071
 20
1617.6967703150619
 30
0.0
 11
2056.2860006403071
 21
1623.1967703150619
 31
0.0
  0
LINE
  5
1417B
  8
0
 10
2051.4325396403069
 20
1654.196801315062
 30
0.0
 11
2066.7325396403071
 21
1654.196801315062
 31
0.0
  0
LINE
  5
1417E
  8
HIDE
 10
2126.5588122331369
 20
1570.929857848274
 30
0.0
 11
2132.0588122331369
 21
1570.929857848274
 31
0.0
  0
LINE
  5
1417F
  8
HIDE
 10
2148.0588122331369
 20
1570.929857848274
 30
0.0
 11
2155.0588122331369
 21
1570.929857848274
 31
0.0
  0
LINE
  5
14180
  8
HIDE
 10
2126.5588122331369
 20
1582.9298578482751
 30
0.0
 11
2132.058812233136
 21
1582.929857848274
 31
0.0
  0
LINE
  5
14181
  8
HIDE
 10
2148.0588122331369
 20
1582.929857848274
 30
0.0
 11
2155.0588122331369
 21
1582.929857848274
 31
0.0
  0
LINE
  5
14182
  8
0
 10
2124.0588102331371
 20
1558.929857848274
 30
0.0
 11
2130.0588102331371
 21
1558.929857848274
 31
0.0
  0
LINE
  5
14184
  8
0
 10
2130.0588102331371
 20
1575.929857848274
 30
0.0
 11
2154.0588122331369
 21
1575.929857848274
 31
0.0
  0
LINE
  5
14185
  8
0
 10
2130.0588102331371
 20
1592.929857848274
 30
0.0
 11
2154.0588122331369
 21
1592.929857848274
 31
0.0
  0
LINE
  5
14186
  8
CENTER
 10
2115.787248109646
 20
1576.929857848274
 30
0.0
 11
2157.7781582999078
 21
1576.929857848274
 31
0.0
  0
LINE
  5
14187
  8
HIDE
 10
2126.5588122331369
 20
1569.279857848273
 30
0.0
 11
2132.0588122331369
 21
1569.2798578482721
 31
0.0
  0
LINE
  5
14188
  8
HIDE
 10
2148.0588122331369
 20
1569.2798578482741
 30
0.0
 11
2154.0588122331369
 21
1569.2798578482741
 31
0.0
  0
LINE
  5
14189
  8
HIDE
 10
2126.5588122331369
 20
1584.5798578482729
 30
0.0
 11
2132.0588122331369
 21
1584.5798578482729
 31
0.0
  0
LINE
  5
1418A
  8
HIDE
 10
2148.0588122331369
 20
1584.5798578482729
 30
0.0
 11
2154.0588122331369
 21
1584.5798578482741
 31
0.0
  0
LINE
  5
1418B
  8
0
 10
2130.0588102331371
 20
1594.929857848274
 30
0.0
 11
2154.0588122331369
 21
1594.929857848274
 31
0.0
  0
LINE
  5
1418C
  8
0
 10
2130.0588102331371
 20
1551.929857848274
 30
0.0
 11
2154.0588122331369
 21
1551.929857848274
 31
0.0
  0
LINE
  5
1418D
  8
0
 10
2124.0588102331371
 20
1558.929857848274
 30
0.0
 11
2124.0588102331371
 21
1576.929857848274
 31
0.0
  0
LINE
  5
1418E
  8
0
 10
2130.0588102331371
 20
1551.929857848274
 30
0.0
 11
2130.0588102331371
 21
1594.929857848274
 31
0.0
  0
LINE
  5
1418F
  8
0
 10
2154.0588122331378
 20
1551.929857848274
 30
0.0
 11
2154.0588122331369
 21
1594.929857848274
 31
0.0
  0
LINE
  5
14190
  8
0
 10
2124.0588102331371
 20
1576.929857848274
 30
0.0
 11
2124.0588102331371
 21
1593.9298658482739
 31
0.0
  0
CIRCLE
  5
14191
  8
HIDE
 10
2144.0588122331369
 20
1566.929857848274
 30
0.0
 40
2.399999999999999
  0
CIRCLE
  5
14192
  8
HIDE
 10
2144.0588122331369
 20
1586.929857848274
 30
0.0
 40
2.399999999999999
  0
CIRCLE
  5
14193
  8
HIDE
 10
2136.0588122331369
 20
1566.929857848274
 30
0.0
 40
2.399999999999999
  0
CIRCLE
  5
14194
  8
HIDE
 10
2136.0588122331369
 20
1586.929857848274
 30
0.0
 40
2.399999999999999
  0
ARC
  5
14195
  8
HIDE
 10
2139.9088122331368
 20
1590.7798578482741
 30
0.0
 40
0.1500000000000003
 50
0.0
 51
90.0
  0
ARC
  5
14196
  8
HIDE
 10
2132.3588122331371
 20
1590.629857848274
 30
0.0
 40
0.3000000000000007
 50
90.0
 51
180.0
  0
ARC
  5
14197
  8
HIDE
 10
2139.7588122331372
 20
1583.2298578482739
 30
0.0
 40
0.2999999999999998
 50
270.0
 51
0.0
  0
ARC
  5
14198
  8
HIDE
 10
2139.7588122331372
 20
1570.629857848274
 30
0.0
 40
0.3000000000000007
 50
0.0
 51
90.0
  0
ARC
  5
14199
  8
HIDE
 10
2132.208812233137
 20
1583.0798578482741
 30
0.0
 40
0.1500000000000003
 50
180.0
 51
270.0
  0
ARC
  5
1419A
  8
HIDE
 10
2132.208812233137
 20
1570.7798578482741
 30
0.0
 40
0.1500000000000003
 50
90.0
 51
180.0
  0
ARC
  5
1419B
  8
HIDE
 10
2139.9088122331368
 20
1563.0798578482729
 30
0.0
 40
0.1500000000000003
 50
270.0
 51
0.0
  0
ARC
  5
1419C
  8
HIDE
 10
2132.3588122331371
 20
1563.2298578482739
 30
0.0
 40
0.2999999999999989
 50
180.0
 51
270.0
  0
LINE
  5
1419D
  8
HIDE
 10
2132.0588122331369
 20
1588.2298578482739
 30
0.0
 11
2134.0413881329541
 21
1588.2298578482739
 31
0.0
  0
LINE
  5
1419E
  8
HIDE
 10
2132.3588122331371
 20
1590.929857848274
 30
0.0
 11
2139.9088122331368
 21
1590.929857848274
 31
0.0
  0
LINE
  5
1419F
  8
HIDE
 10
2140.0588122331369
 20
1585.629857848274
 30
0.0
 11
2138.0762363333201
 21
1585.629857848274
 31
0.0
  0
LINE
  5
141A0
  8
HIDE
 10
2136.912087723229
 20
1589.1730522085579
 30
0.0
 11
2140.0588122331369
 21
1589.4798578482739
 31
0.0
  0
LINE
  5
141A1
  8
HIDE
 10
2132.0588122331369
 20
1585.629857848274
 30
0.0
 11
2134.0413881329541
 21
1585.629857848274
 31
0.0
  0
LINE
  5
141A2
  8
HIDE
 10
2132.0588122331369
 20
1568.2298578482739
 30
0.0
 11
2134.0413881329541
 21
1568.2298578482739
 31
0.0
  0
LINE
  5
141A3
  8
HIDE
 10
2132.208812233137
 20
1582.929857848274
 30
0.0
 11
2139.7588122331372
 21
1582.929857848274
 31
0.0
  0
LINE
  5
141A4
  8
HIDE
 10
2132.208812233137
 20
1570.929857848274
 30
0.0
 11
2139.7588122331372
 21
1570.929857848274
 31
0.0
  0
LINE
  5
141A5
  8
HIDE
 10
2140.0588122331369
 20
1568.2298578482739
 30
0.0
 11
2138.0762363333201
 21
1568.2298578482739
 31
0.0
  0
LINE
  5
141A6
  8
HIDE
 10
2132.0588122331369
 20
1565.629857848274
 30
0.0
 11
2134.0413881329541
 21
1565.629857848274
 31
0.0
  0
LINE
  5
141A7
  8
HIDE
 10
2139.9088122331368
 20
1562.929857848274
 30
0.0
 11
2132.3588122331371
 21
1562.929857848274
 31
0.0
  0
LINE
  5
141A8
  8
HIDE
 10
2136.912087723229
 20
1564.68666348799
 30
0.0
 11
2140.0588122331369
 21
1564.379857848274
 31
0.0
  0
LINE
  5
141A9
  8
HIDE
 10
2132.0588122331369
 20
1563.2298578482739
 30
0.0
 11
2132.0588122331369
 21
1590.629857848274
 31
0.0
  0
LINE
  5
141AA
  8
HIDE
 10
2140.0588122331369
 20
1590.7798578482741
 30
0.0
 11
2140.0588122331369
 21
1563.0798578482729
 31
0.0
  0
ARC
  5
141AB
  8
HIDE
 10
2140.208812233137
 20
1563.0798578482729
 30
0.0
 40
0.1499999999999995
 50
180.0
 51
270.0
  0
ARC
  5
141AC
  8
HIDE
 10
2147.7588122331372
 20
1563.2298578482739
 30
0.0
 40
0.3000000000000007
 50
270.0
 51
0.0
  0
ARC
  5
141AD
  8
HIDE
 10
2140.3588122331371
 20
1570.629857848274
 30
0.0
 40
0.2999999999999998
 50
90.0
 51
180.0
  0
ARC
  5
141AE
  8
HIDE
 10
2140.3588122331371
 20
1583.2298578482739
 30
0.0
 40
0.2999999999999998
 50
180.0
 51
270.0
  0
ARC
  5
141AF
  8
HIDE
 10
2147.9088122331368
 20
1570.7798578482741
 30
0.0
 40
0.15
 50
0.0
 51
90.0
  0
ARC
  5
141B0
  8
HIDE
 10
2147.9088122331368
 20
1583.0798578482741
 30
0.0
 40
0.1500000000000003
 50
270.0
 51
0.0
  0
ARC
  5
141B1
  8
HIDE
 10
2140.208812233137
 20
1590.7798578482741
 30
0.0
 40
0.1500000000000003
 50
90.0
 51
180.0
  0
ARC
  5
141B2
  8
HIDE
 10
2147.7588122331372
 20
1590.629857848274
 30
0.0
 40
0.3
 50
0.0
 51
90.0
  0
LINE
  5
141B3
  8
HIDE
 10
2148.0588122331369
 20
1565.629857848274
 30
0.0
 11
2146.076236333321
 21
1565.629857848274
 31
0.0
  0
LINE
  5
141B4
  8
HIDE
 10
2147.7588122331372
 20
1562.929857848274
 30
0.0
 11
2140.208812233137
 21
1562.929857848274
 31
0.0
  0
LINE
  5
141B5
  8
HIDE
 10
2140.0588122331369
 20
1568.2298578482739
 30
0.0
 11
2142.0413881329541
 21
1568.2298578482739
 31
0.0
  0
LINE
  5
141B6
  8
HIDE
 10
2143.2055367430462
 20
1564.68666348799
 30
0.0
 11
2140.0588122331369
 21
1564.379857848274
 31
0.0
  0
LINE
  5
141B7
  8
HIDE
 10
2148.0588122331369
 20
1568.2298578482739
 30
0.0
 11
2146.0762363333201
 21
1568.2298578482739
 31
0.0
  0
LINE
  5
141B8
  8
HIDE
 10
2148.0588122331369
 20
1585.629857848274
 30
0.0
 11
2146.0762363333201
 21
1585.629857848274
 31
0.0
  0
LINE
  5
141B9
  8
HIDE
 10
2147.9088122331368
 20
1570.929857848274
 30
0.0
 11
2140.3588122331371
 21
1570.929857848274
 31
0.0
  0
LINE
  5
141BA
  8
HIDE
 10
2147.9088122331368
 20
1582.929857848274
 30
0.0
 11
2140.3588122331371
 21
1582.929857848274
 31
0.0
  0
LINE
  5
141BB
  8
HIDE
 10
2140.0588122331369
 20
1585.629857848274
 30
0.0
 11
2142.0413881329541
 21
1585.629857848274
 31
0.0
  0
LINE
  5
141BC
  8
HIDE
 10
2148.0588122331369
 20
1588.2298578482739
 30
0.0
 11
2146.0762363333201
 21
1588.2298578482739
 31
0.0
  0
LINE
  5
141BD
  8
HIDE
 10
2140.208812233137
 20
1590.929857848274
 30
0.0
 11
2147.7588122331372
 21
1590.929857848274
 31
0.0
  0
LINE
  5
141BE
  8
HIDE
 10
2143.2055367430462
 20
1589.1730522085579
 30
0.0
 11
2140.0588122331369
 21
1589.4798578482739
 31
0.0
  0
LINE
  5
141BF
  8
HIDE
 10
2148.0588122331369
 20
1590.629857848274
 30
0.0
 11
2148.0588122331369
 21
1563.2298578482739
 31
0.0
  0
LINE
  5
141C0
  8
HIDE
 10
2126.5588122331369
 20
1585.429857848274
 30
0.0
 11
2126.5588122331369
 21
1576.929857848274
 31
0.0
  0
LINE
  5
141C1
  8
CENTER
 10
2122.0588122331369
 20
1588.6630142738211
 30
0.0
 11
2122.0588122331369
 21
1581.758318882348
 31
0.0
  0
LINE
  5
141C2
  8
HIDE
 10
2120.0588122331351
 20
1587.929857848274
 30
0.0
 11
2120.0588122331369
 21
1582.4298578482751
 31
0.0
  0
LINE
  5
141C3
  8
HIDE
 10
2120.4088122331368
 20
1587.929857848274
 30
0.0
 11
2120.4088122331368
 21
1582.4298578482751
 31
0.0
  0
LINE
  5
141C4
  8
HIDE
 10
2124.0588122331369
 20
1587.929857848274
 30
0.0
 11
2124.0588122331369
 21
1582.4298578482751
 31
0.0
  0
LINE
  5
141C5
  8
HIDE
 10
2123.7088122331361
 20
1587.929857848274
 30
0.0
 11
2123.7088122331361
 21
1582.4298578482751
 31
0.0
  0
LINE
  5
141C6
  8
HIDE
 10
2126.0588122331369
 20
1587.929857848274
 30
0.0
 11
2126.0588122331369
 21
1576.929857848274
 31
0.0
  0
LINE
  5
141C7
  8
0
 10
2118.5588122331369
 20
1587.929857848274
 30
0.0
 11
2118.5588122331369
 21
1576.929857848274
 31
0.0
  0
LINE
  5
141C8
  8
0
 10
2124.0588102331371
 20
1587.9298578482751
 30
0.0
 11
2118.5588122331369
 21
1587.929857848274
 31
0.0
  0
LINE
  5
141C9
  8
CENTER
 10
2127.7520455909521
 20
1576.929857848274
 30
0.0
 11
2117.5265730019291
 21
1576.929857848274
 31
0.0
  0
LINE
  5
141CA
  8
HIDE
 10
2126.5588122331369
 20
1582.429857848274
 30
0.0
 11
2118.5588122331369
 21
1582.429857848274
 31
0.0
  0
LINE
  5
141CB
  8
HIDE
 10
2126.5588122331369
 20
1582.929857848274
 30
0.0
 11
2118.5588122331369
 21
1582.929857848274
 31
0.0
  0
LINE
  5
141CC
  8
HIDE
 10
2126.5588122331369
 20
1585.429857848274
 30
0.0
 11
2126.0588122331369
 21
1585.718532982869
 31
0.0
  0
LINE
  5
141CD
  8
0
 10
2124.0588102331371
 20
1579.7262754842011
 30
0.0
 11
2118.5588122331369
 21
1579.726275484202
 31
0.0
  0
LINE
  5
141CE
  8
HIDE
 10
2126.5588122331369
 20
1568.429857848274
 30
0.0
 11
2126.5588122331369
 21
1576.929857848274
 31
0.0
  0
LINE
  5
141CF
  8
HIDE
 10
2126.0588122331369
 20
1565.929857848274
 30
0.0
 11
2126.0588122331369
 21
1576.929857848274
 31
0.0
  0
LINE
  5
141D0
  8
0
 10
2118.5588122331369
 20
1565.929857848274
 30
0.0
 11
2118.5588122331369
 21
1576.929857848274
 31
0.0
  0
LINE
  5
141D1
  8
0
 10
2124.0588102331371
 20
1565.929857848274
 30
0.0
 11
2118.5588122331369
 21
1565.929857848274
 31
0.0
  0
LINE
  5
141D2
  8
HIDE
 10
2126.5588122331369
 20
1571.429857848274
 30
0.0
 11
2118.5588122331369
 21
1571.429857848274
 31
0.0
  0
LINE
  5
141D3
  8
HIDE
 10
2126.5588122331369
 20
1570.929857848274
 30
0.0
 11
2118.5588122331369
 21
1570.929857848274
 31
0.0
  0
LINE
  5
141D4
  8
HIDE
 10
2126.5588122331369
 20
1568.429857848274
 30
0.0
 11
2126.0588122331369
 21
1568.141182713679
 31
0.0
  0
LINE
  5
141D5
  8
0
 10
2124.0588102331371
 20
1574.1334402123459
 30
0.0
 11
2118.5588122331369
 21
1574.1334402123459
 31
0.0
  0
LINE
  5
141D6
  8
HIDE
 10
2124.0588122331369
 20
1587.3923811106249
 30
0.0
 11
2120.0588122331351
 21
1587.392381110624
 31
0.0
  0
LINE
  5
141D7
  8
HIDE
 10
2124.0588122331369
 20
1583.3923811106249
 30
0.0
 11
2120.0588122331351
 21
1583.392381110624
 31
0.0
  0
LINE
  5
141D8
  8
HIDE
 10
2120.4088122331368
 20
1583.1903085164081
 30
0.0
 11
2120.0588122331369
 21
1583.392381110624
 31
0.0
  0
LINE
  5
141D9
  8
HIDE
 10
2120.4088122331368
 20
1583.1903085164081
 30
0.0
 11
2123.7088122331361
 21
1583.1903085164081
 31
0.0
  0
LINE
  5
141DA
  8
HIDE
 10
2123.7088122331361
 20
1583.1903085164081
 30
0.0
 11
2124.0588122331369
 21
1583.392381110624
 31
0.0
  0
LINE
  5
141DB
  8
0
 10
2154.0588122331369
 20
1584.5798578482741
 30
0.0
 11
2155.0588122331369
 21
1584.5798578482729
 31
0.0
  0
LINE
  5
141DC
  8
0
 10
2154.0588122331378
 20
1569.2798578482741
 30
0.0
 11
2155.0588122331369
 21
1569.2798578482741
 31
0.0
  0
LINE
  5
141DD
  8
0
 10
2155.0588122331369
 20
1584.5798578482729
 30
0.0
 11
2155.0588122331369
 21
1569.2798578482741
 31
0.0
  0
LINE
  5
141DE
  8
HIDE
 10
2124.0588102331371
 20
1587.9298578482751
 30
0.0
 11
2126.0588122331369
 21
1587.929857848274
 31
0.0
  0
LINE
  5
141DF
  8
HIDE
 10
2124.0588102331371
 20
1579.7262754842011
 30
0.0
 11
2126.0588122331369
 21
1579.7262754842011
 31
0.0
  0
LINE
  5
141E0
  8
HIDE
 10
2124.0588102331371
 20
1574.1334402123459
 30
0.0
 11
2126.0588122331369
 21
1574.1334402123459
 31
0.0
  0
LINE
  5
141E1
  8
HIDE
 10
2124.0588102331371
 20
1565.929857848274
 30
0.0
 11
2126.0588122331369
 21
1565.929857848274
 31
0.0
  0
LINE
  5
141E2
  8
CENTER
 10
2142.058811233137
 20
1545.203914107725
 30
0.0
 11
2142.058811233137
 21
1558.307361640726
 31
0.0
  0
LINE
  5
141E3
  8
HIDE
 10
2028.582539640307
 20
1575.929857848274
 30
0.0
 11
2028.582539640307
 21
1551.929857848274
 31
0.0
  0
LINE
  5
141E4
  8
HIDE
 10
2037.582539640307
 20
1575.929857848274
 30
0.0
 11
2037.582539640307
 21
1551.929857848274
 31
0.0
  0
LINE
  5
141E5
  8
HIDE
 10
2089.582539640307
 20
1575.929857848274
 30
0.0
 11
2089.582539640307
 21
1551.929857848274
 31
0.0
  0
LINE
  5
141E6
  8
HIDE
 10
2080.582539640307
 20
1575.929857848274
 30
0.0
 11
2080.582539640307
 21
1551.929857848274
 31
0.0
  0
ARC
  5
141F1
  8
0
 10
2059.082539640307
 20
1576.929857848274
 30
0.0
 40
24.0
 50
131.4096200000055
 51
138.5903799999945
  0
ARC
  5
141F2
  8
0
 10
2059.082539640307
 20
1576.929857848274
 30
0.0
 40
24.0
 50
41.409623999986188
 51
48.590378999999331
  0
LINE
  5
141F4
  8
0
 10
2059.082539640307
 20
1551.929857848274
 30
0.0
 11
2094.082539640307
 21
1551.929857848274
 31
0.0
  0
LINE
  5
141F5
  8
0
 10
2041.082539640307
 20
1575.929857848274
 30
0.0
 11
2041.082539640307
 21
1582.429857848274
 31
0.0
  0
LINE
  5
1420E
  8
0
 10
2024.082539640307
 20
1551.929857848274
 30
0.0
 11
2024.082539640307
 21
1575.929857848274
 31
0.0
  0
LINE
  5
14213
  8
CENTER
 10
2085.082539640307
 20
1550.525728848274
 30
0.0
 11
2085.082539640307
 21
1577.288255848274
 31
0.0
  0
LINE
  5
14214
  8
CENTER
 10
2033.082539640307
 20
1550.525728848274
 30
0.0
 11
2033.082539640307
 21
1577.288255848274
 31
0.0
  0
LINE
  5
14215
  8
0
 10
2077.082539640307
 20
1575.929857848274
 30
0.0
 11
2094.082539640307
 21
1575.929857848274
 31
0.0
  0
LINE
  5
14216
  8
CENTER
 10
2039.082539640307
 20
1576.929857848274
 30
0.0
 11
2079.082539640307
 21
1576.929857848274
 31
0.0
  0
LINE
  5
14217
  8
CENTER
 10
2059.082539640307
 20
1548.6193108482739
 30
0.0
 11
2059.082539640307
 21
1599.429857848274
 31
0.0
  0
LINE
  5
14219
  8
0
 10
2041.082539640307
 20
1575.929857848274
 30
0.0
 11
2041.082539640307
 21
1592.8043698482741
 31
0.0
  0
LINE
  5
1421A
  8
0
 10
2094.082539640307
 20
1551.929857848274
 30
0.0
 11
2094.082539640307
 21
1575.929857848274
 31
0.0
  0
LINE
  5
1421B
  8
0
 10
2024.082539640307
 20
1575.929857848274
 30
0.0
 11
2041.082539640307
 21
1575.929857848274
 31
0.0
  0
LINE
  5
1421C
  8
0
 10
2024.082539640307
 20
1551.929857848274
 30
0.0
 11
2059.082539640307
 21
1551.929857848274
 31
0.0
  0
LINE
  5
1421D
  8
0
 10
2077.0825396403079
 20
1575.929857848274
 30
0.0
 11
2077.082539640307
 21
1592.8043698482741
 31
0.0
  0
LINE
  5
1421E
  8
0
 10
2043.2080276403069
 20
1594.929857848274
 30
0.0
 11
2074.9570516403069
 21
1594.929857848274
 31
0.0
  0
LINE
  5
14238
  8
0
 10
2124.0588102331371
 20
1593.9298658482739
 30
0.0
 11
2130.0588102331371
 21
1593.9298658482739
 31
0.0
  0
LINE
  5
14239
  8
0
 10
2076.082539640307
 20
1623.1967703150619
 30
0.0
 11
2076.082539640307
 21
1629.1967863150619
 31
0.0
  0
LINE
  5
1423A
  8
0
 10
2042.0825417374519
 20
1623.1967703150619
 30
0.0
 11
2042.0825417374519
 21
1629.1967863150619
 31
0.0
  0
ENDSEC
  0
EOF
