  0
SECTION
  2
HEADER
  9
$ACADVER
  1
AC1009
  9
$INSBASE
 10
0.0
 20
0.0
 30
0.0
  9
$EXTMIN
 10
56.314058900008597
 20
7.561523803944965
 30
0.0
  9
$EXTMAX
 10
612.17119551849464
 20
346.37179131291077
 30
0.0
  9
$LIMMIN
 10
0.0
 20
0.0
  9
$LIMMAX
 10
12.0
 20
9.0
  9
$ORTHOMODE
 70
     1
  9
$REGENMODE
 70
     1
  9
$FILLMODE
 70
     1
  9
$QTEXTMODE
 70
     0
  9
$MIRRTEXT
 70
     0
  9
$DRAGMODE
 70
     2
  9
$LTSCALE
 40
4.0
  9
$OSMODE
 70
  2239
  9
$ATTMODE
 70
     1
  9
$TEXTSIZE
 40
1.1999999999999991
  9
$TRACEWID
 40
0.05
  9
$TEXTSTYLE
  7
DUKI
  9
$CLAYER
  8
0
  9
$CELTYPE
  6
BYLAYER
  9
$CECOLOR
 62
   256
  9
$DIMSCALE
 40
1.0
  9
$DIMASZ
 40
2.0
  9
$DIMEXO
 40
0.8
  9
$DIMDLI
 40
1.0
  9
$DIMRND
 40
0.0
  9
$DIMDLE
 40
0.0
  9
$DIMEXE
 40
0.6
  9
$DIMTP
 40
0.0
  9
$DIMTM
 40
0.000000001
  9
$DIMTXT
 40
3.0
  9
$DIMCEN
 40
1.0
  9
$DIMTSZ
 40
0.0
  9
$DIMTOL
 70
     0
  9
$DIMLIM
 70
     0
  9
$DIMTIH
 70
     0
  9
$DIMTOH
 70
     0
  9
$DIMSE1
 70
     0
  9
$DIMSE2
 70
     0
  9
$DIMTAD
 70
     1
  9
$DIMZIN
 70
     8
  9
$DIMBLK
  1

  9
$DIMASO
 70
     1
  9
$DIMSHO
 70
     1
  9
$DIMPOST
  1

  9
$DIMAPOST
  1

  9
$DIMALT
 70
     0
  9
$DIMALTD
 70
     2
  9
$DIMALTF
 40
25.399999999999999
  9
$DIMLFAC
 40
1.0
  9
$DIMTOFL
 70
     1
  9
$DIMTVP
 40
0.0
  9
$DIMTIX
 70
     0
  9
$DIMSOXD
 70
     0
  9
$DIMSAH
 70
     0
  9
$DIMBLK1
  1

  9
$DIMBLK2
  1

  9
$DIMSTYLE
  2
DUKI2
  9
$DIMCLRD
 70
     5
  9
$DIMCLRE
 70
     5
  9
$DIMCLRT
 70
     2
  9
$DIMTFAC
 40
0.5
  9
$DIMGAP
 40
1.0
  9
$LUNITS
 70
     2
  9
$LUPREC
 70
     4
  9
$SKETCHINC
 40
0.1
  9
$FILLETRAD
 40
0.2
  9
$AUNITS
 70
     0
  9
$AUPREC
 70
     0
  9
$MENU
  1
.
  9
$ELEVATION
 40
0.0
  9
$PELEVATION
 40
0.0
  9
$THICKNESS
 40
0.0
  9
$LIMCHECK
 70
     0
  9
$BLIPMODE
 70
     0
  9
$CHAMFERA
 40
0.5
  9
$CHAMFERB
 40
0.5
  9
$SKPOLY
 70
     0
  9
$TDCREATE
 40
2455131.5499356021
  9
$TDUPDATE
 40
2456630.677576805
  9
$TDINDWG
 40
0.0507472454
  9
$TDUSRTIMER
 40
0.0507471296
  9
$USRTIMER
 70
     1
  9
$ANGBASE
 50
0.0
  9
$ANGDIR
 70
     0
  9
$PDMODE
 70
     0
  9
$PDSIZE
 40
0.0
  9
$PLINEWID
 40
0.0
  9
$COORDS
 70
     1
  9
$SPLFRAME
 70
     0
  9
$SPLINETYPE
 70
     6
  9
$SPLINESEGS
 70
     8
  9
$ATTDIA
 70
     0
  9
$ATTREQ
 70
     1
  9
$HANDLING
 70
     1
  9
$HANDSEED
  5
1CD25
  9
$SURFTAB1
 70
     6
  9
$SURFTAB2
 70
     6
  9
$SURFTYPE
 70
     6
  9
$SURFU
 70
     6
  9
$SURFV
 70
     6
  9
$UCSNAME
  2

  9
$UCSORG
 10
0.0
 20
0.0
 30
0.0
  9
$UCSXDIR
 10
1.0
 20
0.0
 30
0.0
  9
$UCSYDIR
 10
0.0
 20
1.0
 30
0.0
  9
$PUCSNAME
  2

  9
$PUCSORG
 10
0.0
 20
0.0
 30
0.0
  9
$PUCSXDIR
 10
1.0
 20
0.0
 30
0.0
  9
$PUCSYDIR
 10
0.0
 20
1.0
 30
0.0
  9
$USERI1
 70
     0
  9
$USERI2
 70
     0
  9
$USERI3
 70
     0
  9
$USERI4
 70
     0
  9
$USERI5
 70
     0
  9
$USERR1
 40
0.0
  9
$USERR2
 40
0.0
  9
$USERR3
 40
0.0
  9
$USERR4
 40
0.0
  9
$USERR5
 40
0.0
  9
$WORLDVIEW
 70
     1
  9
$SHADEDGE
 70
     3
  9
$SHADEDIF
 70
    70
  9
$TILEMODE
 70
     1
  9
$MAXACTVP
 70
    48
  9
$PLIMCHECK
 70
     0
  9
$PEXTMIN
 10
0.0
 20
0.0
 30
0.0
  9
$PEXTMAX
 10
0.0
 20
0.0
 30
0.0
  9
$PLIMMIN
 10
0.0
 20
0.0
  9
$PLIMMAX
 10
12.0
 20
9.0
  9
$UNITMODE
 70
     0
  9
$VISRETAIN
 70
     1
  9
$PLINEGEN
 70
     0
  9
$PSLTSCALE
 70
     1
  0
ENDSEC
  0
SECTION
  2
TABLES
  0
TABLE
  2
VPORT
 70
     1
  0
VPORT
  2
*ACTIVE
 70
     0
 10
0.0
 20
0.0
 11
1.0
 21
1.0
 12
124.9722328748242
 22
90.822184936407069
 13
0.0
 23
0.0
 14
0.5
 24
0.5
 15
0.5
 25
0.5
 16
0.0
 26
0.0
 36
1.0
 17
0.0
 27
0.0
 37
0.0
 40
245.64471349627249
 41
2.1408934707903771
 42
50.0
 43
0.0
 44
0.0
 50
0.0
 51
0.0
 71
     0
 72
  2000
 73
     1
 74
     3
 75
     0
 76
     0
 77
     0
 78
     0
  0
ENDTAB
  0
TABLE
  2
LTYPE
 70
     4
  0
LTYPE
  2
CONTINUOUS
 70
     0
  3
Solid line
 72
    65
 73
     0
 40
0.0
  0
LTYPE
  2
PHANTOM2
 70
     0
  3
Phantom (.5x) ___ _ _ ___ _ _ ___ _ _ ___ _ _
 72
    65
 73
     6
 40
1.25
 49
0.625
 49
-0.125
 49
0.125
 49
-0.125
 49
0.125
 49
-0.125
  0
LTYPE
  2
CENTER
 70
     0
  3
____ _ ____ _ ____ _ ____ _ ____ _ ____ _ ____ 
 72
    65
 73
     4
 40
2.0
 49
1.25
 49
-0.25
 49
0.25
 49
-0.25
  0
ENDTAB
  0
TABLE
  2
LAYER
 70
     4
  0
LAYER
  2
0
 70
     0
 62
     7
  6
CONTINUOUS
  0
LAYER
  2
HIDE
 70
     0
 62
     1
  6
CONTINUOUS
  0
LAYER
  2
CENTER
 70
     0
 62
     3
  6
CENTER
  0
ENDTAB
  0
TABLE
  2
STYLE
 70
    15
  0
STYLE
  2
STANDARD
 70
     0
 40
5.0
 41
1.0
 50
0.0
 71
     0
 42
5.0
  3
txt.shx
  4
whgtxt.shx
  0
STYLE
  2
DUKI
 70
     0
 40
1.1999999999999991
 41
1.0
 50
0.0
 71
     0
 42
1.1999999999999991
  3
txt
  4

  0
STYLE
  2
DUKI_3
 70
     0
 40
6.0
 41
1.0
 50
0.0
 71
     0
 42
6.0
  3
txt
  4

  0
STYLE
  2
DUKI_2
 70
     0
 40
3.0
 41
1.0
 50
0.0
 71
     0
 42
3.0
  3
txt
  4

  0
ENDTAB
  0
TABLE
  2
VIEW
 70
     0
  0
ENDTAB
  0
TABLE
  2
UCS
 70
     0
  0
ENDTAB
  0
TABLE
  2
APPID
 70
    20
  0
APPID
  2
ACAD
 70
     0
  0
APPID
  2
ACADANNOTATIVE
 70
     0
  0
APPID
  2
ACAD_EXEMPT_FROM_CAD_STANDARDS
 70
     0
  0
APPID
  2
ACAD_DSTYLE_DIMJOGGED_JOGA
 70
     0
  0
APPID
  2
ACAD_PSEXT
 70
     0
  0
APPID
  2
ACAECLAYERSTANDARD
 70
     0
  0
APPID
  2
DCO15
 70
     0
  0
APPID
  2
ACAD_MLEADERVER
 70
     0
  0
APPID
  2
ACAD_DSTYLE_DIMJAG
 70
     0
  0
APPID
  2
ACAD_DSTYLE_DIMBREAK
 70
     0
  0
APPID
  2
ACAD_DSTYLE_DIMTALN
 70
     0
  0
APPID
  2
ACAD_DSTYLE_DIMRADIAL_EXTENSION
 70
     0
  0
APPID
  2
ACAD_DSTYLE_DIMTEXT_FILL
 70
     0
  0
APPID
  2
ACADANNOPO
 70
     0
  0
APPID
  2
ACADSTRINGINFO
 70
     0
  0
APPID
  2
CONTENTBLOCKICON
 70
     0
  0
APPID
  2
ACAD_NAV_VCDISPLAY
 70
     0
  0
APPID
  2
ACDBDYNAMICBLOCKTRUENAME2
 70
     0
  0
APPID
  2
CAXA_DRAFT_DIMSTYLE_ANGTXTVPOS
 70
     0
  0
APPID
  2
CAXA_DRAFT_TXTSTYLE
 70
     0
  0
ENDTAB
  0
TABLE
  2
DIMSTYLE
 70
    14
  0
DIMSTYLE
  2
DUKI2
 70
     0
  3

  4

  5

  6

  7

 40
1.0
 41
2.0
 42
0.8
 43
1.0
 44
0.6
 45
0.0
 46
0.0
 47
0.0
 48
0.000000001
140
3.0
141
1.0
142
0.0
143
25.399999999999999
144
1.0
145
0.0
146
0.5
147
1.0
 71
     0
 72
     0
 73
     0
 74
     0
 75
     0
 76
     0
 77
     1
 78
     8
170
     0
171
     2
172
     1
173
     0
174
     0
175
     0
176
     5
177
     5
178
     2
  0
ENDTAB
  0
ENDSEC
  0
SECTION
  2
BLOCKS
  0
BLOCK
  8
0
  2
$MODEL_SPACE
 70
     0
 10
0.0
 20
0.0
 30
0.0
  3
$MODEL_SPACE
  1

  0
ENDBLK
  5
1C713
  8
0
  0
BLOCK
 67
     1
  8
0
  2
$PAPER_SPACE
 70
     0
 10
0.0
 20
0.0
 30
0.0
  3
$PAPER_SPACE
  1

  0
ENDBLK
  5
1C70F
 67
     1
  8
0
  0
BLOCK
  8
0
  2
*U65
 70
     1
 10
0.0
 20
0.0
 30
0.0
  3
*U65
  1

  0
TEXT
  5
1C69F
  8
0
 10
112.2751355803052
 20
32.551078286065263
 30
0.0
 40
6.0
  1
EK15
  7
DUKI_3
  0
ENDBLK
  5
1C6A1
  8
0
  0
ENDSEC
  0
SECTION
  2
ENTITIES
  0
INSERT
  5
1C40B
  8
0
  2
*U65
 10
0.0
 20
-24.989554482120301
 30
0.0
  0
LINE
  5
1C7B9
  8
HIDE
 10
175.40213335469161
 20
68.244933094243393
 30
0.0
 11
185.4021333546915
 21
68.244933094243393
 31
0.0
  0
LINE
  5
1C7BA
  8
HIDE
 10
203.40213335469161
 20
68.244933094243393
 30
0.0
 11
213.40213335469161
 21
68.244933094243393
 31
0.0
  0
LINE
  5
1C7BB
  8
HIDE
 10
170.40213335469161
 20
83.244933094243379
 30
0.0
 11
185.4021333546915
 21
83.244933094243379
 31
0.0
  0
LINE
  5
1C7BC
  8
HIDE
 10
203.40213335469161
 20
83.244933094243379
 30
0.0
 11
213.40213335469161
 21
83.244933094243379
 31
0.0
  0
LINE
  5
1C7BE
  8
0
 10
177.40199635468881
 20
56.744933094243393
 30
0.0
 11
183.40213335469161
 21
56.744933094243393
 31
0.0
  0
LINE
  5
1C7BF
  8
0
 10
183.40213335469161
 20
70.744933094243393
 30
0.0
 11
213.40213335469161
 21
70.744933094243393
 31
0.0
  0
LINE
  5
1C7C0
  8
0
 10
183.40213335469161
 20
92.744933094243393
 30
0.0
 11
208.40213335469161
 21
92.744933094243393
 31
0.0
  0
LINE
  5
1C7C1
  8
0
 10
183.40213335468431
 20
94.744933094243365
 30
0.0
 11
183.40213335469161
 21
45.744927094243181
 31
0.0
  0
LINE
  5
1C7C2
  8
0
 10
183.40213335469161
 20
45.744927094243181
 30
0.0
 11
208.40213335469161
 21
45.744927094243181
 31
0.0
  0
LINE
  5
1C7C3
  8
0
 10
183.40213335469161
 20
94.744933094243393
 30
0.0
 11
208.40213335469161
 21
94.744933094243393
 31
0.0
  0
LINE
  5
1C7C4
  8
0
 10
177.40199635468881
 20
56.744933094243393
 30
0.0
 11
177.40199635468889
 21
94.744933094243393
 31
0.0
  0
LINE
  5
1C7C5
  8
CENTER
 10
216.59830966038129
 20
75.744933094243393
 30
0.0
 11
167.44429181409939
 21
75.744933094243393
 31
0.0
  0
LINE
  5
1C7C6
  8
HIDE
 10
208.40213335469161
 20
65.994933094243393
 30
0.0
 11
203.40213335469161
 21
65.994933094243393
 31
0.0
  0
LINE
  5
1C7C7
  8
HIDE
 10
185.4021333546915
 20
65.994933094243393
 30
0.0
 11
177.40199635468881
 21
65.994933094243393
 31
0.0
  0
LINE
  5
1C7C8
  8
HIDE
 10
208.40213335469161
 20
85.494933094243393
 30
0.0
 11
203.40213335469161
 21
85.494933094243393
 31
0.0
  0
LINE
  5
1C7C9
  8
HIDE
 10
185.4021333546915
 20
85.494933094243393
 30
0.0
 11
177.40199635468881
 21
85.494933094243393
 31
0.0
  0
CIRCLE
  5
1C7CA
  8
HIDE
 10
198.9021333546915
 20
63.9949330942434
 30
0.0
 40
2.549999999999998
  0
CIRCLE
  5
1C7CB
  8
HIDE
 10
198.9021333546915
 20
87.494933094243393
 30
0.0
 40
2.549999999999998
  0
CIRCLE
  5
1C7CC
  8
HIDE
 10
189.90213335469161
 20
63.9949330942434
 30
0.0
 40
2.5499999999999989
  0
CIRCLE
  5
1C7CD
  8
HIDE
 10
189.90213335469161
 20
87.494933094243393
 30
0.0
 40
2.5499999999999989
  0
ARC
  5
1C7CE
  8
HIDE
 10
194.2521333546901
 20
91.594933094243757
 30
0.0
 40
0.1500000000000003
 50
0.0
 51
90.0
  0
ARC
  5
1C7CF
  8
HIDE
 10
185.7021333546945
 20
91.444933094244121
 30
0.0
 40
0.3000000000000007
 50
90.0
 51
180.0
  0
ARC
  5
1C7D0
  8
HIDE
 10
194.10213335469589
 20
83.544933094242666
 30
0.0
 40
0.2999999999999998
 50
270.0
 51
0.0
  0
ARC
  5
1C7D1
  8
HIDE
 10
194.10213335469589
 20
67.944933094244121
 30
0.0
 40
0.3000000000000007
 50
0.0
 51
90.0
  0
ARC
  5
1C7D2
  8
HIDE
 10
185.55213335469301
 20
83.394933094243044
 30
0.0
 40
0.1499999999999986
 50
180.0
 51
270.0
  0
ARC
  5
1C7D3
  8
HIDE
 10
185.55213335469301
 20
68.094933094243757
 30
0.0
 40
0.1500000000000003
 50
90.0
 51
180.0
  0
ARC
  5
1C7D4
  8
HIDE
 10
194.2521333546901
 20
59.894933094243029
 30
0.0
 40
0.1499999999999986
 50
270.0
 51
0.0
  0
ARC
  5
1C7D5
  8
HIDE
 10
185.7021333546945
 20
60.044933094242658
 30
0.0
 40
0.3000000000000007
 50
180.0
 51
270.0
  0
LINE
  5
1C7D6
  8
HIDE
 10
185.4021333546915
 20
88.794933094242666
 30
0.0
 11
187.70839225784579
 21
88.794933094242666
 31
0.0
  0
LINE
  5
1C7D7
  8
HIDE
 10
185.7021333546945
 20
91.744933094243393
 30
0.0
 11
194.2521333546901
 21
91.744933094243393
 31
0.0
  0
LINE
  5
1C7D8
  8
HIDE
 10
194.4021333546915
 20
86.194933094244107
 30
0.0
 11
192.0958744515373
 21
86.194933094244107
 31
0.0
  0
LINE
  5
1C7D9
  8
HIDE
 10
190.889784436913
 20
89.845899988902389
 30
0.0
 11
194.4021333546915
 21
90.044933094242666
 31
0.0
  0
LINE
  5
1C7DA
  8
HIDE
 10
185.4021333546915
 20
86.194933094244107
 30
0.0
 11
187.70839225784579
 21
86.194933094244107
 31
0.0
  0
LINE
  5
1C7DB
  8
HIDE
 10
185.4021333546915
 20
65.294933094242666
 30
0.0
 11
187.70839225784579
 21
65.294933094242666
 31
0.0
  0
LINE
  5
1C7DC
  8
HIDE
 10
185.55213335469301
 20
83.244933094243379
 30
0.0
 11
194.10213335469589
 21
83.244933094243379
 31
0.0
  0
LINE
  5
1C7DD
  8
HIDE
 10
185.55213335469301
 20
68.244933094243393
 30
0.0
 11
194.10213335469589
 21
68.244933094243393
 31
0.0
  0
LINE
  5
1C7DE
  8
HIDE
 10
194.4021333546915
 20
65.294933094242666
 30
0.0
 11
192.0958744515373
 21
65.294933094242666
 31
0.0
  0
LINE
  5
1C7DF
  8
HIDE
 10
185.4021333546915
 20
62.694933094244121
 30
0.0
 11
187.70839225784579
 21
62.694933094244121
 31
0.0
  0
LINE
  5
1C7E0
  8
HIDE
 10
194.2521333546901
 20
59.744933094243393
 30
0.0
 11
185.7021333546945
 21
59.744933094243393
 31
0.0
  0
LINE
  5
1C7E1
  8
HIDE
 10
190.889784436913
 20
61.643966199584412
 30
0.0
 11
194.4021333546915
 21
61.444933094244121
 31
0.0
  0
LINE
  5
1C7E2
  8
HIDE
 10
185.4021333546915
 20
60.044933094242658
 30
0.0
 11
185.4021333546915
 21
91.444933094244121
 31
0.0
  0
LINE
  5
1C7E3
  8
HIDE
 10
194.4021333546915
 20
91.594933094243757
 30
0.0
 11
194.4021333546915
 21
59.894933094243029
 31
0.0
  0
ARC
  5
1C7E4
  8
HIDE
 10
194.55213335469301
 20
59.894933094243029
 30
0.0
 40
0.1500000000000003
 50
180.0
 51
270.0
  0
ARC
  5
1C7E5
  8
HIDE
 10
203.10213335469589
 20
60.044933094242658
 30
0.0
 40
0.2999999999999989
 50
270.0
 51
0.0
  0
ARC
  5
1C7E6
  8
HIDE
 10
194.7021333546945
 20
67.944933094244121
 30
0.0
 40
0.2999999999999998
 50
90.0
 51
180.0
  0
ARC
  5
1C7E7
  8
HIDE
 10
194.7021333546945
 20
83.544933094242666
 30
0.0
 40
0.3000000000000007
 50
180.0
 51
270.0
  0
ARC
  5
1C7E8
  8
HIDE
 10
203.2521333546901
 20
68.094933094243757
 30
0.0
 40
0.15
 50
0.0
 51
90.0
  0
ARC
  5
1C7E9
  8
HIDE
 10
203.2521333546901
 20
83.394933094243044
 30
0.0
 40
0.1500000000000003
 50
270.0
 51
0.0
  0
ARC
  5
1C7EA
  8
HIDE
 10
194.55213335469301
 20
91.594933094243757
 30
0.0
 40
0.1500000000000003
 50
90.0
 51
180.0
  0
ARC
  5
1C7EB
  8
HIDE
 10
203.10213335469589
 20
91.444933094244121
 30
0.0
 40
0.3
 50
0.0
 51
90.0
  0
LINE
  5
1C7EC
  8
HIDE
 10
203.40213335469161
 20
62.694933094244121
 30
0.0
 11
201.0958744515373
 21
62.694933094244121
 31
0.0
  0
LINE
  5
1C7ED
  8
HIDE
 10
203.10213335469589
 20
59.744933094243393
 30
0.0
 11
194.55213335469301
 21
59.744933094243393
 31
0.0
  0
LINE
  5
1C7EE
  8
HIDE
 10
194.4021333546915
 20
65.294933094242666
 30
0.0
 11
196.70839225784579
 21
65.294933094242666
 31
0.0
  0
LINE
  5
1C7EF
  8
HIDE
 10
197.9144822724702
 20
61.643966199584412
 30
0.0
 11
194.4021333546915
 21
61.444933094244121
 31
0.0
  0
LINE
  5
1C7F0
  8
HIDE
 10
203.40213335469161
 20
65.294933094242666
 30
0.0
 11
201.0958744515373
 21
65.294933094242666
 31
0.0
  0
LINE
  5
1C7F1
  8
HIDE
 10
203.40213335469161
 20
86.194933094244107
 30
0.0
 11
201.0958744515373
 21
86.194933094244107
 31
0.0
  0
LINE
  5
1C7F2
  8
HIDE
 10
203.2521333546901
 20
68.244933094243393
 30
0.0
 11
194.7021333546945
 21
68.244933094243393
 31
0.0
  0
LINE
  5
1C7F3
  8
HIDE
 10
203.2521333546901
 20
83.244933094243379
 30
0.0
 11
194.7021333546945
 21
83.244933094243379
 31
0.0
  0
LINE
  5
1C7F4
  8
HIDE
 10
194.4021333546915
 20
86.194933094244107
 30
0.0
 11
196.70839225784579
 21
86.194933094244107
 31
0.0
  0
LINE
  5
1C7F5
  8
HIDE
 10
203.40213335469161
 20
88.794933094242666
 30
0.0
 11
201.0958744515373
 21
88.794933094242666
 31
0.0
  0
LINE
  5
1C7F6
  8
HIDE
 10
194.55213335469301
 20
91.744933094243393
 30
0.0
 11
203.10213335469589
 21
91.744933094243393
 31
0.0
  0
LINE
  5
1C7F7
  8
HIDE
 10
197.9144822724702
 20
89.845899988902389
 30
0.0
 11
194.4021333546915
 21
90.044933094242666
 31
0.0
  0
LINE
  5
1C7F8
  8
HIDE
 10
203.40213335469161
 20
91.444933094244121
 30
0.0
 11
203.40213335469161
 21
60.044933094242658
 31
0.0
  0
LINE
  5
1C7F9
  8
0
 10
175.40213335469161
 20
86.248476627062487
 30
0.0
 11
175.40213335469161
 21
65.241389561424285
 31
0.0
  0
LINE
  5
1C7FA
  8
CENTER
 10
170.90213335469161
 20
88.981158506463316
 30
0.0
 11
170.90213335469161
 21
72.954222668522334
 31
0.0
  0
LINE
  5
1C7FB
  8
0
 10
174.90213335469161
 20
88.244933094243379
 30
0.0
 11
174.90213335469161
 21
63.244933094243393
 31
0.0
  0
LINE
  5
1C7FC
  8
0
 10
167.40213335469161
 20
88.244933094243379
 30
0.0
 11
167.40213335469161
 21
63.244933094243393
 31
0.0
  0
LINE
  5
1C7FD
  8
0
 10
174.90213335469161
 20
88.244933094243379
 30
0.0
 11
167.40213335469161
 21
88.244933094243379
 31
0.0
  0
LINE
  5
1C7FE
  8
CENTER
 10
176.6439142571252
 20
75.744933094243393
 30
0.0
 11
165.19310283969381
 21
75.744933094243393
 31
0.0
  0
LINE
  5
1C7FF
  8
0
 10
175.40213335469161
 20
86.248476627062487
 30
0.0
 11
174.90213335469161
 21
86.537151761654755
 31
0.0
  0
LINE
  5
1C800
  8
HIDE
 10
175.40213335469161
 20
82.744933094243393
 30
0.0
 11
167.40213335469161
 21
82.744933094243393
 31
0.0
  0
LINE
  5
1C801
  8
HIDE
 10
175.40213335469161
 20
83.244933094243379
 30
0.0
 11
167.40213335469161
 21
83.244933094243379
 31
0.0
  0
LINE
  5
1C802
  8
0
 10
174.90213335469161
 20
79.324893781358483
 30
0.0
 11
167.40213335469161
 21
79.324893781360302
 31
0.0
  0
LINE
  5
1C803
  8
0
 10
174.90213335469161
 20
63.244933094243393
 30
0.0
 11
167.40213335469161
 21
63.244933094243393
 31
0.0
  0
LINE
  5
1C804
  8
0
 10
175.40213335469161
 20
65.241389561424285
 30
0.0
 11
174.90213335469161
 21
64.952714426832031
 31
0.0
  0
LINE
  5
1C805
  8
HIDE
 10
175.40213335469161
 20
68.744933094243393
 30
0.0
 11
167.40213335469161
 21
68.744933094243393
 31
0.0
  0
LINE
  5
1C806
  8
HIDE
 10
175.40213335469161
 20
68.244933094243393
 30
0.0
 11
167.40213335469161
 21
68.244933094243393
 31
0.0
  0
LINE
  5
1C807
  8
0
 10
174.90213335469161
 20
72.164972407128303
 30
0.0
 11
167.40213335469161
 21
72.164972407126484
 31
0.0
  0
LINE
  5
1C808
  8
HIDE
 10
168.90213335469161
 20
88.244933094243379
 30
0.0
 11
168.90213335469161
 21
82.744933094243393
 31
0.0
  0
LINE
  5
1C809
  8
HIDE
 10
169.2521333546901
 20
88.244933094243379
 30
0.0
 11
169.2521333546901
 21
82.744933094243393
 31
0.0
  0
LINE
  5
1C80A
  8
HIDE
 10
172.9021333546915
 20
88.244933094243379
 30
0.0
 11
172.9021333546915
 21
82.744933094243393
 31
0.0
  0
LINE
  5
1C80B
  8
HIDE
 10
172.5521333546931
 20
88.244933094243379
 30
0.0
 11
172.5521333546931
 21
82.744933094243393
 31
0.0
  0
LINE
  5
1C80C
  8
HIDE
 10
172.9021333546915
 20
87.707456356594577
 30
0.0
 11
168.90213335469161
 21
87.707456356594577
 31
0.0
  0
LINE
  5
1C80D
  8
HIDE
 10
172.9021333546915
 20
83.707456356594562
 30
0.0
 11
168.90213335469161
 21
83.707456356594562
 31
0.0
  0
LINE
  5
1C80E
  8
HIDE
 10
169.2521333546901
 20
83.505383762377974
 30
0.0
 11
168.90213335469161
 21
83.707456356594562
 31
0.0
  0
LINE
  5
1C80F
  8
HIDE
 10
169.2521333546901
 20
83.505383762377974
 30
0.0
 11
172.5521333546931
 21
83.505383762377974
 31
0.0
  0
LINE
  5
1C810
  8
HIDE
 10
172.5521333546931
 20
83.505383762377974
 30
0.0
 11
172.9021333546915
 21
83.707456356594562
 31
0.0
  0
CIRCLE
  5
1C811
  8
0
 10
170.90213335469161
 20
75.744933094243393
 30
0.0
 40
2.0
  0
CIRCLE
  5
1C812
  8
0
 10
170.90213335469161
 20
75.744933094243393
 30
0.0
 40
1.649999999995998
  0
POLYLINE
  5
1C813
  8
0
 66
     1
 10
0.0
 20
0.0
 30
0.0
 70
     1
  0
VERTEX
  5
1CD0B
  8
0
 10
170.90213335469161
 20
76.822848281830161
 30
0.0
  0
VERTEX
  5
1CD0C
  8
0
 10
171.83563529027009
 20
76.283890688036763
 30
0.0
  0
VERTEX
  5
1CD0D
  8
0
 10
171.83563529027009
 20
75.205975500450009
 30
0.0
  0
VERTEX
  5
1CD0E
  8
0
 10
170.90213335469161
 20
74.667017906656625
 30
0.0
  0
VERTEX
  5
1CD0F
  8
0
 10
169.9686314191203
 20
75.205975500450009
 30
0.0
  0
VERTEX
  5
1CD10
  8
0
 10
169.9686314191203
 20
76.283890688036763
 30
0.0
  0
SEQEND
  5
1CD11
  8
0
  0
LINE
  5
1C814
  8
0
 10
213.40213335469161
 20
85.494933094243393
 30
0.0
 11
213.40213335469161
 21
65.994933094243393
 31
0.0
  0
LINE
  5
1C815
  8
0
 10
208.40213335469161
 20
85.494933094243393
 30
0.0
 11
213.40213335469161
 21
85.494933094243393
 31
0.0
  0
LINE
  5
1C816
  8
0
 10
208.40213335469161
 20
65.994933094243393
 30
0.0
 11
213.40213335469161
 21
65.994933094243393
 31
0.0
  0
LINE
  5
1C817
  8
0
 10
177.40199635468881
 20
85.494933094243393
 30
0.0
 11
175.40213335469161
 21
85.494933094243393
 31
0.0
  0
LINE
  5
1C818
  8
0
 10
177.40199635468881
 20
65.994933094243393
 30
0.0
 11
175.40213335469161
 21
65.994933094243393
 31
0.0
  0
LINE
  5
1C819
  8
0
 10
208.4021333546988
 20
94.744933094243365
 30
0.0
 11
208.40213335469161
 21
45.744927094243181
 31
0.0
  0
LINE
  5
1C81A
  8
CENTER
 10
195.90213335469161
 20
55.50739949230389
 30
0.0
 11
195.90213335469161
 21
35.468141496355898
 31
0.0
  0
LINE
  5
1C81D
  8
HIDE
 10
60.814058900017699
 20
70.744933094243393
 30
0.0
 11
60.814058900017699
 21
45.744927094243181
 31
0.0
  0
LINE
  5
1C81E
  8
HIDE
 10
71.814058900017685
 20
70.744933094243393
 30
0.0
 11
71.814058900017685
 21
45.744927094243181
 31
0.0
  0
LINE
  5
1C81F
  8
HIDE
 10
131.8140739000155
 20
70.744933094243393
 30
0.0
 11
131.8140739000155
 21
45.744927094243181
 31
0.0
  0
LINE
  5
1C820
  8
HIDE
 10
120.8140739000155
 20
70.744933094243393
 30
0.0
 11
120.8140739000155
 21
45.744927094243181
 31
0.0
  0
ARC
  5
1C821
  8
CENTER
 10
96.314073900015501
 20
75.744933094243393
 30
0.0
 40
20.0
 50
121.0545991411241
 51
148.22885209396361
  0
ARC
  5
1C822
  8
CENTER
 10
96.314073900015501
 20
75.744933094243393
 30
0.0
 40
20.0
 50
30.89552626526228
 51
59.232284368595309
  0
ARC
  5
1C823
  8
CENTER
 10
96.314073900015501
 20
75.744933094243393
 30
0.0
 40
20.0
 50
300.8097414343473
 51
329.18472203964382
  0
CIRCLE
  5
1C824
  8
0
 10
96.314073900015501
 20
75.744933094243393
 30
0.0
 40
15.000000999999999
  0
CIRCLE
  5
1C825
  8
0
 10
82.146699900018575
 20
89.862471094243816
 30
0.0
 40
3.5
  0
CIRCLE
  5
1C826
  8
0
 10
110.4310169000164
 20
89.862471094243816
 30
0.0
 40
3.5
  0
CIRCLE
  5
1C827
  8
0
 10
110.4310169000164
 20
61.578200094243371
 30
0.0
 40
3.5
  0
CIRCLE
  5
1C828
  8
0
 10
82.146699900018575
 20
61.578200094243371
 30
0.0
 40
3.5
  0
ARC
  5
1C829
  8
CENTER
 10
96.314073900015501
 20
75.744933094243393
 30
0.0
 40
20.0
 50
210.6781232366929
 51
239.6022241977897
  0
LINE
  5
1C82A
  8
0
 10
83.302866900012305
 20
87.864022094243197
 30
0.0
 11
84.457529900013469
 21
89.863957094243005
 31
0.0
  0
LINE
  5
1C82B
  8
0
 10
79.838766900014889
 20
89.864022094243197
 30
0.0
 11
80.993428900015715
 21
91.863957094243005
 31
0.0
  0
LINE
  5
1C82C
  8
0
 10
84.456864900013898
 20
89.863013094243584
 30
0.0
 11
83.302201900012733
 21
91.862948094243407
 31
0.0
  0
LINE
  5
1C82D
  8
0
 10
80.992762900015805
 20
87.863013094243584
 30
0.0
 11
79.838100900014965
 21
89.862948094243407
 31
0.0
  0
LINE
  5
1C82E
  8
0
 10
80.991914900012489
 20
91.862441094242755
 30
0.0
 11
83.301240900014804
 21
91.862441094242755
 31
0.0
  0
LINE
  5
1C82F
  8
0
 10
80.991914900012489
 20
87.862441094242755
 30
0.0
 11
83.301240900014804
 21
87.862441094242755
 31
0.0
  0
LINE
  5
1C830
  8
0
 10
111.58714890001281
 20
87.864028094243409
 30
0.0
 11
112.741811900014
 21
89.863963094243232
 31
0.0
  0
LINE
  5
1C831
  8
0
 10
108.1230469000147
 20
89.864028094243395
 30
0.0
 11
109.27770990001591
 21
91.863963094243218
 31
0.0
  0
LINE
  5
1C832
  8
0
 10
112.7411619000122
 20
89.86300809424371
 30
0.0
 11
111.5864989000183
 21
91.862943094243519
 31
0.0
  0
LINE
  5
1C833
  8
0
 10
109.27705990001409
 20
87.86300809424371
 30
0.0
 11
108.1223969000129
 21
89.862944094242053
 31
0.0
  0
LINE
  5
1C834
  8
0
 10
109.27623190001761
 20
91.862441094242755
 30
0.0
 11
111.5855579000126
 21
91.862441094242755
 31
0.0
  0
LINE
  5
1C835
  8
0
 10
109.27623190001761
 20
87.862441094242755
 30
0.0
 11
111.5855579000126
 21
87.862441094242755
 31
0.0
  0
LINE
  5
1C836
  8
0
 10
111.5871379000164
 20
59.579764094243508
 30
0.0
 11
112.74180090001749
 21
61.579700094243677
 31
0.0
  0
LINE
  5
1C837
  8
0
 10
108.12303590001829
 20
61.579765094243847
 30
0.0
 11
109.2776989000121
 21
63.579700094243677
 31
0.0
  0
LINE
  5
1C838
  8
0
 10
112.7411559000174
 20
61.578745094244162
 30
0.0
 11
111.5864929000163
 21
63.578680094243978
 31
0.0
  0
LINE
  5
1C839
  8
0
 10
109.27705390001211
 20
59.578746094244487
 30
0.0
 11
108.1223909000182
 21
61.578680094243971
 31
0.0
  0
LINE
  5
1C83A
  8
0
 10
109.27623190001761
 20
63.57817009424231
 30
0.0
 11
111.5855579000126
 21
63.57817009424231
 31
0.0
  0
LINE
  5
1C83B
  8
0
 10
109.27623190001761
 20
59.57817009424231
 30
0.0
 11
111.5855579000126
 21
59.57817009424231
 31
0.0
  0
LINE
  5
1C83C
  8
0
 10
83.302857900016534
 20
59.579760094242168
 30
0.0
 11
84.457520900017698
 21
61.579695094243803
 31
0.0
  0
LINE
  5
1C83D
  8
0
 10
79.83875690001878
 20
61.579759094243641
 30
0.0
 11
80.993418900012315
 21
63.579695094243803
 31
0.0
  0
LINE
  5
1C83E
  8
0
 10
84.456865900014236
 20
61.578736094244739
 30
0.0
 11
83.302202900013071
 21
63.578671094244569
 31
0.0
  0
LINE
  5
1C83F
  8
0
 10
80.992763900016158
 20
59.578736094244739
 30
0.0
 11
79.838100900014965
 21
61.578671094244569
 31
0.0
  0
LINE
  5
1C840
  8
0
 10
80.991914900012489
 20
63.57817009424231
 30
0.0
 11
83.301240900014804
 21
63.57817009424231
 31
0.0
  0
LINE
  5
1C841
  8
0
 10
80.991914900012489
 20
59.57817009424231
 30
0.0
 11
83.301240900014804
 21
59.57817009424231
 31
0.0
  0
LINE
  5
1C842
  8
0
 10
56.314058900017699
 20
70.744933094243393
 30
0.0
 11
56.314058900017699
 21
45.744927094243181
 31
0.0
  0
LINE
  5
1C843
  8
0
 10
136.3140739000155
 20
70.744933094243393
 30
0.0
 11
136.3140739000155
 21
45.744927094243181
 31
0.0
  0
LINE
  5
1C844
  8
0
 10
56.314058900017699
 20
70.744933094243393
 30
0.0
 11
75.814058900017699
 21
70.744933094243393
 31
0.0
  0
LINE
  5
1C845
  8
CENTER
 10
113.9682029000178
 20
93.399022094243065
 30
0.0
 11
106.770313900015
 21
86.201133094243914
 31
0.0
  0
LINE
  5
1C846
  8
CENTER
 10
78.659986900012882
 20
93.399016094244644
 30
0.0
 11
85.857875900015657
 21
86.201127094243716
 31
0.0
  0
LINE
  5
1C847
  8
CENTER
 10
113.9681969000157
 20
58.090806094243597
 30
0.0
 11
106.77033090001351
 21
65.288673094244373
 31
0.0
  0
LINE
  5
1C848
  8
CENTER
 10
126.3140739000155
 20
72.744933094243393
 30
0.0
 11
126.3140739000155
 21
43.744925094244323
 31
0.0
  0
LINE
  5
1C849
  8
CENTER
 10
66.314058900017699
 20
72.744933094243393
 30
0.0
 11
66.314058900017699
 21
43.744925094244323
 31
0.0
  0
LINE
  5
1C84A
  8
0
 10
116.8140739000155
 20
70.744933094243393
 30
0.0
 11
136.3140739000155
 21
70.744933094243393
 31
0.0
  0
LINE
  5
1C84B
  8
CENTER
 10
72.814058900017699
 20
75.744933094243393
 30
0.0
 11
119.8140739000155
 21
75.744933094243393
 31
0.0
  0
LINE
  5
1C84C
  8
CENTER
 10
96.314073900015501
 20
97.744933094243393
 30
0.0
 11
96.314073900015501
 21
42.744925094244323
 31
0.0
  0
LINE
  5
1C84D
  8
0
 10
116.81407390002261
 20
92.744927094243309
 30
0.0
 11
116.8140739000155
 21
70.744933094243393
 31
0.0
  0
LINE
  5
1C84E
  8
0
 10
114.81407390002281
 20
94.744927094243181
 30
0.0
 11
116.81407390002281
 21
92.744927094243181
 31
0.0
  0
LINE
  5
1C84F
  8
CENTER
 10
78.659976900016773
 20
58.090796094242037
 30
0.0
 11
85.857864900011919
 21
65.288684094244459
 31
0.0
  0
LINE
  5
1C850
  8
0
 10
75.814058900024804
 20
92.744927094241191
 30
0.0
 11
75.814058900017699
 21
70.744933094243393
 31
0.0
  0
LINE
  5
1C851
  8
0
 10
56.314058900017699
 20
45.744927094243181
 30
0.0
 11
136.3140739000155
 21
45.744927094243181
 31
0.0
  0
LINE
  5
1C853
  8
0
 10
75.814058900024975
 20
92.744927094241348
 30
0.0
 11
77.814058900024975
 21
94.744927094241362
 31
0.0
  0
ARC
  5
1C854
  8
0
 10
96.314073900015501
 20
75.744933094243393
 30
0.0
 40
12.5
 50
73.357636576184575
 51
106.6423634238154
  0
ARC
  5
1C855
  8
0
 10
96.314073900015501
 20
75.744933094243393
 30
0.0
 40
12.5
 50
163.35763657628399
 51
196.64236342371589
  0
ARC
  5
1C856
  8
0
 10
96.314073900015501
 20
75.744933094243393
 30
0.0
 40
12.5
 50
253.35763657618449
 51
286.64236342381542
  0
ARC
  5
1C857
  8
0
 10
96.314073900015501
 20
75.744933094243393
 30
0.0
 40
12.5
 50
343.35763657628399
 51
16.642363423715992
  0
POLYLINE
  5
1C858
  8
0
 66
     1
 10
0.0
 20
0.0
 30
0.0
  0
VERTEX
  5
1CD12
  8
0
 10
92.734113212900411
 20
87.721321593233156
 30
0.0
  0
VERTEX
  5
1CD13
  8
0
 10
84.337685401027557
 20
79.324893781360302
 30
0.0
  0
SEQEND
  5
1CD14
  8
0
  0
POLYLINE
  5
1C859
  8
0
 66
     1
 10
0.0
 20
0.0
 30
0.0
  0
VERTEX
  5
1CD15
  8
0
 10
84.337685401027557
 20
72.164972407130122
 30
0.0
  0
VERTEX
  5
1CD16
  8
0
 10
92.734113212900411
 20
63.768544595255463
 30
0.0
  0
SEQEND
  5
1CD17
  8
0
  0
POLYLINE
  5
1C85A
  8
0
 66
     1
 10
0.0
 20
0.0
 30
0.0
  0
VERTEX
  5
1CD18
  8
0
 10
99.894034587130591
 20
63.768544595255463
 30
0.0
  0
VERTEX
  5
1CD19
  8
0
 10
108.2904623990034
 20
72.164972407130122
 30
0.0
  0
SEQEND
  5
1CD1A
  8
0
  0
POLYLINE
  5
1C85B
  8
0
 66
     1
 10
0.0
 20
0.0
 30
0.0
  0
VERTEX
  5
1CD1B
  8
0
 10
108.2904623990034
 20
79.324893781360302
 30
0.0
  0
VERTEX
  5
1CD1C
  8
0
 10
99.894034587130591
 20
87.721321593233156
 30
0.0
  0
SEQEND
  5
1CD1D
  8
0
  0
ARC
  5
1C85C
  8
HIDE
 10
96.314073900015501
 20
75.744933094243393
 30
0.0
 40
7.5
 50
270.0
 51
180.0
  0
CIRCLE
  5
1C85D
  8
0
 10
96.314073900015501
 20
75.744933094243393
 30
0.0
 40
7.0
  0
LINE
  5
1C85E
  8
CENTER
 10
82.114710748734055
 20
75.744933094243393
 30
0.0
 11
110.5134370512969
 21
75.744933094243393
 31
0.0
  0
LINE
  5
1C85F
  8
CENTER
 10
96.314073900015501
 20
61.545569942961961
 30
0.0
 11
96.314073900015501
 21
89.944296245524825
 31
0.0
  0
LINE
  5
1C860
  8
HIDE
 10
98.314073900015515
 20
88.083895773495684
 30
0.0
 11
98.314073900015515
 21
82.453137026742993
 31
0.0
  0
LINE
  5
1C861
  8
HIDE
 10
97.96407390001697
 20
88.135554547585116
 30
0.0
 11
97.96407390001697
 21
82.547689888367827
 31
0.0
  0
LINE
  5
1C862
  8
HIDE
 10
94.314073900015515
 20
88.083895773495684
 30
0.0
 11
94.314073900015515
 21
82.453137026742993
 31
0.0
  0
LINE
  5
1C863
  8
HIDE
 10
94.664073900014046
 20
88.135554547585116
 30
0.0
 11
94.664073900014046
 21
82.547689888367827
 31
0.0
  0
LINE
  5
1C864
  8
HIDE
 10
94.314073900015515
 20
87.707456356594577
 30
0.0
 11
98.314073900015515
 21
87.707456356594577
 31
0.0
  0
LINE
  5
1C865
  8
HIDE
 10
94.314073900015515
 20
83.707456356594562
 30
0.0
 11
98.314073900015515
 21
83.707456356594562
 31
0.0
  0
LINE
  5
1C866
  8
HIDE
 10
97.96407390001697
 20
83.505383762377974
 30
0.0
 11
98.314073900015515
 21
83.707456356594562
 31
0.0
  0
LINE
  5
1C867
  8
HIDE
 10
97.96407390001697
 20
83.505383762377974
 30
0.0
 11
94.664073900014046
 21
83.505383762377974
 31
0.0
  0
LINE
  5
1C868
  8
HIDE
 10
94.664073900014046
 20
83.505383762377974
 30
0.0
 11
94.314073900015515
 21
83.707456356594562
 31
0.0
  0
LINE
  5
1C869
  8
HIDE
 10
108.6530365792641
 20
73.744933094237936
 30
0.0
 11
103.02227783251141
 21
73.744933094239755
 31
0.0
  0
LINE
  5
1C86A
  8
HIDE
 10
108.7046953533572
 20
74.094933094241938
 30
0.0
 11
103.11683069413991
 21
74.094933094241938
 31
0.0
  0
LINE
  5
1C86B
  8
HIDE
 10
108.6530365792641
 20
77.744933094239755
 30
0.0
 11
103.02227783251141
 21
77.744933094239755
 31
0.0
  0
LINE
  5
1C86C
  8
HIDE
 10
108.7046953533572
 20
77.394933094239391
 30
0.0
 11
103.11683069413991
 21
77.394933094239391
 31
0.0
  0
LINE
  5
1C86D
  8
HIDE
 10
108.27659716235939
 20
77.744933094239755
 30
0.0
 11
108.27659716235939
 21
73.744933094237936
 31
0.0
  0
LINE
  5
1C86E
  8
HIDE
 10
104.27659716235939
 20
77.744933094239755
 30
0.0
 11
104.27659716235939
 21
73.744933094237936
 31
0.0
  0
LINE
  5
1C86F
  8
HIDE
 10
104.0745245681464
 20
74.094933094240119
 30
0.0
 11
104.27659716235939
 21
73.744933094239755
 31
0.0
  0
LINE
  5
1C870
  8
HIDE
 10
104.0745245681464
 20
74.094933094240119
 30
0.0
 11
104.0745245681464
 21
77.394933094239391
 31
0.0
  0
LINE
  5
1C871
  8
HIDE
 10
104.0745245681464
 20
77.394933094239391
 30
0.0
 11
104.27659716235939
 21
77.744933094239755
 31
0.0
  0
ARC
  5
1C872
  8
0
 10
96.3140664000166
 20
75.744933094243393
 30
0.0
 40
25.0
 50
130.5358000000397
 51
139.464199999892
  0
ARC
  5
1C873
  8
0
 10
96.3140664000166
 20
75.744933094243393
 30
0.0
 40
25.0
 50
310.53580000003973
 51
319.46419999989212
  0
ARC
  5
1C874
  8
0
 10
96.3140664000166
 20
75.744933094243393
 30
0.0
 40
25.0
 50
220.53580000010791
 51
229.4641999999603
  0
ARC
  5
1C875
  8
0
 10
96.3140664000166
 20
75.744933094243393
 30
0.0
 40
25.0
 50
40.535803000121852
 51
49.464198999982159
  0
LINE
  5
1C876
  8
0
 10
80.065989400020044
 20
56.744933094243393
 30
0.0
 11
112.5621434000131
 21
56.744933094243393
 31
0.0
  0
LINE
  5
1C877
  8
0
 10
80.065989400020044
 20
94.744933094243393
 30
0.0
 11
112.5621434000131
 21
94.744933094243393
 31
0.0
  0
LINE
  5
1C878
  8
0
 10
115.3140664000166
 20
91.993010094243587
 30
0.0
 11
115.3140664000166
 21
59.496856094243213
 31
0.0
  0
LINE
  5
1C879
  8
0
 10
77.3140664000166
 20
91.993010094243587
 30
0.0
 11
77.3140664000166
 21
59.496856094243213
 31
0.0
  0
LINE
  5
1C87A
  8
HIDE
 10
88.814073900009134
 20
127.1386532325521
 30
0.0
 11
88.81407390000868
 21
165.13865323255121
 31
0.0
  0
LINE
  5
1C87B
  8
HIDE
 10
103.81407390000859
 20
127.1386532325521
 30
0.0
 11
103.8140739000082
 21
165.13865323255121
 31
0.0
  0
LINE
  5
1C87C
  8
0
 10
77.314058900008604
 20
129.13865623255219
 30
0.0
 11
77.314058900008604
 21
135.13865623255219
 31
0.0
  0
LINE
  5
1C87D
  8
0
 10
115.31407390000859
 20
129.13865623255219
 30
0.0
 11
115.31407390000859
 21
135.13865623255219
 31
0.0
  0
LINE
  5
1C87E
  8
0
 10
77.314058900008604
 20
129.13865623255219
 30
0.0
 11
115.31407390000859
 21
129.13865623255219
 31
0.0
  0
CIRCLE
  5
1C87F
  8
0
 10
66.314058900008604
 20
147.63865323255209
 30
0.0
 40
5.5
  0
CIRCLE
  5
1C880
  8
0
 10
126.31407390000869
 20
147.63865323255209
 30
0.0
 40
5.5
  0
LINE
  5
1C881
  8
CENTER
 10
96.314073900008225
 20
166.9337180447462
 30
0.0
 11
96.31407390000868
 21
116.11305466362199
 31
0.0
  0
LINE
  5
1C882
  8
0
 10
86.56407390000868
 20
165.13865323255209
 30
0.0
 11
86.564073900008225
 21
160.13865323255209
 31
0.0
  0
LINE
  5
1C883
  8
0
 10
86.564073900007784
 20
129.13865623255219
 30
0.0
 11
86.564073900007784
 21
127.1386532325521
 31
0.0
  0
LINE
  5
1C884
  8
0
 10
106.06407390000911
 20
165.13865323255209
 30
0.0
 11
106.06407390000859
 21
160.13865323255209
 31
0.0
  0
LINE
  5
1C885
  8
0
 10
106.06407390000911
 20
129.13865623255219
 30
0.0
 11
106.0640739000096
 21
127.1386532325521
 31
0.0
  0
LINE
  5
1C886
  8
0
 10
77.814058900008604
 20
160.13865323255209
 30
0.0
 11
77.814058900008604
 21
135.13865623255219
 31
0.0
  0
LINE
  5
1C887
  8
0
 10
114.81407390000869
 20
160.13865323255209
 30
0.0
 11
114.81407390000869
 21
135.13865623255219
 31
0.0
  0
LINE
  5
1C888
  8
0
 10
56.314058900008597
 20
160.13865323255209
 30
0.0
 11
56.314058900008597
 21
135.13865623255219
 31
0.0
  0
LINE
  5
1C889
  8
0
 10
136.31407390000871
 20
160.13865323255209
 30
0.0
 11
136.31407390000871
 21
135.13865623255219
 31
0.0
  0
LINE
  5
1C88A
  8
0
 10
116.81407390000869
 20
160.13865323255209
 30
0.0
 11
116.81407390000869
 21
135.13865623255219
 31
0.0
  0
LINE
  5
1C88B
  8
0
 10
75.814058900008604
 20
160.13865323255209
 30
0.0
 11
75.814058900008604
 21
135.13865623255219
 31
0.0
  0
LINE
  5
1C88C
  8
0
 10
56.314058900008597
 20
135.13865623255219
 30
0.0
 11
136.31407390000871
 21
135.13865623255219
 31
0.0
  0
LINE
  5
1C88D
  8
0
 10
56.314058900008597
 20
160.13865323255209
 30
0.0
 11
136.31407390000871
 21
160.13865323255209
 31
0.0
  0
LINE
  5
1C88E
  8
CENTER
 10
58.639133929083528
 20
147.63865323255209
 30
0.0
 11
73.98898387093368
 21
147.63865323255209
 31
0.0
  0
LINE
  5
1C88F
  8
CENTER
 10
66.314058900008604
 20
139.9637282616265
 30
0.0
 11
66.314058900008604
 21
155.31357820347759
 31
0.0
  0
LINE
  5
1C890
  8
CENTER
 10
118.6391489290836
 20
147.63865323255209
 30
0.0
 11
133.9889988709337
 21
147.63865323255209
 31
0.0
  0
LINE
  5
1C891
  8
CENTER
 10
126.31407390000869
 20
139.9637282616265
 30
0.0
 11
126.31407390000869
 21
155.31357820347759
 31
0.0
  0
LINE
  5
1C892
  8
0
 10
86.56407390000868
 20
165.13865323255209
 30
0.0
 11
106.06407390000911
 21
165.13865323255209
 31
0.0
  0
LINE
  5
1C893
  8
0
 10
85.810530367189585
 20
127.1386532325521
 30
0.0
 11
106.8176174328278
 21
127.1386532325521
 31
0.0
  0
LINE
  5
1C894
  8
CENTER
 10
93.577340078564248
 20
122.6386532325521
 30
0.0
 11
99.050807721453111
 21
122.6386532325521
 31
0.0
  0
LINE
  5
1C895
  8
0
 10
83.81407390000868
 20
126.6386532325521
 30
0.0
 11
108.81407390000869
 21
126.6386532325521
 31
0.0
  0
LINE
  5
1C896
  8
0
 10
83.81407390000868
 20
119.1386532325521
 30
0.0
 11
108.81407390000869
 21
119.1386532325521
 31
0.0
  0
LINE
  5
1C897
  8
0
 10
83.81407390000868
 20
126.6386532325521
 30
0.0
 11
83.81407390000868
 21
119.1386532325521
 31
0.0
  0
LINE
  5
1C898
  8
0
 10
85.810530367189585
 20
127.1386532325521
 30
0.0
 11
85.521855232596437
 21
126.6386532325521
 31
0.0
  0
LINE
  5
1C899
  8
HIDE
 10
88.81407390000868
 20
127.13865323255391
 30
0.0
 11
88.81407390000868
 21
119.1386532325521
 31
0.0
  0
LINE
  5
1C89A
  8
0
 10
92.73411321289268
 20
126.6386532325521
 30
0.0
 11
92.734113212891771
 21
119.1386532325521
 31
0.0
  0
LINE
  5
1C89B
  8
0
 10
108.81407390000869
 20
126.6386532325521
 30
0.0
 11
108.81407390000869
 21
119.1386532325521
 31
0.0
  0
LINE
  5
1C89C
  8
0
 10
106.8176174328278
 20
127.1386532325521
 30
0.0
 11
107.10629256742089
 21
126.6386532325521
 31
0.0
  0
LINE
  5
1C89D
  8
HIDE
 10
103.81407390000859
 20
127.13865323255391
 30
0.0
 11
103.81407390000859
 21
119.1386532325521
 31
0.0
  0
LINE
  5
1C89E
  8
0
 10
99.894034587124679
 20
126.6386532325521
 30
0.0
 11
99.894034587125574
 21
119.1386532325521
 31
0.0
  0
CIRCLE
  5
1C89F
  8
0
 10
96.31407390000868
 20
122.6386532325521
 30
0.0
 40
2.0
  0
CIRCLE
  5
1C8A0
  8
0
 10
96.31407390000868
 20
122.6386532325521
 30
0.0
 40
1.649999999995998
  0
POLYLINE
  5
1C8A1
  8
0
 66
     1
 10
0.0
 20
0.0
 30
0.0
 70
     1
  0
VERTEX
  5
1CD1E
  8
0
 10
95.236158712421897
 20
122.6386532325521
 30
0.0
  0
VERTEX
  5
1CD1F
  8
0
 10
95.775116306215295
 20
123.572155168127
 30
0.0
  0
VERTEX
  5
1CD20
  8
0
 10
96.853031493802064
 20
123.572155168127
 30
0.0
  0
VERTEX
  5
1CD21
  8
0
 10
97.391989087595448
 20
122.6386532325521
 30
0.0
  0
VERTEX
  5
1CD22
  8
0
 10
96.853031493802064
 20
121.70515129697721
 30
0.0
  0
VERTEX
  5
1CD23
  8
0
 10
95.775116306215295
 20
121.70515129697721
 30
0.0
  0
SEQEND
  5
1CD24
  8
0
  0
LINE
  5
1CA8D
  8
0
 10
77.814058900026794
 20
94.744927094243181
 30
0.0
 11
114.81407390002271
 21
94.744927094243181
 31
0.0
  0
LINE
  5
1CAB7
  8
0
 10
183.40213335468431
 20
94.744933094243393
 30
0.0
 11
177.40199635468881
 21
94.744933094243393
 31
0.0
  0
ENDSEC
  0
EOF
