  0
SECTION
  2
HEADER
  9
$ACADVER
  1
AC1009
  9
$INSBASE
 10
0.0
 20
0.0
 30
0.0
  9
$EXTMIN
 10
1903.0405749290021
 20
1433.173578249188
 30
0.0
  9
$EXTMAX
 10
2348.540574929003
 20
1748.173578249188
 30
0.0
  9
$LIMMIN
 10
0.0
 20
0.0
  9
$LIMMAX
 10
12.0
 20
9.0
  9
$ORTHOMODE
 70
     0
  9
$REGENMODE
 70
     1
  9
$FILLMODE
 70
     1
  9
$QTEXTMODE
 70
     0
  9
$MIRRTEXT
 70
     0
  9
$DRAGMODE
 70
     2
  9
$LTSCALE
 40
5.0
  9
$OSMODE
 70
  2239
  9
$ATTMODE
 70
     1
  9
$TEXTSIZE
 40
2.5
  9
$TRACEWID
 40
0.05
  9
$TEXTSTYLE
  7
BIG
  9
$CLAYER
  8
0
  9
$CELTYPE
  6
BYLAYER
  9
$CECOLOR
 62
   256
  9
$DIMSCALE
 40
1.0
  9
$DIMASZ
 40
3.0
  9
$DIMEXO
 40
1.0
  9
$DIMDLI
 40
0.0
  9
$DIMRND
 40
0.0
  9
$DIMDLE
 40
0.0
  9
$DIMEXE
 40
1.0
  9
$DIMTP
 40
0.0
  9
$DIMTM
 40
0.0
  9
$DIMTXT
 40
3.0
  9
$DIMCEN
 40
0.0
  9
$DIMTSZ
 40
0.0
  9
$DIMTOL
 70
     0
  9
$DIMLIM
 70
     0
  9
$DIMTIH
 70
     0
  9
$DIMTOH
 70
     0
  9
$DIMSE1
 70
     0
  9
$DIMSE2
 70
     0
  9
$DIMTAD
 70
     1
  9
$DIMZIN
 70
     8
  9
$DIMBLK
  1

  9
$DIMASO
 70
     1
  9
$DIMSHO
 70
     1
  9
$DIMPOST
  1

  9
$DIMAPOST
  1

  9
$DIMALT
 70
     0
  9
$DIMALTD
 70
     2
  9
$DIMALTF
 40
25.399999999999999
  9
$DIMLFAC
 40
1.0
  9
$DIMTOFL
 70
     1
  9
$DIMTVP
 40
0.0
  9
$DIMTIX
 70
     1
  9
$DIMSOXD
 70
     0
  9
$DIMSAH
 70
     0
  9
$DIMBLK1
  1

  9
$DIMBLK2
  1

  9
$DIMSTYLE
  2
DUKITEC
  9
$DIMCLRD
 70
     5
  9
$DIMCLRE
 70
     5
  9
$DIMCLRT
 70
     0
  9
$DIMTFAC
 40
1.0
  9
$DIMGAP
 40
1.0
  9
$LUNITS
 70
     2
  9
$LUPREC
 70
     4
  9
$SKETCHINC
 40
0.1
  9
$FILLETRAD
 40
0.2
  9
$AUNITS
 70
     0
  9
$AUPREC
 70
     0
  9
$MENU
  1
.
  9
$ELEVATION
 40
0.0
  9
$PELEVATION
 40
0.0
  9
$THICKNESS
 40
0.0
  9
$LIMCHECK
 70
     0
  9
$BLIPMODE
 70
     0
  9
$CHAMFERA
 40
0.5
  9
$CHAMFERB
 40
0.5
  9
$SKPOLY
 70
     0
  9
$TDCREATE
 40
2454396.7061499888
  9
$TDUPDATE
 40
2456630.7039033799
  9
$TDINDWG
 40
0.0071639236
  9
$TDUSRTIMER
 40
0.0071638079
  9
$USRTIMER
 70
     1
  9
$ANGBASE
 50
0.0
  9
$ANGDIR
 70
     0
  9
$PDMODE
 70
     0
  9
$PDSIZE
 40
0.0
  9
$PLINEWID
 40
0.0
  9
$COORDS
 70
     1
  9
$SPLFRAME
 70
     0
  9
$SPLINETYPE
 70
     6
  9
$SPLINESEGS
 70
     8
  9
$ATTDIA
 70
     0
  9
$ATTREQ
 70
     1
  9
$HANDLING
 70
     1
  9
$HANDSEED
  5
1437C
  9
$SURFTAB1
 70
     6
  9
$SURFTAB2
 70
     6
  9
$SURFTYPE
 70
     6
  9
$SURFU
 70
     6
  9
$SURFV
 70
     6
  9
$UCSNAME
  2

  9
$UCSORG
 10
0.0
 20
0.0
 30
0.0
  9
$UCSXDIR
 10
1.0
 20
0.0
 30
0.0
  9
$UCSYDIR
 10
0.0
 20
1.0
 30
0.0
  9
$PUCSNAME
  2

  9
$PUCSORG
 10
0.0
 20
0.0
 30
0.0
  9
$PUCSXDIR
 10
1.0
 20
0.0
 30
0.0
  9
$PUCSYDIR
 10
0.0
 20
1.0
 30
0.0
  9
$USERI1
 70
     0
  9
$USERI2
 70
     0
  9
$USERI3
 70
     0
  9
$USERI4
 70
     0
  9
$USERI5
 70
     0
  9
$USERR1
 40
0.0
  9
$USERR2
 40
0.0
  9
$USERR3
 40
0.0
  9
$USERR4
 40
0.0
  9
$USERR5
 40
0.0
  9
$WORLDVIEW
 70
     1
  9
$SHADEDGE
 70
     3
  9
$SHADEDIF
 70
    70
  9
$TILEMODE
 70
     1
  9
$MAXACTVP
 70
    64
  9
$PLIMCHECK
 70
     0
  9
$PEXTMIN
 10
0.0
 20
0.0
 30
0.0
  9
$PEXTMAX
 10
0.0
 20
0.0
 30
0.0
  9
$PLIMMIN
 10
0.0
 20
0.0
  9
$PLIMMAX
 10
12.0
 20
9.0
  9
$UNITMODE
 70
     0
  9
$VISRETAIN
 70
     1
  9
$PLINEGEN
 70
     0
  9
$PSLTSCALE
 70
     1
  0
ENDSEC
  0
SECTION
  2
TABLES
  0
TABLE
  2
VPORT
 70
     1
  0
VPORT
  2
*ACTIVE
 70
     0
 10
0.0
 20
0.0
 11
1.0
 21
1.0
 12
2175.0045454640058
 22
1578.975378646518
 13
0.0
 23
0.0
 14
0.5
 24
0.5
 15
0.5
 25
0.5
 16
0.0
 26
0.0
 36
1.0
 17
0.0
 27
0.0
 37
0.0
 40
345.70614087257007
 41
2.2309552599758158
 42
50.0
 43
0.0
 44
0.0
 50
0.0
 51
0.0
 71
     0
 72
  2000
 73
     1
 74
     3
 75
     0
 76
     0
 77
     0
 78
     0
  0
ENDTAB
  0
TABLE
  2
LTYPE
 70
     4
  0
LTYPE
  2
CONTINUOUS
 70
     0
  3
Solid line
 72
    65
 73
     0
 40
0.0
  0
LTYPE
  2
PHANTOM2
 70
     0
  3
Phantom (.5x) ___ _ _ ___ _ _ ___ _ _ ___ _ _
 72
    65
 73
     6
 40
1.25
 49
0.625
 49
-0.125
 49
0.125
 49
-0.125
 49
0.125
 49
-0.125
  0
LTYPE
  2
CENTER
 70
     0
  3
___ _ ___ _ ___ _ ___ _ ___ _ ___ _ ___ _ ___ _
 72
    65
 73
     4
 40
0.95
 49
0.625
 49
-0.125
 49
0.075
 49
-0.125
  0
LTYPE
  2
DASHED2
 70
     0
  3
Dashed (.5x) _ _ _ _ _ _ _ _ _ _ _ _ _ _ _ _ _
 72
    65
 73
     2
 40
0.375
 49
0.25
 49
-0.125
  0
ENDTAB
  0
TABLE
  2
LAYER
 70
     4
  0
LAYER
  2
0
 70
     0
 62
     7
  6
CONTINUOUS
  0
LAYER
  2
HIDE
 70
     0
 62
     1
  6
DASHED2
  0
LAYER
  2
CENTER
 70
     0
 62
     3
  6
CENTER
  0
ENDTAB
  0
TABLE
  2
STYLE
 70
     3
  0
STYLE
  2
STANDARD
 70
     0
 40
5.0
 41
1.0
 50
0.0
 71
     0
 42
5.0
  3
txt.shx
  4
whgtxt.shx
  0
STYLE
  2
BIG
 70
     0
 40
20.0
 41
1.0
 50
0.0
 71
     0
 42
2.5
  3
txt
  4

  0
ENDTAB
  0
TABLE
  2
VIEW
 70
     0
  0
ENDTAB
  0
TABLE
  2
UCS
 70
     0
  0
ENDTAB
  0
TABLE
  2
APPID
 70
    10
  0
APPID
  2
ACAD
 70
     0
  0
APPID
  2
ACADANNOTATIVE
 70
     0
  0
APPID
  2
ACAD_EXEMPT_FROM_CAD_STANDARDS
 70
     0
  0
APPID
  2
ACAD_DSTYLE_DIMJOGGED_JOGA
 70
     0
  0
APPID
  2
ACAD_PSEXT
 70
     0
  0
APPID
  2
ACAECLAYERSTANDARD
 70
     0
  0
APPID
  2
DCO15
 70
     0
  0
APPID
  2
CONTENTBLOCKICON
 70
     0
  0
APPID
  2
ACAD_NAV_VCDISPLAY
 70
     0
  0
APPID
  2
ACAD_MLEADERVER
 70
     0
  0
ENDTAB
  0
TABLE
  2
DIMSTYLE
 70
     3
  0
DIMSTYLE
  2
DUKITEC
 70
     0
  3

  4

  5

  6

  7

 40
1.0
 41
3.0
 42
1.0
 43
0.0
 44
1.0
 45
0.0
 46
0.0
 47
0.0
 48
0.0
140
3.0
141
0.0
142
0.0
143
25.399999999999999
144
1.0
145
0.0
146
1.0
147
1.0
 71
     0
 72
     0
 73
     0
 74
     0
 75
     0
 76
     0
 77
     1
 78
     8
170
     0
171
     2
172
     1
173
     0
174
     1
175
     0
176
     5
177
     5
178
     0
  0
ENDTAB
  0
ENDSEC
  0
SECTION
  2
BLOCKS
  0
BLOCK
  8
0
  2
$MODEL_SPACE
 70
     0
 10
0.0
 20
0.0
 30
0.0
  3
$MODEL_SPACE
  1

  0
ENDBLK
  5
140D0
  8
0
  0
BLOCK
 67
     1
  8
0
  2
$PAPER_SPACE
 70
     0
 10
0.0
 20
0.0
 30
0.0
  3
$PAPER_SPACE
  1

  0
ENDBLK
  5
140CC
 67
     1
  8
0
  0
ENDSEC
  0
SECTION
  2
ENTITIES
  0
POLYLINE
  5
13E1C
  8
0
 66
     1
 10
0.0
 20
0.0
 30
0.0
 70
     1
  0
VERTEX
  5
1432E
  8
0
 10
1903.0405749290021
 20
1433.173578249188
 30
0.0
  0
VERTEX
  5
1432F
  8
0
 10
1903.0405749290021
 20
1748.173578249188
 30
0.0
  0
VERTEX
  5
14330
  8
0
 10
2348.540574929003
 20
1748.173578249188
 30
0.0
  0
VERTEX
  5
14331
  8
0
 10
2348.540574929003
 20
1433.173578249188
 30
0.0
  0
VERTEX
  5
14332
  8
0
 10
1903.0405749290021
 20
1433.173578249188
 30
0.0
  0
SEQEND
  5
14333
  8
0
  0
TEXT
  5
14030
  8
0
 10
2115.285027341597
 20
1458.570330313044
 30
0.0
 40
20.0
  1
EK 25
  7
BIG
  0
LINE
  5
14149
  8
HIDE
 10
2005.4316413415961
 20
1545.9154919264399
 30
0.0
 11
2005.4316413415961
 21
1520.9154919264399
 31
0.0
  0
LINE
  5
1414A
  8
HIDE
 10
2007.031641341596
 20
1545.9154919264399
 30
0.0
 11
2007.031641341596
 21
1520.9154919264399
 31
0.0
  0
LINE
  5
1414B
  8
HIDE
 10
2014.8316413415951
 20
1545.9154919264399
 30
0.0
 11
2014.8316413415951
 21
1520.9154919264399
 31
0.0
  0
LINE
  5
1414C
  8
HIDE
 10
2016.4316413415961
 20
1545.9154919264399
 30
0.0
 11
2016.4316413415961
 21
1520.9154919264399
 31
0.0
  0
LINE
  5
1414D
  8
HIDE
 10
2099.831641341596
 20
1545.9154919264399
 30
0.0
 11
2099.831641341596
 21
1520.9154919264399
 31
0.0
  0
LINE
  5
1414E
  8
HIDE
 10
2092.0316413415972
 20
1545.9154919264399
 30
0.0
 11
2092.0316413415972
 21
1520.9154919264399
 31
0.0
  0
LINE
  5
1414F
  8
HIDE
 10
2101.4316413415959
 20
1545.9154919264399
 30
0.0
 11
2101.4316413415959
 21
1520.9154919264399
 31
0.0
  0
LINE
  5
14150
  8
HIDE
 10
2090.4316413415959
 20
1545.9154919264399
 30
0.0
 11
2090.4316413415959
 21
1520.9154919264399
 31
0.0
  0
LINE
  5
14151
  8
CENTER
 10
2095.9316413415959
 20
1548.5398059264401
 30
0.0
 11
2095.9316413415959
 21
1518.1147849264401
 31
0.0
  0
LINE
  5
14152
  8
CENTER
 10
2010.9316413415961
 20
1548.5398059264401
 30
0.0
 11
2010.9316413415961
 21
1518.1147849264401
 31
0.0
  0
LINE
  5
14153
  8
0
 10
2086.4316413415959
 20
1585.9154919264399
 30
0.0
 11
2083.4316413415959
 21
1588.9154919264399
 31
0.0
  0
LINE
  5
14154
  8
0
 10
2020.4316413415961
 20
1585.9154919264399
 30
0.0
 11
2023.4316413415961
 21
1588.9154919264399
 31
0.0
  0
LINE
  5
14155
  8
0
 10
2083.4316413415959
 20
1588.9154919264399
 30
0.0
 11
2023.4316413415961
 21
1588.9154919264399
 31
0.0
  0
LINE
  5
14156
  8
0
 10
2020.4316413415961
 20
1545.9154919264399
 30
0.0
 11
2000.9316413415961
 21
1545.9154919264399
 31
0.0
  0
LINE
  5
14157
  8
0
 10
2105.9316413415959
 20
1545.9154919264399
 30
0.0
 11
2086.4316413415959
 21
1545.9154919264399
 31
0.0
  0
LINE
  5
14158
  8
0
 10
2105.9316413415959
 20
1520.9154919264399
 30
0.0
 11
2000.9316413415961
 21
1520.9154919264399
 31
0.0
  0
LINE
  5
14159
  8
0
 10
2000.9316413415961
 20
1545.9154919264399
 30
0.0
 11
2000.9316413415961
 21
1520.9154919264399
 31
0.0
  0
LINE
  5
1415A
  8
0
 10
2105.9316413415959
 20
1545.9154919264399
 30
0.0
 11
2105.9316413415959
 21
1520.9154919264399
 31
0.0
  0
LINE
  5
1415B
  8
0
 10
2084.4316413415959
 20
1582.91684692644
 30
0.0
 11
2084.4316413415959
 21
1530.91101692644
 31
0.0
  0
LINE
  5
1415C
  8
0
 10
2022.4316413415961
 20
1582.91151192644
 30
0.0
 11
2022.4316413415961
 21
1530.91636992644
 31
0.0
  0
CIRCLE
  5
1415D
  8
0
 10
2053.4316413415959
 20
1556.9165719264399
 30
0.0
 40
23.0
  0
ARC
  5
1415E
  8
CENTER
 10
2053.4316413415959
 20
1556.9165719264399
 30
0.0
 40
31.499977000000001
 50
27.474285999999012
 51
61.337995000018331
  0
ARC
  5
1415F
  8
CENTER
 10
2053.4316413415959
 20
1556.9165719264399
 30
0.0
 40
31.499977000000001
 50
119.22799999997881
 51
151.03985000003371
  0
ARC
  5
14160
  8
CENTER
 10
2053.4316413415959
 20
1556.9165719264399
 30
0.0
 40
31.499977000000001
 50
208.26155999999909
 51
241.6128200000164
  0
CIRCLE
  5
14161
  8
0
 10
2075.704590341596
 20
1579.1909709264401
 30
0.0
 40
5.333625999999998
  0
ARC
  5
14162
  8
CENTER
 10
2053.4316413415959
 20
1556.9165719264399
 30
0.0
 40
31.499977000000001
 50
299.52599999998171
 51
331.40056000000692
  0
CIRCLE
  5
14163
  8
0
 10
2075.7064213415961
 20
1534.6436079264399
 30
0.0
 40
5.333625999999998
  0
CIRCLE
  5
14164
  8
0
 10
2031.1590583415959
 20
1534.64166992644
 30
0.0
 40
5.333625999999998
  0
CIRCLE
  5
14165
  8
0
 10
2031.1572273415959
 20
1579.1895059264391
 30
0.0
 40
5.333625999999998
  0
LINE
  5
14166
  8
0
 10
2027.431397341596
 20
1587.9165719264399
 30
0.0
 11
2079.431519341595
 21
1587.9165719264399
 31
0.0
  0
LINE
  5
14167
  8
0
 10
2078.6828603415952
 20
1578.3913509264401
 30
0.0
 11
2077.8858363415961
 21
1581.3658899264401
 31
0.0
  0
LINE
  5
14168
  8
0
 10
2073.5311003415959
 20
1577.01093992644
 30
0.0
 11
2072.7340743415962
 21
1579.98547892644
 31
0.0
  0
LINE
  5
14169
  8
0
 10
2077.8880413415959
 20
1581.3660539264399
 30
0.0
 11
2074.9131513415959
 21
1582.16317492644
 31
0.0
  0
LINE
  5
1416A
  8
0
 10
2076.507632341596
 20
1576.2142999264399
 30
0.0
 11
2073.5327423415961
 21
1577.01142092644
 31
0.0
  0
LINE
  5
1416B
  8
0
 10
2084.4316413415959
 20
1530.91101692644
 30
0.0
 11
2079.4346093415961
 21
1525.91386892644
 31
0.0
  0
LINE
  5
1416C
  8
0
 10
2022.4316413415961
 20
1530.91636992644
 30
0.0
 11
2027.431851341596
 21
1525.9165719264399
 31
0.0
  0
LINE
  5
1416D
  8
0
 10
2027.4336993415959
 20
1587.9141229264401
 30
0.0
 11
2022.4316413415961
 21
1582.91151192644
 31
0.0
  0
LINE
  5
1416E
  8
0
 10
2074.9126553415958
 20
1582.1612939264401
 30
0.0
 11
2072.7347053415961
 21
1579.9833439264401
 31
0.0
  0
LINE
  5
1416F
  8
CENTER
 10
2081.3662783415962
 20
1584.84408292644
 30
0.0
 11
2070.0522393415959
 21
1573.5300459264399
 31
0.0
  0
LINE
  5
14170
  8
0
 10
2074.9095163415959
 20
1531.6669739264401
 30
0.0
 11
2077.884053341596
 21
1532.46399792644
 31
0.0
  0
LINE
  5
14171
  8
0
 10
2073.5291053415958
 20
1536.8187349264399
 30
0.0
 11
2076.5036423415968
 21
1537.6157599264391
 31
0.0
  0
LINE
  5
14172
  8
0
 10
2077.8880893415958
 20
1532.46341292644
 30
0.0
 11
2078.6851513415968
 21
1535.4380829264401
 31
0.0
  0
LINE
  5
14173
  8
0
 10
2078.684266341596
 20
1578.3896839264401
 30
0.0
 11
2076.5063163415962
 21
1576.21173392644
 31
0.0
  0
LINE
  5
14174
  8
0
 10
2072.736329341596
 20
1533.8438219264399
 30
0.0
 11
2073.5333893415959
 21
1536.8184919264399
 31
0.0
  0
LINE
  5
14175
  8
0
 10
2074.9117953415962
 20
1531.6641229264401
 30
0.0
 11
2072.7340233415962
 21
1533.841894926441
 31
0.0
  0
LINE
  5
14176
  8
0
 10
2028.1869473415959
 20
1535.44116492644
 30
0.0
 11
2028.984003341596
 21
1532.46651192644
 31
0.0
  0
LINE
  5
14177
  8
0
 10
2033.338709341597
 20
1536.8215769264391
 30
0.0
 11
2034.135765341596
 21
1533.8469209264399
 31
0.0
  0
LINE
  5
14178
  8
0
 10
2078.6834783415961
 20
1535.43580592644
 30
0.0
 11
2076.5057053415958
 21
1537.61357792644
 31
0.0
  0
LINE
  5
14179
  8
0
 10
2028.985686341596
 20
1532.4633709264399
 30
0.0
 11
2031.9602253415951
 21
1531.6663449264399
 31
0.0
  0
LINE
  5
1417A
  8
0
 10
2031.9578213415959
 20
1531.6647939264401
 30
0.0
 11
2034.135771341596
 21
1533.8427439264401
 31
0.0
  0
LINE
  5
1417B
  8
0
 10
2028.1862133415959
 20
1535.43640492644
 30
0.0
 11
2030.3641613415959
 21
1537.61435492644
 31
0.0
  0
LINE
  5
1417C
  8
CENTER
 10
2025.504183341596
 20
1528.9819899264401
 30
0.0
 11
2036.8182343415961
 21
1540.2960409264399
 31
0.0
  0
LINE
  5
1417D
  8
0
 10
2031.9604323415961
 20
1582.1649659264399
 30
0.0
 11
2028.9858943415959
 21
1581.3679419264399
 31
0.0
  0
LINE
  5
1417E
  8
0
 10
2030.3660913415961
 20
1537.61510992644
 30
0.0
 11
2033.3406283415959
 21
1536.8180839264401
 31
0.0
  0
LINE
  5
1417F
  8
0
 10
2033.340842341596
 20
1577.0132039264399
 30
0.0
 11
2030.366305341596
 21
1576.21617992644
 31
0.0
  0
LINE
  5
14180
  8
0
 10
2034.1369633415959
 20
1579.9853949264391
 30
0.0
 11
2033.339909341596
 21
1577.0107469264401
 31
0.0
  0
LINE
  5
14181
  8
0
 10
2028.186987341596
 20
1578.39029092644
 30
0.0
 11
2030.3647583415959
 21
1576.2125199264401
 31
0.0
  0
LINE
  5
14182
  8
0
 10
2031.958685341596
 20
1582.16198892644
 30
0.0
 11
2034.1364563415959
 21
1579.9842199264399
 31
0.0
  0
LINE
  5
14183
  8
0
 10
2028.9852033415959
 20
1581.3658059264401
 30
0.0
 11
2028.188147341596
 21
1578.39115792644
 31
0.0
  0
LINE
  5
14184
  8
CENTER
 10
2016.4316413415961
 20
1555.9154919264399
 30
0.0
 11
2090.4316413415959
 21
1555.9154919264399
 31
0.0
  0
LINE
  5
14185
  8
CENTER
 10
2053.4316413415959
 20
1591.7533829264401
 30
0.0
 11
2053.4316413415959
 21
1518.1147849264401
 31
0.0
  0
LINE
  5
14186
  8
CENTER
 10
2025.6476276747419
 20
1584.700676593294
 30
0.0
 11
2035.8372503415969
 21
1574.5110539264399
 31
0.0
  0
LINE
  5
14187
  8
CENTER
 10
2080.6231857627631
 20
1529.727190505273
 30
0.0
 11
2071.0386763415959
 21
1539.31169992644
 31
0.0
  0
LINE
  5
14188
  8
0
 10
2020.4316413415961
 20
1585.9154919264399
 30
0.0
 11
2020.4316413415961
 21
1545.9154919264399
 31
0.0
  0
LINE
  5
14189
  8
0
 10
2086.4316413415959
 20
1585.9154919264399
 30
0.0
 11
2086.4316413415959
 21
1545.9154919264399
 31
0.0
  0
LINE
  5
1418A
  8
0
 10
2079.4343783415961
 20
1587.913445926441
 30
0.0
 11
2084.4316413415959
 21
1582.91684692644
 31
0.0
  0
LINE
  5
1418B
  8
0
 10
2027.431851341596
 20
1525.9165719264399
 30
0.0
 11
2079.4318853415962
 21
1525.9165719264399
 31
0.0
  0
ARC
  5
1418C
  8
0
 10
2053.4316413415959
 20
1555.9154919264399
 30
0.0
 40
19.0
 50
71.525352016555729
 51
108.4746479834442
  0
ARC
  5
1418D
  8
0
 10
2053.4316413415959
 20
1555.9154919264399
 30
0.0
 40
19.0
 50
161.52535201660919
 51
198.4746479833907
  0
ARC
  5
1418E
  8
0
 10
2053.4316413415959
 20
1555.9154919264399
 30
0.0
 40
19.0
 50
251.52535201655579
 51
288.4746479834443
  0
ARC
  5
1418F
  8
0
 10
2053.4316413415959
 20
1555.9154919264399
 30
0.0
 40
19.0
 50
341.5253520166093
 51
18.47464798339071
  0
POLYLINE
  5
14190
  8
0
 66
     1
 10
0.0
 20
0.0
 30
0.0
  0
VERTEX
  5
14370
  8
0
 10
2047.4108260614239
 20
1573.9363072066101
 30
0.0
  0
VERTEX
  5
14371
  8
0
 10
2035.4108260614239
 20
1561.936307206611
 30
0.0
  0
SEQEND
  5
14372
  8
0
  0
POLYLINE
  5
14191
  8
0
 66
     1
 10
0.0
 20
0.0
 30
0.0
  0
VERTEX
  5
14373
  8
0
 10
2035.4108260614239
 20
1549.8946766462691
 30
0.0
  0
VERTEX
  5
14374
  8
0
 10
2047.4108260614239
 20
1537.894676646268
 30
0.0
  0
SEQEND
  5
14375
  8
0
  0
POLYLINE
  5
14192
  8
0
 66
     1
 10
0.0
 20
0.0
 30
0.0
  0
VERTEX
  5
14376
  8
0
 10
2059.4524566217679
 20
1537.894676646268
 30
0.0
  0
VERTEX
  5
14377
  8
0
 10
2071.4524566217669
 20
1549.894676646267
 30
0.0
  0
SEQEND
  5
14378
  8
0
  0
POLYLINE
  5
14193
  8
0
 66
     1
 10
0.0
 20
0.0
 30
0.0
  0
VERTEX
  5
14379
  8
0
 10
2071.4524566217669
 20
1561.9363072066101
 30
0.0
  0
VERTEX
  5
1437A
  8
0
 10
2059.4524566217679
 20
1573.936307206608
 30
0.0
  0
SEQEND
  5
1437B
  8
0
  0
ARC
  5
14194
  8
HIDE
 10
2053.4316413415959
 20
1555.9154919264399
 30
0.0
 40
12.5
 50
270.0
 51
180.0
  0
CIRCLE
  5
14195
  8
0
 10
2053.4316413415959
 20
1555.9154919264399
 30
0.0
 40
11.75
  0
LINE
  5
14198
  8
HIDE
 10
2050.4316413415959
 20
1574.677154965734
 30
0.0
 11
2050.4316413415959
 21
1567.2760596939411
 31
0.0
  0
LINE
  5
14199
  8
HIDE
 10
2050.9316413415959
 20
1574.7503001282771
 30
0.0
 11
2050.9316413415959
 21
1567.396454429645
 31
0.0
  0
LINE
  5
1419A
  8
HIDE
 10
2056.4316413415959
 20
1574.677154965734
 30
0.0
 11
2056.4316413415959
 21
1567.276059693942
 31
0.0
  0
LINE
  5
1419B
  8
HIDE
 10
2055.9316413415959
 20
1574.7503001282771
 30
0.0
 11
2055.9316413415959
 21
1567.396454429645
 31
0.0
  0
LINE
  5
1419C
  8
HIDE
 10
2050.4316413415959
 20
1574.620246232633
 30
0.0
 11
2056.4316413415959
 21
1574.620246232633
 31
0.0
  0
LINE
  5
1419D
  8
HIDE
 10
2050.4316413415959
 20
1569.620246232633
 30
0.0
 11
2056.4316413415959
 21
1569.620246232633
 31
0.0
  0
LINE
  5
1419E
  8
HIDE
 10
2050.4316413415959
 20
1569.620246232633
 30
0.0
 11
2050.9316413415959
 21
1569.3315710980389
 31
0.0
  0
LINE
  5
1419F
  8
HIDE
 10
2056.4316413415959
 20
1569.620246232633
 30
0.0
 11
2055.9316413415959
 21
1569.3315710980389
 31
0.0
  0
LINE
  5
141A0
  8
HIDE
 10
2055.9316413415959
 20
1569.3315710980389
 30
0.0
 11
2050.9316413415959
 21
1569.3315710980389
 31
0.0
  0
LINE
  5
141A1
  8
HIDE
 10
2050.4316413415959
 20
1537.1538288871459
 30
0.0
 11
2050.4316413415959
 21
1544.554924158939
 31
0.0
  0
LINE
  5
141A2
  8
HIDE
 10
2050.9316413415959
 20
1537.0806837246021
 30
0.0
 11
2050.9316413415959
 21
1544.4345294232351
 31
0.0
  0
LINE
  5
141A3
  8
HIDE
 10
2056.4316413415959
 20
1537.1538288871459
 30
0.0
 11
2056.4316413415959
 21
1544.5549241589381
 31
0.0
  0
LINE
  5
141A4
  8
HIDE
 10
2055.9316413415959
 20
1537.0806837246021
 30
0.0
 11
2055.9316413415959
 21
1544.4345294232351
 31
0.0
  0
LINE
  5
141A5
  8
HIDE
 10
2050.4316413415959
 20
1537.2107376202471
 30
0.0
 11
2056.4316413415959
 21
1537.2107376202471
 31
0.0
  0
LINE
  5
141A6
  8
HIDE
 10
2050.4316413415959
 20
1542.2107376202471
 30
0.0
 11
2056.4316413415959
 21
1542.2107376202471
 31
0.0
  0
LINE
  5
141A7
  8
HIDE
 10
2050.4316413415959
 20
1542.2107376202471
 30
0.0
 11
2050.9316413415959
 21
1542.4994127548409
 31
0.0
  0
LINE
  5
141A8
  8
HIDE
 10
2056.4316413415959
 20
1542.2107376202471
 30
0.0
 11
2055.9316413415959
 21
1542.4994127548409
 31
0.0
  0
LINE
  5
141A9
  8
HIDE
 10
2055.9316413415959
 20
1542.4994127548409
 30
0.0
 11
2050.9316413415959
 21
1542.4994127548409
 31
0.0
  0
LINE
  5
141AC
  8
HIDE
 10
2168.7509058142341
 20
1543.4154919264399
 30
0.0
 11
2182.7509058142359
 21
1543.4154919264399
 31
0.0
  0
LINE
  5
141AD
  8
HIDE
 10
2212.7509058142341
 20
1543.4154919264399
 30
0.0
 11
2226.750905814235
 21
1543.4154919264399
 31
0.0
  0
LINE
  5
141AE
  8
HIDE
 10
2168.7509058142341
 20
1568.4154919264399
 30
0.0
 11
2182.7509058142359
 21
1568.4154919264399
 31
0.0
  0
LINE
  5
141AF
  8
HIDE
 10
2212.7509058142341
 20
1568.4154919264399
 30
0.0
 11
2226.750905814235
 21
1568.4154919264399
 31
0.0
  0
LINE
  5
141B0
  8
0
 10
2165.750905814235
 20
1525.9154769264401
 30
0.0
 11
2178.750905814235
 21
1525.9154769264401
 31
0.0
  0
LINE
  5
141B1
  8
0
 10
2165.750905814235
 20
1587.9165719264399
 30
0.0
 11
2178.750905814235
 21
1587.9165719264399
 31
0.0
  0
LINE
  5
141B2
  8
0
 10
2226.750905814235
 20
1588.9154919264399
 30
0.0
 11
2226.750905814235
 21
1520.91546192644
 31
0.0
  0
LINE
  5
141B3
  8
CENTER
 10
2151.8401810333949
 20
1555.9154609264399
 30
0.0
 11
2229.9736036749391
 21
1555.9154609264399
 31
0.0
  0
LINE
  5
141B4
  8
HIDE
 10
2168.7509058142341
 20
1571.1654609264399
 30
0.0
 11
2182.750905814235
 21
1571.1654609264399
 31
0.0
  0
LINE
  5
141B5
  8
HIDE
 10
2212.750905814235
 20
1571.1654609264399
 30
0.0
 11
2226.7509058142359
 21
1571.1654609264399
 31
0.0
  0
LINE
  5
141B6
  8
HIDE
 10
2168.7509058142341
 20
1540.665460926439
 30
0.0
 11
2182.750905814235
 21
1540.665460926439
 31
0.0
  0
LINE
  5
141B7
  8
HIDE
 10
2212.750905814235
 20
1540.665460926439
 30
0.0
 11
2226.7509058142359
 21
1540.6654609264399
 31
0.0
  0
LINE
  5
141B8
  8
0
 10
2178.750905814235
 20
1588.9154919264399
 30
0.0
 11
2226.750905814235
 21
1588.9154919264399
 31
0.0
  0
LINE
  5
141B9
  8
0
 10
2178.750905814235
 20
1520.91546192644
 30
0.0
 11
2226.750905814235
 21
1520.91546192644
 31
0.0
  0
LINE
  5
141BA
  8
0
 10
2178.750905814235
 20
1588.9154919264399
 30
0.0
 11
2178.750905814235
 21
1520.91546192644
 31
0.0
  0
LINE
  5
141BB
  8
0
 10
2165.750905814235
 20
1587.9165719264399
 30
0.0
 11
2165.750905814235
 21
1525.9154769264401
 31
0.0
  0
LINE
  5
141BC
  8
0
 10
2178.750905814235
 20
1585.9137369264399
 30
0.0
 11
2226.750905814235
 21
1585.9137369264399
 31
0.0
  0
LINE
  5
141BD
  8
0
 10
2178.750905814235
 20
1545.91598792644
 30
0.0
 11
2226.750905814235
 21
1545.91598792644
 31
0.0
  0
CIRCLE
  5
141BE
  8
HIDE
 10
2205.250905814235
 20
1536.6654609264399
 30
0.0
 40
4.049999999999998
  0
CIRCLE
  5
141BF
  8
HIDE
 10
2205.250905814235
 20
1575.1654609264399
 30
0.0
 40
4.049999999999998
  0
CIRCLE
  5
141C0
  8
HIDE
 10
2190.250905814235
 20
1536.6654609264399
 30
0.0
 40
4.0499999999999989
  0
CIRCLE
  5
141C1
  8
HIDE
 10
2190.250905814235
 20
1575.1654609264399
 30
0.0
 40
4.0499999999999989
  0
ARC
  5
141C2
  8
HIDE
 10
2197.150905814236
 20
1581.31546092644
 30
0.0
 40
0.5999999999999996
 50
0.0
 51
90.0
  0
ARC
  5
141C3
  8
HIDE
 10
2183.750905814235
 20
1580.9154609264399
 30
0.0
 40
1.0
 50
90.0
 51
180.0
  0
ARC
  5
141C4
  8
HIDE
 10
2196.750905814235
 20
1569.4154609264399
 30
0.0
 40
1.0
 50
270.0
 51
0.0
  0
ARC
  5
141C5
  8
HIDE
 10
2196.750905814235
 20
1542.4154609264399
 30
0.0
 40
1.0
 50
0.0
 51
90.0
  0
ARC
  5
141C6
  8
HIDE
 10
2183.3509058142349
 20
1569.01546092644
 30
0.0
 40
0.6000000000000015
 50
180.0
 51
270.0
  0
ARC
  5
141C7
  8
HIDE
 10
2183.3509058142349
 20
1542.81546092644
 30
0.0
 40
0.5999999999999996
 50
90.0
 51
180.0
  0
ARC
  5
141C8
  8
HIDE
 10
2197.150905814236
 20
1530.51546092644
 30
0.0
 40
0.6000000000000015
 50
270.0
 51
0.0
  0
ARC
  5
141C9
  8
HIDE
 10
2183.750905814235
 20
1530.9154609264399
 30
0.0
 40
1.0
 50
180.0
 51
270.0
  0
LINE
  5
141CA
  8
HIDE
 10
2182.750905814235
 20
1576.8654609264399
 30
0.0
 11
2186.574970559092
 21
1576.8654609264399
 31
0.0
  0
LINE
  5
141CB
  8
HIDE
 10
2183.750905814235
 20
1581.9154609264399
 30
0.0
 11
2197.150905814236
 21
1581.9154609264399
 31
0.0
  0
LINE
  5
141CC
  8
HIDE
 10
2197.750905814235
 20
1573.3654609264399
 30
0.0
 11
2193.8789218009701
 21
1573.3654609264399
 31
0.0
  0
LINE
  5
141CD
  8
HIDE
 10
2191.7424993151781
 20
1578.930782802182
 30
0.0
 11
2197.750905814235
 21
1579.4154609264399
 31
0.0
  0
LINE
  5
141CE
  8
HIDE
 10
2182.750905814235
 20
1573.3654609264399
 30
0.0
 11
2186.6228898275008
 21
1573.3654609264399
 31
0.0
  0
LINE
  5
141CF
  8
HIDE
 10
2182.750905814235
 20
1538.4654609264401
 30
0.0
 11
2186.6228898275008
 21
1538.4654609264401
 31
0.0
  0
LINE
  5
141D0
  8
HIDE
 10
2183.3509058142349
 20
1568.4154609264399
 30
0.0
 11
2196.750905814235
 21
1568.4154609264399
 31
0.0
  0
LINE
  5
141D1
  8
HIDE
 10
2183.3509058142349
 20
1543.4154609264399
 30
0.0
 11
2196.750905814235
 21
1543.4154609264399
 31
0.0
  0
LINE
  5
141D2
  8
HIDE
 10
2197.750905814235
 20
1538.4654609264401
 30
0.0
 11
2193.8789218009701
 21
1538.4654609264401
 31
0.0
  0
LINE
  5
141D3
  8
HIDE
 10
2182.750905814235
 20
1534.9654609264401
 30
0.0
 11
2186.574970559092
 21
1534.9654609264401
 31
0.0
  0
LINE
  5
141D4
  8
HIDE
 10
2197.150905814236
 20
1529.9154609264399
 30
0.0
 11
2183.750905814235
 21
1529.9154609264399
 31
0.0
  0
LINE
  5
141D5
  8
HIDE
 10
2191.7424993151781
 20
1532.9001390506969
 30
0.0
 11
2197.750905814235
 21
1532.4154609264399
 31
0.0
  0
LINE
  5
141D6
  8
HIDE
 10
2182.750905814235
 20
1530.9154609264399
 30
0.0
 11
2182.750905814235
 21
1580.9154609264399
 31
0.0
  0
LINE
  5
141D7
  8
HIDE
 10
2197.750905814235
 20
1581.31546092644
 30
0.0
 11
2197.750905814235
 21
1530.51546092644
 31
0.0
  0
LINE
  5
141D8
  8
HIDE
 10
2186.3645963663448
 20
1576.8654609264399
 30
0.0
 11
2186.825661944597
 21
1577.3265265046909
 31
0.0
  0
ARC
  5
141D9
  8
HIDE
 10
2198.3509058142349
 20
1530.51546092644
 30
0.0
 40
0.5999999999999996
 50
180.0
 51
270.0
  0
ARC
  5
141DA
  8
HIDE
 10
2211.750905814235
 20
1530.9154609264399
 30
0.0
 40
1.0
 50
270.0
 51
0.0
  0
ARC
  5
141DB
  8
HIDE
 10
2198.750905814235
 20
1542.4154609264399
 30
0.0
 40
1.0
 50
90.0
 51
180.0
  0
ARC
  5
141DC
  8
HIDE
 10
2198.750905814235
 20
1569.4154609264399
 30
0.0
 40
1.0
 50
180.0
 51
270.0
  0
ARC
  5
141DD
  8
HIDE
 10
2212.1509058142351
 20
1542.81546092644
 30
0.0
 40
0.6
 50
0.0
 51
90.0
  0
ARC
  5
141DE
  8
HIDE
 10
2212.1509058142351
 20
1569.01546092644
 30
0.0
 40
0.5999999999999996
 50
270.0
 51
0.0
  0
ARC
  5
141DF
  8
HIDE
 10
2198.3509058142349
 20
1581.3154609264409
 30
0.0
 40
0.6000000000000015
 50
90.0
 51
180.0
  0
ARC
  5
141E0
  8
HIDE
 10
2211.750905814235
 20
1580.9154609264399
 30
0.0
 40
1.0
 50
0.0
 51
90.0
  0
LINE
  5
141E1
  8
HIDE
 10
2212.750905814235
 20
1534.9654609264401
 30
0.0
 11
2208.926841069378
 21
1534.9654609264401
 31
0.0
  0
LINE
  5
141E2
  8
HIDE
 10
2211.750905814235
 20
1529.9154609264399
 30
0.0
 11
2198.3509058142349
 21
1529.9154609264399
 31
0.0
  0
LINE
  5
141E3
  8
HIDE
 10
2197.750905814235
 20
1538.4654609264401
 30
0.0
 11
2201.6228898275008
 21
1538.4654609264401
 31
0.0
  0
LINE
  5
141E4
  8
HIDE
 10
2203.7593123132929
 20
1532.9001390506969
 30
0.0
 11
2197.750905814235
 21
1532.4154609264399
 31
0.0
  0
LINE
  5
141E5
  8
HIDE
 10
2212.750905814235
 20
1538.4654609264401
 30
0.0
 11
2208.8789218009701
 21
1538.4654609264401
 31
0.0
  0
LINE
  5
141E6
  8
HIDE
 10
2212.750905814235
 20
1573.3654609264399
 30
0.0
 11
2208.8789218009701
 21
1573.3654609264399
 31
0.0
  0
LINE
  5
141E7
  8
HIDE
 10
2212.1509058142351
 20
1543.4154609264399
 30
0.0
 11
2198.750905814235
 21
1543.4154609264399
 31
0.0
  0
LINE
  5
141E8
  8
HIDE
 10
2212.1509058142351
 20
1568.4154609264399
 30
0.0
 11
2198.750905814235
 21
1568.4154609264399
 31
0.0
  0
LINE
  5
141E9
  8
HIDE
 10
2197.750905814235
 20
1573.3654609264399
 30
0.0
 11
2201.6228898275008
 21
1573.3654609264399
 31
0.0
  0
LINE
  5
141EA
  8
HIDE
 10
2212.750905814235
 20
1576.8654609264399
 30
0.0
 11
2208.926841069378
 21
1576.8654609264399
 31
0.0
  0
LINE
  5
141EB
  8
HIDE
 10
2198.3509058142349
 20
1581.9154609264399
 30
0.0
 11
2211.7509058142359
 21
1581.9154609264399
 31
0.0
  0
LINE
  5
141EC
  8
HIDE
 10
2203.7593123132929
 20
1578.9307828021831
 30
0.0
 11
2197.7509058142359
 21
1579.4154609264399
 31
0.0
  0
LINE
  5
141ED
  8
HIDE
 10
2212.750905814235
 20
1580.9154609264399
 30
0.0
 11
2212.750905814235
 21
1530.9154609264399
 31
0.0
  0
LINE
  5
141EE
  8
HIDE
 10
2208.676149683874
 20
1577.3265265046921
 30
0.0
 11
2209.1372152621261
 21
1576.8654609264399
 31
0.0
  0
LINE
  5
141EF
  8
HIDE
 10
2168.750905814235
 20
1572.4154609264399
 30
0.0
 11
2168.750905814235
 21
1539.4154609264399
 31
0.0
  0
LINE
  5
141F0
  8
CENTER
 10
2162.750905814235
 20
1576.4220051122129
 30
0.0
 11
2162.750905814235
 21
1565.8908225977571
 31
0.0
  0
LINE
  5
141F1
  8
HIDE
 10
2165.750905814235
 20
1574.9154609264399
 30
0.0
 11
2165.750905814235
 21
1567.665460926441
 31
0.0
  0
LINE
  5
141F2
  8
HIDE
 10
2165.250905814235
 20
1574.9154609264399
 30
0.0
 11
2165.250905814235
 21
1567.665460926441
 31
0.0
  0
LINE
  5
141F3
  8
HIDE
 10
2159.750905814235
 20
1574.9154609264399
 30
0.0
 11
2159.750905814235
 21
1567.6654609264399
 31
0.0
  0
LINE
  5
141F4
  8
HIDE
 10
2160.250905814235
 20
1574.9154609264399
 30
0.0
 11
2160.250905814235
 21
1567.6654609264399
 31
0.0
  0
LINE
  5
141F5
  8
HIDE
 10
2168.250905814235
 20
1574.9154609264399
 30
0.0
 11
2168.250905814235
 21
1536.9154609264399
 31
0.0
  0
LINE
  5
141F6
  8
0
 10
2156.750905814235
 20
1574.9154609264399
 30
0.0
 11
2156.750905814235
 21
1536.9154609264399
 31
0.0
  0
LINE
  5
141F7
  8
0
 10
2165.750905814235
 20
1574.9154609264399
 30
0.0
 11
2156.750905814235
 21
1574.9154609264399
 31
0.0
  0
LINE
  5
141F9
  8
HIDE
 10
2168.750905814235
 20
1572.4154609264399
 30
0.0
 11
2168.250905814235
 21
1572.7041360610331
 31
0.0
  0
LINE
  5
141FA
  8
HIDE
 10
2168.750905814235
 20
1567.665460926441
 30
0.0
 11
2156.750905814235
 21
1567.6654609264399
 31
0.0
  0
LINE
  5
141FB
  8
HIDE
 10
2168.750905814235
 20
1568.4154609264399
 30
0.0
 11
2156.750905814235
 21
1568.4154609264399
 31
0.0
  0
LINE
  5
141FC
  8
0
 10
2165.750905814235
 20
1561.9362762066121
 30
0.0
 11
2156.750905814235
 21
1561.9362762066121
 31
0.0
  0
LINE
  5
141FD
  8
HIDE
 10
2165.750905814235
 20
1574.620215232633
 30
0.0
 11
2159.750905814235
 21
1574.620215232633
 31
0.0
  0
LINE
  5
141FE
  8
HIDE
 10
2165.750905814235
 20
1569.620215232633
 30
0.0
 11
2159.750905814235
 21
1569.620215232633
 31
0.0
  0
LINE
  5
141FF
  8
HIDE
 10
2165.750905814235
 20
1569.620215232633
 30
0.0
 11
2165.250905814235
 21
1569.3315400980391
 31
0.0
  0
LINE
  5
14200
  8
HIDE
 10
2159.750905814235
 20
1569.620215232633
 30
0.0
 11
2160.250905814235
 21
1569.3315400980391
 31
0.0
  0
LINE
  5
14201
  8
HIDE
 10
2160.250905814235
 20
1569.3315400980391
 30
0.0
 11
2165.250905814235
 21
1569.3315400980391
 31
0.0
  0
LINE
  5
14202
  8
CENTER
 10
2162.750905814235
 20
1535.4089167406671
 30
0.0
 11
2162.750905814235
 21
1545.940099255123
 31
0.0
  0
LINE
  5
14203
  8
HIDE
 10
2165.750905814235
 20
1536.9154609264399
 30
0.0
 11
2165.750905814235
 21
1544.165460926439
 31
0.0
  0
LINE
  5
14204
  8
HIDE
 10
2165.250905814235
 20
1536.9154609264399
 30
0.0
 11
2165.250905814235
 21
1544.165460926439
 31
0.0
  0
LINE
  5
14205
  8
HIDE
 10
2159.750905814235
 20
1536.9154609264399
 30
0.0
 11
2159.750905814235
 21
1544.1654609264399
 31
0.0
  0
LINE
  5
14206
  8
HIDE
 10
2160.250905814235
 20
1536.9154609264399
 30
0.0
 11
2160.250905814235
 21
1544.1654609264399
 31
0.0
  0
LINE
  5
14207
  8
0
 10
2165.750905814235
 20
1536.9154609264399
 30
0.0
 11
2156.750905814235
 21
1536.9154609264399
 31
0.0
  0
LINE
  5
14208
  8
HIDE
 10
2168.750905814235
 20
1539.4154609264399
 30
0.0
 11
2168.250905814235
 21
1539.1267857918469
 31
0.0
  0
LINE
  5
14209
  8
HIDE
 10
2168.750905814235
 20
1544.165460926439
 30
0.0
 11
2156.750905814235
 21
1544.1654609264399
 31
0.0
  0
LINE
  5
1420A
  8
HIDE
 10
2168.750905814235
 20
1543.4154609264399
 30
0.0
 11
2156.750905814235
 21
1543.4154609264399
 31
0.0
  0
LINE
  5
1420B
  8
0
 10
2165.750905814235
 20
1549.8946456462679
 30
0.0
 11
2156.750905814235
 21
1549.8946456462679
 31
0.0
  0
LINE
  5
1420C
  8
HIDE
 10
2165.750905814235
 20
1537.210706620247
 30
0.0
 11
2159.750905814235
 21
1537.210706620247
 31
0.0
  0
LINE
  5
1420D
  8
HIDE
 10
2165.750905814235
 20
1542.210706620247
 30
0.0
 11
2159.750905814235
 21
1542.210706620247
 31
0.0
  0
LINE
  5
1420E
  8
HIDE
 10
2165.750905814235
 20
1542.210706620247
 30
0.0
 11
2165.250905814235
 21
1542.4993817548409
 31
0.0
  0
LINE
  5
1420F
  8
HIDE
 10
2159.750905814235
 20
1542.210706620247
 30
0.0
 11
2160.250905814235
 21
1542.4993817548409
 31
0.0
  0
LINE
  5
14210
  8
HIDE
 10
2160.250905814235
 20
1542.4993817548409
 30
0.0
 11
2165.250905814235
 21
1542.4993817548409
 31
0.0
  0
LINE
  5
14211
  8
HIDE
 10
2165.750905814235
 20
1549.8946456462679
 30
0.0
 11
2168.250905814235
 21
1549.8946456462679
 31
0.0
  0
LINE
  5
14212
  8
HIDE
 10
2165.750905814235
 20
1536.9154609264399
 30
0.0
 11
2168.250905814235
 21
1536.9154609264399
 31
0.0
  0
LINE
  5
14213
  8
HIDE
 10
2165.750905814235
 20
1561.9362762066121
 30
0.0
 11
2168.250905814235
 21
1561.9362762066121
 31
0.0
  0
LINE
  5
14214
  8
HIDE
 10
2165.750905814235
 20
1574.9154609264399
 30
0.0
 11
2168.250905814235
 21
1574.9154609264399
 31
0.0
  0
LINE
  5
14215
  8
CENTER
 10
2187.750905814235
 20
1528.6547227522719
 30
0.0
 11
2187.750905814235
 21
1506.003811740489
 31
0.0
  0
LINE
  5
14216
  8
CENTER
 10
2202.7509058142341
 20
1528.6547227522719
 30
0.0
 11
2202.750905814235
 21
1506.003811740489
 31
0.0
  0
LINE
  5
14217
  8
CENTER
 10
2217.750905814235
 20
1528.6547227522719
 30
0.0
 11
2217.750905814235
 21
1506.003811740489
 31
0.0
  0
LINE
  5
14218
  8
HIDE
 10
2040.9316413415961
 20
1629.529823761874
 30
0.0
 11
2040.9316413415961
 21
1699.5298037618741
 31
0.0
  0
LINE
  5
14219
  8
HIDE
 10
2065.9316413415959
 20
1629.529823761874
 30
0.0
 11
2065.9316413415959
 21
1699.5298037618741
 31
0.0
  0
CIRCLE
  5
1421A
  8
0
 10
2010.9316413415961
 20
1675.5298037618741
 30
0.0
 40
3.8999999999999999
  0
CIRCLE
  5
1421B
  8
0
 10
2095.9316413415959
 20
1675.5298037618741
 30
0.0
 40
3.8999999999999999
  0
CIRCLE
  5
1421C
  8
0
 10
2010.9316413415961
 20
1690.5298037618741
 30
0.0
 40
5.5
  0
CIRCLE
  5
1421D
  8
0
 10
2010.9316413415961
 20
1660.5298037618741
 30
0.0
 40
5.5
  0
CIRCLE
  5
1421E
  8
0
 10
2095.9316413415959
 20
1690.5298037618741
 30
0.0
 40
5.5
  0
CIRCLE
  5
1421F
  8
0
 10
2095.9316413415959
 20
1660.5298037618741
 30
0.0
 40
5.5
  0
LINE
  5
14220
  8
0
 10
2022.4316413415961
 20
1638.5298037618741
 30
0.0
 11
2022.4316413415961
 21
1651.529803761875
 31
0.0
  0
LINE
  5
14221
  8
0
 10
2084.4316413415959
 20
1638.5298037618741
 30
0.0
 11
2084.4316413415959
 21
1651.529803761875
 31
0.0
  0
LINE
  5
14222
  8
0
 10
2034.4316413415961
 20
1629.529823761874
 30
0.0
 11
2034.4316413415961
 21
1638.5298037618741
 31
0.0
  0
LINE
  5
14223
  8
0
 10
2072.4316413415959
 20
1629.529823761874
 30
0.0
 11
2072.4316413415959
 21
1638.5298037618741
 31
0.0
  0
LINE
  5
14224
  8
0
 10
2000.9316413415961
 20
1699.5298037618741
 30
0.0
 11
2000.9316413415961
 21
1651.5298037618741
 31
0.0
  0
LINE
  5
14225
  8
0
 10
2105.9316413415959
 20
1699.5298037618741
 30
0.0
 11
2105.9316413415959
 21
1651.5298037618741
 31
0.0
  0
LINE
  5
14226
  8
CENTER
 10
2010.9316413415961
 20
1653.0298037618741
 30
0.0
 11
2010.9316413415961
 21
1698.0298037618741
 31
0.0
  0
LINE
  5
14227
  8
CENTER
 10
2095.9316413415959
 20
1653.0298037618741
 30
0.0
 11
2095.9316413415959
 21
1698.0298037618741
 31
0.0
  0
LINE
  5
14228
  8
0
 10
2083.4316413415959
 20
1651.5298037618741
 30
0.0
 11
2083.4316413415959
 21
1699.5298037618741
 31
0.0
  0
LINE
  5
14229
  8
0
 10
2023.4316413415961
 20
1651.5298037618741
 30
0.0
 11
2023.4316413415961
 21
1699.5298037618741
 31
0.0
  0
LINE
  5
1422A
  8
0
 10
2086.4316413415959
 20
1651.5298037618741
 30
0.0
 11
2086.4316413415959
 21
1699.5298037618741
 31
0.0
  0
LINE
  5
1422B
  8
0
 10
2020.4316413415961
 20
1651.5298037618741
 30
0.0
 11
2020.4316413415961
 21
1699.5298037618741
 31
0.0
  0
LINE
  5
1422C
  8
0
 10
2000.9316413415961
 20
1699.5298037618741
 30
0.0
 11
2105.9316413415959
 21
1699.5298037618741
 31
0.0
  0
CIRCLE
  5
1422D
  8
0
 10
2053.4316413415959
 20
1635.529823761874
 30
0.0
 40
2.1000000000000001
  0
CIRCLE
  5
1422E
  8
0
 10
2053.4316413415959
 20
1635.529823761874
 30
0.0
 40
2.5
  0
LINE
  5
1422F
  8
0
 10
2053.4316383415962
 20
1636.9732037618739
 30
0.0
 11
2052.1816393415961
 21
1636.2515137618741
 31
0.0
  0
LINE
  5
14230
  8
0
 10
2054.6816383415962
 20
1634.8081337618739
 30
0.0
 11
2053.4316393415961
 21
1634.0864537618741
 31
0.0
  0
LINE
  5
14231
  8
0
 10
2054.6816433415952
 20
1636.2515137618741
 30
0.0
 11
2053.431644341596
 21
1636.9732037618739
 31
0.0
  0
LINE
  5
14232
  8
0
 10
2053.4316433415961
 20
1634.0864537618741
 30
0.0
 11
2052.181644341596
 21
1634.8081337618739
 31
0.0
  0
LINE
  5
14233
  8
0
 10
2054.6816413415959
 20
1634.8081337618739
 30
0.0
 11
2054.6816413415959
 21
1636.2515137618741
 31
0.0
  0
LINE
  5
14234
  8
0
 10
2052.1816413415959
 20
1634.8081337618739
 30
0.0
 11
2052.1816413415959
 21
1636.2515137618741
 31
0.0
  0
LINE
  5
14235
  8
CENTER
 10
2049.9316413415959
 20
1635.529823761874
 30
0.0
 11
2056.9316413415959
 21
1635.529823761874
 31
0.0
  0
LINE
  5
14236
  8
CENTER
 10
2053.4316413415959
 20
1624.8851374569081
 30
0.0
 11
2053.4316413415959
 21
1705.2127099533309
 31
0.0
  0
LINE
  5
14237
  8
0
 10
2056.9750073415962
 20
1629.529823761874
 30
0.0
 11
2056.9750073415962
 21
1638.5298037618741
 31
0.0
  0
LINE
  5
14238
  8
0
 10
2049.888275341596
 20
1629.529823761874
 30
0.0
 11
2049.888275341596
 21
1638.5298037618741
 31
0.0
  0
LINE
  5
14239
  8
0
 10
2072.4316413415959
 20
1629.529823761874
 30
0.0
 11
2034.4316413415961
 21
1629.529823761874
 31
0.0
  0
LINE
  5
1423A
  8
0
 10
2000.9316413415961
 20
1651.5298037618741
 30
0.0
 11
2105.9316413415959
 21
1651.5298037618741
 31
0.0
  0
LINE
  5
1423B
  8
0
 10
2022.4316413415961
 20
1638.5298037618741
 30
0.0
 11
2084.4316413415959
 21
1638.5298037618741
 31
0.0
  0
LINE
  5
1423C
  8
CENTER
 10
2003.4316413415961
 20
1690.5298037618741
 30
0.0
 11
2018.4316413415961
 21
1690.5298037618741
 31
0.0
  0
LINE
  5
1423D
  8
CENTER
 10
2003.4316413415961
 20
1660.5298037618741
 30
0.0
 11
2018.4316413415961
 21
1660.5298037618741
 31
0.0
  0
LINE
  5
1423E
  8
CENTER
 10
2006.031641341596
 20
1675.5298037618741
 30
0.0
 11
2015.831641341596
 21
1675.5298037618741
 31
0.0
  0
LINE
  5
1423F
  8
CENTER
 10
2088.4316413415959
 20
1690.5298037618741
 30
0.0
 11
2103.4316413415959
 21
1690.5298037618741
 31
0.0
  0
LINE
  5
14240
  8
CENTER
 10
2088.4316413415959
 20
1660.5298037618741
 30
0.0
 11
2103.4316413415959
 21
1660.5298037618741
 31
0.0
  0
LINE
  5
14241
  8
CENTER
 10
2091.0316413415958
 20
1675.5298037618741
 30
0.0
 11
2100.831641341596
 21
1675.5298037618741
 31
0.0
  0
ENDSEC
  0
EOF
