  0
SECTION
  2
HEADER
  9
$ACADVER
  1
AC1009
  9
$INSBASE
 10
0.0
 20
0.0
 30
0.0
  9
$EXTMIN
 10
2039.3921037501621
 20
1530.5362622200621
 30
0.0
  9
$EXTMAX
 10
2217.5921037501621
 20
1656.5362622200621
 30
0.0
  9
$LIMMIN
 10
0.0
 20
0.0
  9
$LIMMAX
 10
12.0
 20
9.0
  9
$ORTHOMODE
 70
     1
  9
$REGENMODE
 70
     1
  9
$FILLMODE
 70
     1
  9
$QTEXTMODE
 70
     0
  9
$MIRRTEXT
 70
     0
  9
$DRAGMODE
 70
     2
  9
$LTSCALE
 40
5.0
  9
$OSMODE
 70
  2239
  9
$ATTMODE
 70
     1
  9
$TEXTSIZE
 40
2.5
  9
$TRACEWID
 40
0.05
  9
$TEXTSTYLE
  7
BIG
  9
$CLAYER
  8
0
  9
$CELTYPE
  6
BYLAYER
  9
$CECOLOR
 62
   256
  9
$DIMSCALE
 40
1.0
  9
$DIMASZ
 40
3.0
  9
$DIMEXO
 40
1.0
  9
$DIMDLI
 40
0.0
  9
$DIMRND
 40
0.0
  9
$DIMDLE
 40
0.0
  9
$DIMEXE
 40
1.0
  9
$DIMTP
 40
0.0
  9
$DIMTM
 40
0.0
  9
$DIMTXT
 40
3.0
  9
$DIMCEN
 40
0.0
  9
$DIMTSZ
 40
0.0
  9
$DIMTOL
 70
     0
  9
$DIMLIM
 70
     0
  9
$DIMTIH
 70
     0
  9
$DIMTOH
 70
     0
  9
$DIMSE1
 70
     0
  9
$DIMSE2
 70
     0
  9
$DIMTAD
 70
     1
  9
$DIMZIN
 70
     8
  9
$DIMBLK
  1

  9
$DIMASO
 70
     1
  9
$DIMSHO
 70
     1
  9
$DIMPOST
  1

  9
$DIMAPOST
  1

  9
$DIMALT
 70
     0
  9
$DIMALTD
 70
     2
  9
$DIMALTF
 40
25.399999999999999
  9
$DIMLFAC
 40
1.0
  9
$DIMTOFL
 70
     1
  9
$DIMTVP
 40
0.0
  9
$DIMTIX
 70
     1
  9
$DIMSOXD
 70
     0
  9
$DIMSAH
 70
     0
  9
$DIMBLK1
  1

  9
$DIMBLK2
  1

  9
$DIMSTYLE
  2
DUKITEC
  9
$DIMCLRD
 70
     5
  9
$DIMCLRE
 70
     5
  9
$DIMCLRT
 70
     0
  9
$DIMTFAC
 40
1.0
  9
$DIMGAP
 40
1.0
  9
$LUNITS
 70
     2
  9
$LUPREC
 70
     4
  9
$SKETCHINC
 40
0.1
  9
$FILLETRAD
 40
0.2
  9
$AUNITS
 70
     0
  9
$AUPREC
 70
     0
  9
$MENU
  1
.
  9
$ELEVATION
 40
0.0
  9
$PELEVATION
 40
0.0
  9
$THICKNESS
 40
0.0
  9
$LIMCHECK
 70
     0
  9
$BLIPMODE
 70
     0
  9
$CHAMFERA
 40
0.5
  9
$CHAMFERB
 40
0.5
  9
$SKPOLY
 70
     0
  9
$TDCREATE
 40
2454396.7064823839
  9
$TDUPDATE
 40
2456630.7245851848
  9
$TDINDWG
 40
0.0107664583
  9
$TDUSRTIMER
 40
0.0107664583
  9
$USRTIMER
 70
     1
  9
$ANGBASE
 50
0.0
  9
$ANGDIR
 70
     0
  9
$PDMODE
 70
     0
  9
$PDSIZE
 40
0.0
  9
$PLINEWID
 40
0.0
  9
$COORDS
 70
     1
  9
$SPLFRAME
 70
     0
  9
$SPLINETYPE
 70
     6
  9
$SPLINESEGS
 70
     8
  9
$ATTDIA
 70
     0
  9
$ATTREQ
 70
     1
  9
$HANDLING
 70
     1
  9
$HANDSEED
  5
142E7
  9
$SURFTAB1
 70
     6
  9
$SURFTAB2
 70
     6
  9
$SURFTYPE
 70
     6
  9
$SURFU
 70
     6
  9
$SURFV
 70
     6
  9
$UCSNAME
  2

  9
$UCSORG
 10
0.0
 20
0.0
 30
0.0
  9
$UCSXDIR
 10
1.0
 20
0.0
 30
0.0
  9
$UCSYDIR
 10
0.0
 20
1.0
 30
0.0
  9
$PUCSNAME
  2

  9
$PUCSORG
 10
0.0
 20
0.0
 30
0.0
  9
$PUCSXDIR
 10
1.0
 20
0.0
 30
0.0
  9
$PUCSYDIR
 10
0.0
 20
1.0
 30
0.0
  9
$USERI1
 70
     0
  9
$USERI2
 70
     0
  9
$USERI3
 70
     0
  9
$USERI4
 70
     0
  9
$USERI5
 70
     0
  9
$USERR1
 40
0.0
  9
$USERR2
 40
0.0
  9
$USERR3
 40
0.0
  9
$USERR4
 40
0.0
  9
$USERR5
 40
0.0
  9
$WORLDVIEW
 70
     1
  9
$SHADEDGE
 70
     3
  9
$SHADEDIF
 70
    70
  9
$TILEMODE
 70
     1
  9
$MAXACTVP
 70
    64
  9
$PLIMCHECK
 70
     0
  9
$PEXTMIN
 10
0.0
 20
0.0
 30
0.0
  9
$PEXTMAX
 10
0.0
 20
0.0
 30
0.0
  9
$PLIMMIN
 10
0.0
 20
0.0
  9
$PLIMMAX
 10
12.0
 20
9.0
  9
$UNITMODE
 70
     0
  9
$VISRETAIN
 70
     1
  9
$PLINEGEN
 70
     0
  9
$PSLTSCALE
 70
     1
  0
ENDSEC
  0
SECTION
  2
TABLES
  0
TABLE
  2
VPORT
 70
     1
  0
VPORT
  2
*ACTIVE
 70
     0
 10
0.0
 20
0.0
 11
1.0
 21
1.0
 12
2139.096878462336
 22
1594.2125124870131
 13
0.0
 23
0.0
 14
0.5
 24
0.5
 15
0.5
 25
0.5
 16
0.0
 26
0.0
 36
1.0
 17
0.0
 27
0.0
 37
0.0
 40
127.2030255661375
 41
2.1408934707903771
 42
50.0
 43
0.0
 44
0.0
 50
0.0
 51
0.0
 71
     0
 72
  2000
 73
     1
 74
     3
 75
     0
 76
     0
 77
     0
 78
     0
  0
ENDTAB
  0
TABLE
  2
LTYPE
 70
     5
  0
LTYPE
  2
CONTINUOUS
 70
     0
  3
Solid line
 72
    65
 73
     0
 40
0.0
  0
LTYPE
  2
PHANTOM2
 70
     0
  3
Phantom (.5x) ___ _ _ ___ _ _ ___ _ _ ___ _ _
 72
    65
 73
     6
 40
1.25
 49
0.625
 49
-0.125
 49
0.125
 49
-0.125
 49
0.125
 49
-0.125
  0
LTYPE
  2
CENTER
 70
     0
  3
___ _ ___ _ ___ _ ___ _ ___ _ ___ _ ___ _ ___ _
 72
    65
 73
     4
 40
0.95
 49
0.625
 49
-0.125
 49
0.075
 49
-0.125
  0
LTYPE
  2
DASHED2
 70
     0
  3
Dashed (.5x) _ _ _ _ _ _ _ _ _ _ _ _ _ _ _ _ _
 72
    65
 73
     2
 40
0.375
 49
0.25
 49
-0.125
  0
ENDTAB
  0
TABLE
  2
LAYER
 70
     3
  0
LAYER
  2
0
 70
     0
 62
     7
  6
CONTINUOUS
  0
LAYER
  2
HIDE
 70
     0
 62
     1
  6
DASHED2
  0
LAYER
  2
CENTER
 70
     0
 62
     3
  6
CENTER
  0
ENDTAB
  0
TABLE
  2
STYLE
 70
     2
  0
STYLE
  2
STANDARD
 70
     0
 40
5.0
 41
1.0
 50
0.0
 71
     0
 42
5.0
  3
txt.shx
  4
whgtxt.shx
  0
STYLE
  2
BIG
 70
     0
 40
20.0
 41
1.0
 50
0.0
 71
     0
 42
2.5
  3
txt
  4

  0
ENDTAB
  0
TABLE
  2
VIEW
 70
     0
  0
ENDTAB
  0
TABLE
  2
UCS
 70
     0
  0
ENDTAB
  0
TABLE
  2
APPID
 70
    10
  0
APPID
  2
ACAD
 70
     0
  0
APPID
  2
ACADANNOTATIVE
 70
     0
  0
APPID
  2
ACAD_EXEMPT_FROM_CAD_STANDARDS
 70
     0
  0
APPID
  2
ACAD_DSTYLE_DIMJOGGED_JOGA
 70
     0
  0
APPID
  2
ACAD_PSEXT
 70
     0
  0
APPID
  2
ACAECLAYERSTANDARD
 70
     0
  0
APPID
  2
DCO15
 70
     0
  0
APPID
  2
CONTENTBLOCKICON
 70
     0
  0
APPID
  2
ACAD_NAV_VCDISPLAY
 70
     0
  0
APPID
  2
ACAD_MLEADERVER
 70
     0
  0
ENDTAB
  0
TABLE
  2
DIMSTYLE
 70
     2
  0
DIMSTYLE
  2
DUKITEC
 70
     0
  3

  4

  5

  6

  7

 40
1.0
 41
3.0
 42
1.0
 43
0.0
 44
1.0
 45
0.0
 46
0.0
 47
0.0
 48
0.0
140
3.0
141
0.0
142
0.0
143
25.399999999999999
144
1.0
145
0.0
146
1.0
147
1.0
 71
     0
 72
     0
 73
     0
 74
     0
 75
     0
 76
     0
 77
     1
 78
     8
170
     0
171
     2
172
     1
173
     0
174
     1
175
     0
176
     5
177
     5
178
     0
  0
ENDTAB
  0
ENDSEC
  0
SECTION
  2
BLOCKS
  0
BLOCK
  8
0
  2
$MODEL_SPACE
 70
     0
 10
0.0
 20
0.0
 30
0.0
  3
$MODEL_SPACE
  1

  0
ENDBLK
  5
14098
  8
0
  0
BLOCK
 67
     1
  8
0
  2
$PAPER_SPACE
 70
     0
 10
0.0
 20
0.0
 30
0.0
  3
$PAPER_SPACE
  1

  0
ENDBLK
  5
14094
 67
     1
  8
0
  0
ENDSEC
  0
SECTION
  2
ENTITIES
  0
POLYLINE
  5
13E1C
  8
0
 66
     1
 10
0.0
 20
0.0
 30
0.0
 70
     1
  0
VERTEX
  5
1429C
  8
0
 10
2039.3921037501621
 20
1530.5362622200621
 30
0.0
  0
VERTEX
  5
1429D
  8
0
 10
2039.3921037501621
 20
1656.5362622200621
 30
0.0
  0
VERTEX
  5
1429E
  8
0
 10
2217.5921037501621
 20
1656.5362622200621
 30
0.0
  0
VERTEX
  5
1429F
  8
0
 10
2217.5921037501621
 20
1530.5362622200621
 30
0.0
  0
VERTEX
  5
142A0
  8
0
 10
2039.3921037501621
 20
1530.5362622200621
 30
0.0
  0
SEQEND
  5
142A1
  8
0
  0
TEXT
  5
13FFD
  8
0
 10
2069.010054481098
 20
1552.1358056609911
 30
0.0
 40
20.0
  1
EK 4 P5
  7
BIG
  0
CIRCLE
  5
140BD
  8
HIDE
 10
2113.2931154642679
 20
1601.944718200645
 30
0.0
 40
4.0000000000004539
  0
LINE
  5
140BE
  8
HIDE
 10
2142.0700039142921
 20
1599.944718200645
 30
0.0
 11
2151.5700039142912
 21
1599.9447182006461
 31
0.0
  0
LINE
  5
140C0
  8
HIDE
 10
2142.0700039142921
 20
1603.944718200645
 30
0.0
 11
2151.5700039142912
 21
1603.944718200645
 31
0.0
  0
LINE
  5
140C2
  8
CENTER
 10
2139.9573264088558
 20
1601.944718200645
 30
0.0
 11
2165.9518869107469
 21
1601.944718200645
 31
0.0
  0
LINE
  5
140C3
  8
HIDE
 10
2147.5700039142921
 20
1604.844718200645
 30
0.0
 11
2151.5700039142912
 21
1604.844718200646
 31
0.0
  0
LINE
  5
140C5
  8
HIDE
 10
2147.5700039142921
 20
1599.0447182006451
 30
0.0
 11
2151.5700039142912
 21
1599.0447182006451
 31
0.0
  0
LINE
  5
140C6
  8
HIDE
 10
2159.5700039142912
 20
1599.0447182006451
 30
0.0
 11
2162.5700039142921
 21
1599.0447182006451
 31
0.0
  0
LINE
  5
140C7
  8
0
 10
2162.5700039142921
 20
1591.944718200645
 30
0.0
 11
2162.5700039142921
 21
1610.944718200645
 31
0.0
  0
LINE
  5
140C8
  8
0
 10
2147.5700039142921
 20
1609.944718200645
 30
0.0
 11
2162.5700039142921
 21
1609.944718200645
 31
0.0
  0
LINE
  5
140C9
  8
0
 10
2147.5700039142921
 20
1598.944718200645
 30
0.0
 11
2162.5700039142921
 21
1598.944718200645
 31
0.0
  0
LINE
  5
140CA
  8
0
 10
2147.5700039142921
 20
1610.944718200645
 30
0.0
 11
2147.5700039142921
 21
1591.944718200645
 31
0.0
  0
LINE
  5
140CB
  8
0
 10
2147.5700039142921
 20
1591.944718200645
 30
0.0
 11
2162.5700039142921
 21
1591.944718200645
 31
0.0
  0
LINE
  5
140CC
  8
0
 10
2147.5700039142921
 20
1610.944718200645
 30
0.0
 11
2162.5700039142921
 21
1610.944718200645
 31
0.0
  0
LINE
  5
140CD
  8
CENTER
 10
2147.7802917281829
 20
1601.944718200645
 30
0.0
 11
2141.3158493995529
 21
1601.944718200645
 31
0.0
  0
LINE
  5
140CE
  8
0
 10
2142.0700039142921
 20
1607.4947182006449
 30
0.0
 11
2142.070003914293
 21
1596.394718200645
 31
0.0
  0
ARC
  5
140CF
  8
0
 10
2142.2700039142919
 20
1607.4947182006449
 30
0.0
 40
0.2
 50
90.0
 51
180.0
  0
LINE
  5
140D0
  8
0
 10
2147.0700039142921
 20
1605.944718200645
 30
0.0
 11
2147.0700039142912
 21
1597.944718200645
 31
0.0
  0
LINE
  5
140D1
  8
0
 10
2146.570003914293
 20
1607.494718200644
 30
0.0
 11
2146.5700039142939
 21
1596.394718200645
 31
0.0
  0
ARC
  5
140D2
  8
0
 10
2146.3700039142932
 20
1596.394718200645
 30
0.0
 40
0.2
 50
270.0
 51
0.0
  0
ARC
  5
140D3
  8
0
 10
2146.3700039142932
 20
1607.494718200644
 30
0.0
 40
0.2
 50
0.0
 51
90.0
  0
LINE
  5
140D4
  8
0
 10
2147.0700039142912
 20
1605.9447182006461
 30
0.0
 11
2146.5700039142921
 21
1606.23339333524
 31
0.0
  0
LINE
  5
140D5
  8
0
 10
2147.0700039142912
 20
1597.944718200644
 30
0.0
 11
2146.5700039142921
 21
1597.65604306605
 31
0.0
  0
LINE
  5
140D6
  8
0
 10
2146.3700039142932
 20
1607.694718200644
 30
0.0
 11
2142.2700039142919
 21
1607.694718200645
 31
0.0
  0
LINE
  5
140D7
  8
0
 10
2146.3700039142932
 20
1596.194718200645
 30
0.0
 11
2142.2700039142928
 21
1596.194718200645
 31
0.0
  0
ARC
  5
140D8
  8
0
 10
2142.2700039142928
 20
1596.394718200645
 30
0.0
 40
0.2
 50
180.0
 51
270.0
  0
LINE
  5
140D9
  8
0
 10
2146.5700039142939
 20
1603.4724548060501
 30
0.0
 11
2142.0700039142921
 21
1603.4724548060501
 31
0.0
  0
LINE
  5
140DA
  8
0
 10
2146.5700039142948
 20
1600.416981595238
 30
0.0
 11
2142.070003914293
 21
1600.4169815952389
 31
0.0
  0
LINE
  5
140DB
  8
HIDE
 10
2147.070003914293
 20
1603.944718200644
 30
0.0
 11
2142.0700039142921
 21
1603.9447182006429
 31
0.0
  0
LINE
  5
140DC
  8
HIDE
 10
2147.0700039142898
 20
1599.9447182006429
 30
0.0
 11
2142.070003914293
 21
1599.9447182006429
 31
0.0
  0
LINE
  5
140DD
  8
CENTER
 10
2144.3700039142918
 20
1603.2376367914701
 30
0.0
 11
2144.3700039142909
 21
1608.0628624994361
 31
0.0
  0
LINE
  5
140DE
  8
HIDE
 10
2143.3700039142918
 20
1603.6947182006429
 30
0.0
 11
2143.37000391429
 21
1607.694718200645
 31
0.0
  0
LINE
  5
140DF
  8
HIDE
 10
2145.37000391429
 20
1603.6947182006429
 30
0.0
 11
2145.37000391429
 21
1607.694718200645
 31
0.0
  0
LINE
  5
140E0
  8
HIDE
 10
2143.0700039142921
 20
1603.6947182006429
 30
0.0
 11
2143.0700039142912
 21
1607.694718200645
 31
0.0
  0
LINE
  5
140E1
  8
HIDE
 10
2145.6700039142911
 20
1603.6947182006429
 30
0.0
 11
2145.6700039142911
 21
1607.694718200645
 31
0.0
  0
LINE
  5
140E2
  8
HIDE
 10
2145.6700039142961
 20
1607.4557491700309
 30
0.0
 11
2143.0700039142921
 21
1607.4557491700309
 31
0.0
  0
LINE
  5
140E3
  8
HIDE
 10
2145.6700039142961
 20
1604.9557491700309
 30
0.0
 11
2143.0700039142921
 21
1604.9557491700309
 31
0.0
  0
LINE
  5
140E4
  8
HIDE
 10
2145.3761104619289
 20
1604.780654716858
 30
0.0
 11
2145.67611046193
 21
1604.9538597976159
 31
0.0
  0
LINE
  5
140E5
  8
HIDE
 10
2143.3761104619289
 20
1604.7790184723531
 30
0.0
 11
2143.0700039142912
 21
1604.9557491700309
 31
0.0
  0
LINE
  5
140E6
  8
HIDE
 10
2145.3761104619289
 20
1604.780654716858
 30
0.0
 11
2143.3761104619289
 21
1604.7790184723531
 31
0.0
  0
LINE
  5
140E7
  8
HIDE
 10
2147.070003914293
 20
1603.6947182006429
 30
0.0
 11
2142.0700039142921
 21
1603.6947182006429
 31
0.0
  0
LINE
  5
140E8
  8
HIDE
 10
2147.0700039142912
 20
1600.194718200645
 30
0.0
 11
2142.070003914293
 21
1600.194718200644
 31
0.0
  0
LINE
  5
140EA
  8
HIDE
 10
2159.5700039142912
 20
1607.744718200646
 30
0.0
 11
2159.5700039142912
 21
1599.0447182006451
 31
0.0
  0
LINE
  5
140EB
  8
HIDE
 10
2151.5700039142912
 20
1604.844718200646
 30
0.0
 11
2151.5700039142912
 21
1596.144718200647
 31
0.0
  0
LINE
  5
140EC
  8
HIDE
 10
2162.5700039142921
 20
1604.844718200646
 30
0.0
 11
2159.5700039142912
 21
1604.844718200646
 31
0.0
  0
LINE
  5
140EE
  8
0
 10
2147.5700039142921
 20
1599.0447182006451
 30
0.0
 11
2147.0700039142912
 21
1599.0447182006451
 31
0.0
  0
LINE
  5
140EF
  8
0
 10
2147.5700039142921
 20
1604.844718200645
 30
0.0
 11
2147.0700039142921
 21
1604.844718200645
 31
0.0
  0
LINE
  5
140F0
  8
CENTER
 10
2155.0700039142912
 20
1596.3793932079329
 30
0.0
 11
2155.0700039142912
 21
1586.7874712552889
 31
0.0
  0
CIRCLE
  5
140F1
  8
HIDE
 10
2153.5700039142921
 20
1605.9447182006461
 30
0.0
 40
1.1999999999999991
  0
CIRCLE
  5
140F2
  8
HIDE
 10
2153.5700039142921
 20
1597.9447182006461
 30
0.0
 40
1.1999999999999991
  0
ARC
  5
140F3
  8
HIDE
 10
2151.7700039142919
 20
1607.744718200646
 30
0.0
 40
0.2000000000000002
 50
90.0
 51
180.0
  0
ARC
  5
140F4
  8
HIDE
 10
2155.3700039142918
 20
1607.744718200646
 30
0.0
 40
0.2000000000000002
 50
0.0
 51
90.0
  0
ARC
  5
140F5
  8
HIDE
 10
2155.3700039142918
 20
1599.744718200646
 30
0.0
 40
0.2000000000000002
 50
0.0
 51
90.0
  0
ARC
  5
140F6
  8
HIDE
 10
2151.7700039142919
 20
1599.744718200646
 30
0.0
 40
0.2000000000000002
 50
90.0
 51
180.0
  0
ARC
  5
140F7
  8
HIDE
 10
2155.3700039142918
 20
1604.144718200647
 30
0.0
 40
0.2
 50
270.0
 51
0.0
  0
ARC
  5
140F8
  8
HIDE
 10
2151.7700039142919
 20
1604.144718200647
 30
0.0
 40
0.2
 50
180.0
 51
270.0
  0
ARC
  5
140F9
  8
HIDE
 10
2155.3700039142918
 20
1596.144718200647
 30
0.0
 40
0.2000000000000002
 50
270.0
 51
0.0
  0
ARC
  5
140FA
  8
HIDE
 10
2151.7700039142919
 20
1596.144718200647
 30
0.0
 40
0.2
 50
180.0
 51
270.0
  0
LINE
  5
140FB
  8
HIDE
 10
2155.5700039142921
 20
1607.744718200646
 30
0.0
 11
2155.5700039142912
 21
1604.144718200647
 31
0.0
  0
LINE
  5
140FC
  8
HIDE
 10
2151.7700039142919
 20
1607.9447182006461
 30
0.0
 11
2155.3700039142918
 21
1607.9447182006461
 31
0.0
  0
LINE
  5
140FD
  8
HIDE
 10
2151.5700039142921
 20
1604.144718200647
 30
0.0
 11
2151.5700039142921
 21
1607.744718200646
 31
0.0
  0
LINE
  5
140FE
  8
HIDE
 10
2151.730003914292
 20
1606.419718200646
 30
0.0
 11
2152.468017072265
 21
1606.419718200646
 31
0.0
  0
LINE
  5
140FF
  8
HIDE
 10
2154.6719907563179
 20
1606.419718200646
 30
0.0
 11
2155.4100039142909
 21
1606.419718200646
 31
0.0
  0
LINE
  5
14100
  8
HIDE
 10
2151.730003914292
 20
1605.019718200647
 30
0.0
 11
2152.8055596717209
 21
1605.019718200647
 31
0.0
  0
LINE
  5
14101
  8
HIDE
 10
2154.3344481568629
 20
1605.019718200647
 30
0.0
 11
2155.4100039142909
 21
1605.019718200647
 31
0.0
  0
LINE
  5
14102
  8
HIDE
 10
2155.5700039142912
 20
1596.144718200647
 30
0.0
 11
2155.5700039142912
 21
1601.9447182006461
 31
0.0
  0
LINE
  5
14103
  8
HIDE
 10
2151.5700039142921
 20
1599.744718200646
 30
0.0
 11
2151.5700039142921
 21
1599.144718200647
 31
0.0
  0
LINE
  5
14104
  8
HIDE
 10
2151.5700039142921
 20
1601.9447182006461
 30
0.0
 11
2151.5700039142921
 21
1596.144718200647
 31
0.0
  0
LINE
  5
14105
  8
HIDE
 10
2151.7700039142919
 20
1603.9447182006461
 30
0.0
 11
2155.3700039142918
 21
1603.9447182006461
 31
0.0
  0
LINE
  5
14106
  8
HIDE
 10
2151.7700039142919
 20
1599.9447182006461
 30
0.0
 11
2155.3700039142918
 21
1599.9447182006461
 31
0.0
  0
LINE
  5
14107
  8
HIDE
 10
2151.730003914292
 20
1598.869718200646
 30
0.0
 11
2152.8055596717209
 21
1598.869718200646
 31
0.0
  0
LINE
  5
14108
  8
HIDE
 10
2154.3344481568629
 20
1598.869718200646
 30
0.0
 11
2155.4100039142909
 21
1598.869718200646
 31
0.0
  0
LINE
  5
14109
  8
HIDE
 10
2151.5700039142921
 20
1601.9447182006461
 30
0.0
 11
2151.5700039142921
 21
1604.144718200647
 31
0.0
  0
LINE
  5
1410A
  8
HIDE
 10
2155.5700039142912
 20
1604.144718200647
 30
0.0
 11
2155.5700039142912
 21
1601.9447182006461
 31
0.0
  0
LINE
  5
1410B
  8
HIDE
 10
2151.7700039142919
 20
1595.9447182006461
 30
0.0
 11
2155.3700039142918
 21
1595.9447182006461
 31
0.0
  0
LINE
  5
1410C
  8
HIDE
 10
2151.730003914292
 20
1597.469718200646
 30
0.0
 11
2152.468017072265
 21
1597.469718200646
 31
0.0
  0
LINE
  5
1410D
  8
HIDE
 10
2154.6719907563179
 20
1597.469718200646
 30
0.0
 11
2155.4100039142909
 21
1597.469718200646
 31
0.0
  0
LINE
  5
1410E
  8
HIDE
 10
2151.66622269664
 20
1603.973751949992
 30
0.0
 11
2151.5990376636378
 21
1604.0409369829949
 31
0.0
  0
CIRCLE
  5
1410F
  8
HIDE
 10
2157.5700039142921
 20
1605.9447182006461
 30
0.0
 40
1.1999999999999991
  0
CIRCLE
  5
14110
  8
HIDE
 10
2157.5700039142921
 20
1597.9447182006461
 30
0.0
 40
1.1999999999999991
  0
ARC
  5
14111
  8
HIDE
 10
2155.770003914291
 20
1607.744718200646
 30
0.0
 40
0.2000000000000002
 50
90.0
 51
180.0
  0
ARC
  5
14112
  8
HIDE
 10
2159.3700039142918
 20
1607.744718200646
 30
0.0
 40
0.2000000000000002
 50
0.0
 51
90.0
  0
ARC
  5
14113
  8
HIDE
 10
2159.3700039142918
 20
1599.744718200646
 30
0.0
 40
0.2000000000000002
 50
0.0
 51
90.0
  0
ARC
  5
14114
  8
HIDE
 10
2155.770003914291
 20
1599.744718200646
 30
0.0
 40
0.2000000000000002
 50
90.0
 51
180.0
  0
ARC
  5
14115
  8
HIDE
 10
2159.3700039142918
 20
1604.144718200647
 30
0.0
 40
0.2
 50
270.0
 51
0.0
  0
ARC
  5
14116
  8
HIDE
 10
2155.770003914291
 20
1604.144718200647
 30
0.0
 40
0.2
 50
180.0
 51
270.0
  0
ARC
  5
14117
  8
HIDE
 10
2159.3700039142918
 20
1596.144718200647
 30
0.0
 40
0.2000000000000002
 50
270.0
 51
0.0
  0
ARC
  5
14118
  8
HIDE
 10
2155.770003914291
 20
1596.144718200647
 30
0.0
 40
0.2
 50
180.0
 51
270.0
  0
LINE
  5
14119
  8
HIDE
 10
2159.5700039142921
 20
1607.744718200646
 30
0.0
 11
2159.5700039142912
 21
1604.144718200647
 31
0.0
  0
LINE
  5
1411A
  8
HIDE
 10
2155.770003914291
 20
1607.9447182006461
 30
0.0
 11
2159.3700039142918
 21
1607.9447182006461
 31
0.0
  0
LINE
  5
1411B
  8
HIDE
 10
2155.5700039142912
 20
1604.144718200647
 30
0.0
 11
2155.5700039142921
 21
1607.744718200646
 31
0.0
  0
LINE
  5
1411C
  8
HIDE
 10
2155.730003914292
 20
1606.419718200646
 30
0.0
 11
2156.468017072265
 21
1606.419718200646
 31
0.0
  0
LINE
  5
1411D
  8
HIDE
 10
2158.6719907563179
 20
1606.419718200646
 30
0.0
 11
2159.4100039142909
 21
1606.419718200646
 31
0.0
  0
LINE
  5
1411E
  8
HIDE
 10
2155.730003914292
 20
1605.019718200647
 30
0.0
 11
2156.8055596717199
 21
1605.019718200647
 31
0.0
  0
LINE
  5
1411F
  8
HIDE
 10
2158.3344481568629
 20
1605.019718200647
 30
0.0
 11
2159.4100039142909
 21
1605.019718200647
 31
0.0
  0
LINE
  5
14120
  8
HIDE
 10
2159.5700039142912
 20
1599.144718200647
 30
0.0
 11
2159.5700039142912
 21
1599.744718200646
 31
0.0
  0
LINE
  5
14121
  8
HIDE
 10
2159.5700039142912
 20
1596.144718200647
 30
0.0
 11
2159.5700039142912
 21
1601.9447182006461
 31
0.0
  0
LINE
  5
14122
  8
HIDE
 10
2155.5700039142912
 20
1601.9447182006461
 30
0.0
 11
2155.5700039142912
 21
1596.144718200647
 31
0.0
  0
LINE
  5
14123
  8
HIDE
 10
2155.770003914291
 20
1603.9447182006461
 30
0.0
 11
2159.3700039142918
 21
1603.9447182006461
 31
0.0
  0
LINE
  5
14124
  8
HIDE
 10
2155.770003914291
 20
1599.9447182006461
 30
0.0
 11
2159.3700039142918
 21
1599.9447182006461
 31
0.0
  0
LINE
  5
14125
  8
HIDE
 10
2155.730003914292
 20
1598.869718200646
 30
0.0
 11
2156.8055596717199
 21
1598.869718200646
 31
0.0
  0
LINE
  5
14126
  8
HIDE
 10
2158.3344481568629
 20
1598.869718200646
 30
0.0
 11
2159.4100039142909
 21
1598.869718200646
 31
0.0
  0
LINE
  5
14127
  8
HIDE
 10
2155.5700039142912
 20
1601.9447182006461
 30
0.0
 11
2155.5700039142912
 21
1604.144718200647
 31
0.0
  0
LINE
  5
14128
  8
HIDE
 10
2159.5700039142912
 20
1604.144718200647
 30
0.0
 11
2159.5700039142912
 21
1601.9447182006461
 31
0.0
  0
LINE
  5
14129
  8
HIDE
 10
2155.770003914291
 20
1595.9447182006461
 30
0.0
 11
2159.3700039142918
 21
1595.9447182006461
 31
0.0
  0
LINE
  5
1412A
  8
HIDE
 10
2155.730003914292
 20
1597.469718200646
 30
0.0
 11
2156.468017072265
 21
1597.469718200646
 31
0.0
  0
LINE
  5
1412B
  8
HIDE
 10
2158.6719907563179
 20
1597.469718200646
 30
0.0
 11
2159.4100039142909
 21
1597.469718200646
 31
0.0
  0
LINE
  5
1412C
  8
HIDE
 10
2155.66622269664
 20
1603.973751949992
 30
0.0
 11
2155.5990376636378
 21
1604.0409369829949
 31
0.0
  0
LINE
  5
1412D
  8
HIDE
 10
2153.9487338299209
 20
1607.083385689866
 30
0.0
 11
2155.5700039142912
 21
1607.2537880422431
 31
0.0
  0
LINE
  5
1412E
  8
HIDE
 10
2157.1912739986628
 20
1607.083385689866
 30
0.0
 11
2155.5700039142921
 21
1607.2537880422431
 31
0.0
  0
LINE
  5
1412F
  8
HIDE
 10
2153.9487338299232
 20
1596.8060507114239
 30
0.0
 11
2155.5700039142939
 21
1596.635648359048
 31
0.0
  0
LINE
  5
14130
  8
HIDE
 10
2157.191273998666
 20
1596.806050711426
 30
0.0
 11
2155.5700039142948
 21
1596.635648359048
 31
0.0
  0
LINE
  5
14133
  8
HIDE
 10
2111.293107964269
 20
1623.8472863118
 30
0.0
 11
2111.293107964269
 21
1644.3472833118001
 31
0.0
  0
LINE
  5
14134
  8
HIDE
 10
2115.293107964269
 20
1623.8472863118
 30
0.0
 11
2115.293107964269
 21
1644.3472833118001
 31
0.0
  0
CIRCLE
  5
14135
  8
0
 10
2100.293107964269
 20
1636.8472833118001
 30
0.0
 40
2.25
  0
CIRCLE
  5
14136
  8
0
 10
2126.2931229642691
 20
1636.8472833118001
 30
0.0
 40
2.25
  0
LINE
  5
14137
  8
0
 10
2121.293107964269
 20
1644.3472833118001
 30
0.0
 11
2121.293107964269
 21
1629.3472833118001
 31
0.0
  0
LINE
  5
14138
  8
0
 10
2105.293107964269
 20
1644.3472833118001
 30
0.0
 11
2105.293107964269
 21
1629.3472833118001
 31
0.0
  0
LINE
  5
1413C
  8
CENTER
 10
2113.293107964269
 20
1621.771729762354
 30
0.0
 11
2113.293107964269
 21
1648.4650368519151
 31
0.0
  0
LINE
  5
1413D
  8
0
 10
2104.293107964269
 20
1644.3472833118001
 30
0.0
 11
2104.293107964269
 21
1629.3472833118001
 31
0.0
  0
LINE
  5
1413E
  8
0
 10
2122.2931229642691
 20
1644.3472833118001
 30
0.0
 11
2122.2931229642691
 21
1629.3472833118001
 31
0.0
  0
LINE
  5
1413F
  8
0
 10
2130.2931229642691
 20
1644.3472833118001
 30
0.0
 11
2130.2931229642691
 21
1629.3472833118001
 31
0.0
  0
LINE
  5
14140
  8
0
 10
2096.293107964269
 20
1644.3472833118001
 30
0.0
 11
2096.293107964269
 21
1629.3472833118001
 31
0.0
  0
LINE
  5
14141
  8
0
 10
2096.293107964269
 20
1644.3472833118001
 30
0.0
 11
2130.2931229642691
 21
1644.3472833118001
 31
0.0
  0
LINE
  5
14142
  8
0
 10
2096.293107964269
 20
1629.3472833118001
 30
0.0
 11
2130.2931229642691
 21
1629.3472833118001
 31
0.0
  0
LINE
  5
14143
  8
CENTER
 10
2096.6075971417131
 20
1636.8472833118001
 30
0.0
 11
2103.9786187868249
 21
1636.8472833118001
 31
0.0
  0
LINE
  5
14144
  8
CENTER
 10
2100.293107964269
 20
1633.161772489243
 30
0.0
 11
2100.293107964269
 21
1640.532794134356
 31
0.0
  0
LINE
  5
14145
  8
CENTER
 10
2122.6076121417132
 20
1636.8472833118001
 30
0.0
 11
2129.9786337868259
 21
1636.8472833118001
 31
0.0
  0
LINE
  5
14146
  8
CENTER
 10
2126.2931229642691
 20
1633.161772489243
 30
0.0
 11
2126.2931229642691
 21
1640.532794134356
 31
0.0
  0
LINE
  5
14147
  8
0
 10
2107.7431079642688
 20
1623.8472833118001
 30
0.0
 11
2118.8431079642701
 21
1623.8472833118019
 31
0.0
  0
ARC
  5
14148
  8
0
 10
2107.7431079642688
 20
1624.0472833117999
 30
0.0
 40
0.2
 50
180.0
 51
270.0
  0
LINE
  5
14149
  8
0
 10
2109.293107964269
 20
1628.847283311801
 30
0.0
 11
2117.293107964269
 21
1628.8472833118001
 31
0.0
  0
LINE
  5
1414A
  8
0
 10
2107.7431079642702
 20
1628.3472833118019
 30
0.0
 11
2118.8431079642701
 21
1628.3472833118019
 31
0.0
  0
ARC
  5
1414B
  8
0
 10
2118.8431079642701
 20
1628.1472833118021
 30
0.0
 40
0.2
 50
0.0
 51
90.0
  0
ARC
  5
1414C
  8
0
 10
2107.7431079642702
 20
1628.1472833118021
 30
0.0
 40
0.2
 50
90.0
 51
180.0
  0
LINE
  5
1414D
  8
0
 10
2109.2931079642681
 20
1628.8472833118001
 30
0.0
 11
2109.004432829674
 21
1628.347283311801
 31
0.0
  0
LINE
  5
1414E
  8
0
 10
2117.2931079642699
 20
1628.8472833118001
 30
0.0
 11
2117.581783098864
 21
1628.347283311801
 31
0.0
  0
LINE
  5
1414F
  8
0
 10
2107.5431079642699
 20
1628.1472833118021
 30
0.0
 11
2107.543107964269
 21
1624.0472833117999
 31
0.0
  0
LINE
  5
14150
  8
0
 10
2119.043107964269
 20
1628.1472833118021
 30
0.0
 11
2119.043107964269
 21
1624.047283311801
 31
0.0
  0
ARC
  5
14151
  8
0
 10
2118.8431079642701
 20
1624.047283311801
 30
0.0
 40
0.2
 50
270.0
 51
0.0
  0
LINE
  5
14152
  8
0
 10
2111.7653713588638
 20
1628.3472833118019
 30
0.0
 11
2111.7653713588638
 21
1623.8472833118001
 31
0.0
  0
LINE
  5
14153
  8
0
 10
2114.820844569676
 20
1628.3472833118039
 30
0.0
 11
2114.820844569675
 21
1623.8472833118019
 31
0.0
  0
LINE
  5
14154
  8
CENTER
 10
2115.5931079642669
 20
1626.1472833118009
 30
0.0
 11
2110.993107964272
 21
1626.1472833118009
 31
0.0
  0
LINE
  5
14155
  8
HIDE
 10
2111.5431079642708
 20
1628.8472833118019
 30
0.0
 11
2111.5431079642708
 21
1623.8472833118001
 31
0.0
  0
LINE
  5
14156
  8
HIDE
 10
2115.043107964269
 20
1628.8472833118001
 30
0.0
 11
2115.0431079642699
 21
1623.8472833118019
 31
0.0
  0
LINE
  5
14157
  8
0
 10
2116.1931079642691
 20
1629.3472833118001
 30
0.0
 11
2116.1931079642691
 21
1628.8472833118001
 31
0.0
  0
LINE
  5
14158
  8
0
 10
2110.3931079642698
 20
1629.3472833118001
 30
0.0
 11
2110.3931079642698
 21
1628.8472833118001
 31
0.0
  0
CIRCLE
  5
14159
  8
0
 10
2113.293107964269
 20
1626.1472833118009
 30
0.0
 40
0.9999999999972716
  0
ARC
  5
1415A
  8
HIDE
 10
2113.293107964269
 20
1626.1472833118009
 30
0.0
 40
1.2999999999974521
 50
270.0
 51
180.0
  0
POLYLINE
  5
1415B
  8
0
 66
     1
 10
0.0
 20
0.0
 30
0.0
 70
     1
  0
VERTEX
  5
142DD
  8
0
 10
2112.8931079642689
 20
1626.840103634828
 30
0.0
  0
VERTEX
  5
142DE
  8
0
 10
2112.4931079642688
 20
1626.1472833118009
 30
0.0
  0
VERTEX
  5
142DF
  8
0
 10
2112.8931079642689
 20
1625.454462988773
 30
0.0
  0
VERTEX
  5
142E0
  8
0
 10
2113.6931079642691
 20
1625.454462988773
 30
0.0
  0
VERTEX
  5
142E1
  8
0
 10
2114.0931079642692
 20
1626.1472833118009
 30
0.0
  0
VERTEX
  5
142E2
  8
0
 10
2113.6931079642691
 20
1626.840103634828
 30
0.0
  0
SEQEND
  5
142E3
  8
0
  0
LINE
  5
1415C
  8
HIDE
 10
2102.5431079642681
 20
1598.944718200645
 30
0.0
 11
2102.5431079642681
 21
1591.944718200644
 31
0.0
  0
LINE
  5
1415D
  8
HIDE
 10
2098.0431079642681
 20
1598.944718200645
 30
0.0
 11
2098.0431079642681
 21
1591.944718200644
 31
0.0
  0
LINE
  5
1415E
  8
HIDE
 10
2128.5431229642682
 20
1598.944718200645
 30
0.0
 11
2128.5431229642682
 21
1591.944718200644
 31
0.0
  0
LINE
  5
1415F
  8
HIDE
 10
2124.0431229642682
 20
1598.944718200645
 30
0.0
 11
2124.0431229642682
 21
1591.944718200644
 31
0.0
  0
LINE
  5
14161
  8
CENTER
 10
2126.2931229642682
 20
1600.5193492006449
 30
0.0
 11
2126.2931229642682
 21
1590.672082200645
 31
0.0
  0
LINE
  5
14162
  8
CENTER
 10
2113.2931079642681
 20
1611.721650200644
 30
0.0
 11
2113.2931079642681
 21
1591.0773092006441
 31
0.0
  0
LINE
  5
14163
  8
CENTER
 10
2102.2931079642681
 20
1601.944718200645
 30
0.0
 11
2124.2931229642682
 21
1601.944718200645
 31
0.0
  0
LINE
  5
14164
  8
0
 10
2096.2931079642672
 20
1591.944718200644
 30
0.0
 11
2130.2931229642682
 21
1591.944718200644
 31
0.0
  0
LINE
  5
14165
  8
0
 10
2104.2931079642681
 20
1609.944718200645
 30
0.0
 11
2104.2931079642681
 21
1598.944718200645
 31
0.0
  0
LINE
  5
14166
  8
0
 10
2122.2931229642682
 20
1609.944718200645
 30
0.0
 11
2122.2931229642682
 21
1598.944718200645
 31
0.0
  0
LINE
  5
14167
  8
0
 10
2096.2931079642672
 20
1598.944718200645
 30
0.0
 11
2096.2931079642672
 21
1591.944718200644
 31
0.0
  0
LINE
  5
14168
  8
0
 10
2105.2931079642681
 20
1610.944718200645
 30
0.0
 11
2121.2931079642681
 21
1610.944718200645
 31
0.0
  0
LINE
  5
14169
  8
0
 10
2104.2931349642681
 20
1609.944716200645
 30
0.0
 11
2105.293135964268
 21
1610.9447172006439
 31
0.0
  0
LINE
  5
1416A
  8
0
 10
2121.2931209642679
 20
1610.944728200644
 30
0.0
 11
2122.2931219642678
 21
1609.944727200645
 31
0.0
  0
LINE
  5
1416B
  8
0
 10
2096.2931079642672
 20
1598.944718200645
 30
0.0
 11
2104.2931079642681
 21
1598.944718200645
 31
0.0
  0
LINE
  5
1416C
  8
0
 10
2122.2931229642682
 20
1598.944718200645
 30
0.0
 11
2130.2931229642682
 21
1598.944718200645
 31
0.0
  0
LINE
  5
1416D
  8
0
 10
2130.2931229642682
 20
1598.944718200645
 30
0.0
 11
2130.2931229642682
 21
1591.944718200644
 31
0.0
  0
LINE
  5
1416E
  8
CENTER
 10
2100.2931079642672
 20
1599.777428200644
 30
0.0
 11
2100.2931079642672
 21
1590.806973200645
 31
0.0
  0
LINE
  5
14170
  8
0
 10
2114.8208520696699
 20
1596.4013869941839
 30
0.0
 11
2118.8364466707271
 21
1600.4169815952389
 31
0.0
  0
LINE
  5
14171
  8
0
 10
2107.7497842578091
 20
1603.472454806051
 30
0.0
 11
2111.76537885886
 21
1607.4880494071031
 31
0.0
  0
LINE
  5
14173
  8
0
 10
2107.7497842578091
 20
1600.416981595235
 30
0.0
 11
2111.76537885886
 21
1596.4013869941859
 31
0.0
  0
LINE
  5
14174
  8
0
 10
2114.8208520696749
 20
1607.488049407101
 30
0.0
 11
2118.8364466707271
 21
1603.472454806049
 31
0.0
  0
ARC
  5
14175
  8
0
 10
2113.293115464267
 20
1601.944718200644
 30
0.0
 40
5.75
 50
164.5918457939751
 51
195.4081542060249
  0
ARC
  5
14176
  8
0
 10
2113.293115464267
 20
1601.944718200644
 30
0.0
 40
5.75
 50
254.59184579392141
 51
285.40815420607862
  0
ARC
  5
14177
  8
0
 10
2113.293115464267
 20
1601.944718200644
 30
0.0
 40
5.75
 50
344.59184579391791
 51
15.408154206024911
  0
ARC
  5
14178
  8
0
 10
2113.293115464267
 20
1601.944718200644
 30
0.0
 40
5.75
 50
74.591845793975097
 51
105.4081542060249
  0
ARC
  5
14179
  8
HIDE
 10
2113.2931154642679
 20
1601.944718200644
 30
0.0
 40
2.0
 50
270.0
 51
180.0
  0
LINE
  5
1417A
  8
HIDE
 10
2114.293115464267
 20
1603.3808588622801
 30
0.0
 11
2114.2931154642679
 21
1607.607094027097
 31
0.0
  0
LINE
  5
1417B
  8
HIDE
 10
2112.2931154642679
 20
1603.380858862279
 30
0.0
 11
2112.2931154642679
 21
1607.607094027097
 31
0.0
  0
LINE
  5
1417C
  8
HIDE
 10
2114.5931154642672
 20
1603.1162556520319
 30
0.0
 11
2114.5931154642681
 21
1607.5458341608789
 31
0.0
  0
LINE
  5
1417D
  8
HIDE
 10
2111.9931154642682
 20
1603.1162556520301
 30
0.0
 11
2111.9931154642668
 21
1607.5458341608789
 31
0.0
  0
LINE
  5
1417E
  8
HIDE
 10
2111.9931154642632
 20
1607.4557491700309
 30
0.0
 11
2114.5931154642672
 21
1607.4557491700309
 31
0.0
  0
LINE
  5
1417F
  8
HIDE
 10
2111.9931154642632
 20
1604.9557491700309
 30
0.0
 11
2114.5931154642672
 21
1604.9557491700309
 31
0.0
  0
LINE
  5
14180
  8
HIDE
 10
2112.2870089166308
 20
1604.780654716858
 30
0.0
 11
2111.9870089166302
 21
1604.953859797615
 31
0.0
  0
LINE
  5
14181
  8
HIDE
 10
2114.2870089166308
 20
1604.7790184723519
 30
0.0
 11
2114.5931154642681
 21
1604.9557491700309
 31
0.0
  0
LINE
  5
14182
  8
HIDE
 10
2112.2870089166308
 20
1604.780654716858
 30
0.0
 11
2114.2870089166308
 21
1604.7790184723519
 31
0.0
  0
CIRCLE
  5
14183
  8
0
 10
2113.2931154642679
 20
1601.944718200645
 30
0.0
 40
1.75
  0
ARC
  5
14259
  8
HIDE
 10
2113.2931154642679
 20
1601.944718200644
 30
0.0
 40
8.0
 50
269.99994628520483
 51
179.99999999999349
  0
CIRCLE
  5
1425A
  8
0
 10
2113.2931154642679
 20
1601.944718200645
 30
0.0
 40
7.75
  0
ENDSEC
  0
EOF
