  0
SECTION
  2
HEADER
  9
$ACADVER
  1
AC1009
  9
$INSBASE
 10
0.0
 20
0.0
 30
0.0
  9
$EXTMIN
 10
2006.9820751162811
 20
1512.788168403205
 30
0.0
  9
$EXTMAX
 10
2229.7320751162811
 20
1670.288168403205
 30
0.0
  9
$LIMMIN
 10
0.0
 20
0.0
  9
$LIMMAX
 10
12.0
 20
9.0
  9
$ORTHOMODE
 70
     0
  9
$REGENMODE
 70
     1
  9
$FILLMODE
 70
     1
  9
$QTEXTMODE
 70
     0
  9
$MIRRTEXT
 70
     0
  9
$DRAGMODE
 70
     2
  9
$LTSCALE
 40
5.0
  9
$OSMODE
 70
  2239
  9
$ATTMODE
 70
     1
  9
$TEXTSIZE
 40
2.5
  9
$TRACEWID
 40
0.05
  9
$TEXTSTYLE
  7
BIG
  9
$CLAYER
  8
0
  9
$CELTYPE
  6
BYLAYER
  9
$CECOLOR
 62
   256
  9
$DIMSCALE
 40
1.0
  9
$DIMASZ
 40
3.0
  9
$DIMEXO
 40
1.0
  9
$DIMDLI
 40
0.0
  9
$DIMRND
 40
0.0
  9
$DIMDLE
 40
0.0
  9
$DIMEXE
 40
1.0
  9
$DIMTP
 40
0.0
  9
$DIMTM
 40
0.0
  9
$DIMTXT
 40
3.0
  9
$DIMCEN
 40
0.0
  9
$DIMTSZ
 40
0.0
  9
$DIMTOL
 70
     0
  9
$DIMLIM
 70
     0
  9
$DIMTIH
 70
     0
  9
$DIMTOH
 70
     0
  9
$DIMSE1
 70
     0
  9
$DIMSE2
 70
     0
  9
$DIMTAD
 70
     1
  9
$DIMZIN
 70
     8
  9
$DIMBLK
  1

  9
$DIMASO
 70
     1
  9
$DIMSHO
 70
     1
  9
$DIMPOST
  1

  9
$DIMAPOST
  1

  9
$DIMALT
 70
     0
  9
$DIMALTD
 70
     2
  9
$DIMALTF
 40
25.399999999999999
  9
$DIMLFAC
 40
1.0
  9
$DIMTOFL
 70
     1
  9
$DIMTVP
 40
0.0
  9
$DIMTIX
 70
     1
  9
$DIMSOXD
 70
     0
  9
$DIMSAH
 70
     0
  9
$DIMBLK1
  1

  9
$DIMBLK2
  1

  9
$DIMSTYLE
  2
DUKITEC
  9
$DIMCLRD
 70
     5
  9
$DIMCLRE
 70
     5
  9
$DIMCLRT
 70
     0
  9
$DIMTFAC
 40
1.0
  9
$DIMGAP
 40
1.0
  9
$LUNITS
 70
     2
  9
$LUPREC
 70
     4
  9
$SKETCHINC
 40
0.1
  9
$FILLETRAD
 40
0.2
  9
$AUNITS
 70
     0
  9
$AUPREC
 70
     0
  9
$MENU
  1
.
  9
$ELEVATION
 40
0.0
  9
$PELEVATION
 40
0.0
  9
$THICKNESS
 40
0.0
  9
$LIMCHECK
 70
     0
  9
$BLIPMODE
 70
     0
  9
$CHAMFERA
 40
0.5
  9
$CHAMFERB
 40
0.5
  9
$SKPOLY
 70
     0
  9
$TDCREATE
 40
2454396.7067503929
  9
$TDUPDATE
 40
2456630.7233887268
  9
$TDINDWG
 40
0.0062560648
  9
$TDUSRTIMER
 40
0.0062559491
  9
$USRTIMER
 70
     1
  9
$ANGBASE
 50
0.0
  9
$ANGDIR
 70
     0
  9
$PDMODE
 70
     0
  9
$PDSIZE
 40
0.0
  9
$PLINEWID
 40
0.0
  9
$COORDS
 70
     1
  9
$SPLFRAME
 70
     0
  9
$SPLINETYPE
 70
     6
  9
$SPLINESEGS
 70
     8
  9
$ATTDIA
 70
     0
  9
$ATTREQ
 70
     1
  9
$HANDLING
 70
     1
  9
$HANDSEED
  5
142BE
  9
$SURFTAB1
 70
     6
  9
$SURFTAB2
 70
     6
  9
$SURFTYPE
 70
     6
  9
$SURFU
 70
     6
  9
$SURFV
 70
     6
  9
$UCSNAME
  2

  9
$UCSORG
 10
0.0
 20
0.0
 30
0.0
  9
$UCSXDIR
 10
1.0
 20
0.0
 30
0.0
  9
$UCSYDIR
 10
0.0
 20
1.0
 30
0.0
  9
$PUCSNAME
  2

  9
$PUCSORG
 10
0.0
 20
0.0
 30
0.0
  9
$PUCSXDIR
 10
1.0
 20
0.0
 30
0.0
  9
$PUCSYDIR
 10
0.0
 20
1.0
 30
0.0
  9
$USERI1
 70
     0
  9
$USERI2
 70
     0
  9
$USERI3
 70
     0
  9
$USERI4
 70
     0
  9
$USERI5
 70
     0
  9
$USERR1
 40
0.0
  9
$USERR2
 40
0.0
  9
$USERR3
 40
0.0
  9
$USERR4
 40
0.0
  9
$USERR5
 40
0.0
  9
$WORLDVIEW
 70
     1
  9
$SHADEDGE
 70
     3
  9
$SHADEDIF
 70
    70
  9
$TILEMODE
 70
     1
  9
$MAXACTVP
 70
    64
  9
$PLIMCHECK
 70
     0
  9
$PEXTMIN
 10
0.0
 20
0.0
 30
0.0
  9
$PEXTMAX
 10
0.0
 20
0.0
 30
0.0
  9
$PLIMMIN
 10
0.0
 20
0.0
  9
$PLIMMAX
 10
12.0
 20
9.0
  9
$UNITMODE
 70
     0
  9
$VISRETAIN
 70
     1
  9
$PLINEGEN
 70
     0
  9
$PSLTSCALE
 70
     1
  0
ENDSEC
  0
SECTION
  2
TABLES
  0
TABLE
  2
VPORT
 70
     1
  0
VPORT
  2
*ACTIVE
 70
     0
 10
0.0
 20
0.0
 11
1.0
 21
1.0
 12
2143.6133665310031
 22
1602.0705048186089
 13
0.0
 23
0.0
 14
0.5
 24
0.5
 15
0.5
 25
0.5
 16
0.0
 26
0.0
 36
1.0
 17
0.0
 27
0.0
 37
0.0
 40
143.70933168680421
 41
2.1408934707903771
 42
50.0
 43
0.0
 44
0.0
 50
0.0
 51
0.0
 71
     0
 72
  2000
 73
     1
 74
     3
 75
     0
 76
     0
 77
     0
 78
     0
  0
ENDTAB
  0
TABLE
  2
LTYPE
 70
     4
  0
LTYPE
  2
CONTINUOUS
 70
     0
  3
Solid line
 72
    65
 73
     0
 40
0.0
  0
LTYPE
  2
PHANTOM2
 70
     0
  3
Phantom (.5x) ___ _ _ ___ _ _ ___ _ _ ___ _ _
 72
    65
 73
     6
 40
1.25
 49
0.625
 49
-0.125
 49
0.125
 49
-0.125
 49
0.125
 49
-0.125
  0
LTYPE
  2
CENTER
 70
     0
  3
___ _ ___ _ ___ _ ___ _ ___ _ ___ _ ___ _ ___ _
 72
    65
 73
     4
 40
0.95
 49
0.625
 49
-0.125
 49
0.075
 49
-0.125
  0
LTYPE
  2
DASHED2
 70
     0
  3
Dashed (.5x) _ _ _ _ _ _ _ _ _ _ _ _ _ _ _ _ _
 72
    65
 73
     2
 40
0.375
 49
0.25
 49
-0.125
  0
ENDTAB
  0
TABLE
  2
LAYER
 70
     3
  0
LAYER
  2
0
 70
     0
 62
     7
  6
CONTINUOUS
  0
LAYER
  2
HIDE
 70
     0
 62
     1
  6
DASHED2
  0
LAYER
  2
CENTER
 70
     0
 62
     3
  6
CENTER
  0
ENDTAB
  0
TABLE
  2
STYLE
 70
     2
  0
STYLE
  2
STANDARD
 70
     0
 40
5.0
 41
1.0
 50
0.0
 71
     0
 42
5.0
  3
txt.shx
  4
whgtxt.shx
  0
STYLE
  2
BIG
 70
     0
 40
20.0
 41
1.0
 50
0.0
 71
     0
 42
2.5
  3
txt
  4

  0
ENDTAB
  0
TABLE
  2
VIEW
 70
     0
  0
ENDTAB
  0
TABLE
  2
UCS
 70
     0
  0
ENDTAB
  0
TABLE
  2
APPID
 70
    10
  0
APPID
  2
ACAD
 70
     0
  0
APPID
  2
ACADANNOTATIVE
 70
     0
  0
APPID
  2
ACAD_EXEMPT_FROM_CAD_STANDARDS
 70
     0
  0
APPID
  2
ACAD_DSTYLE_DIMJOGGED_JOGA
 70
     0
  0
APPID
  2
ACAD_PSEXT
 70
     0
  0
APPID
  2
ACAECLAYERSTANDARD
 70
     0
  0
APPID
  2
DCO15
 70
     0
  0
APPID
  2
CONTENTBLOCKICON
 70
     0
  0
APPID
  2
ACAD_NAV_VCDISPLAY
 70
     0
  0
APPID
  2
ACAD_MLEADERVER
 70
     0
  0
ENDTAB
  0
TABLE
  2
DIMSTYLE
 70
     1
  0
DIMSTYLE
  2
DUKITEC
 70
     0
  3

  4

  5

  6

  7

 40
1.0
 41
3.0
 42
1.0
 43
0.0
 44
1.0
 45
0.0
 46
0.0
 47
0.0
 48
0.0
140
3.0
141
0.0
142
0.0
143
25.399999999999999
144
1.0
145
0.0
146
1.0
147
1.0
 71
     0
 72
     0
 73
     0
 74
     0
 75
     0
 76
     0
 77
     1
 78
     8
170
     0
171
     2
172
     1
173
     0
174
     1
175
     0
176
     5
177
     5
178
     0
  0
ENDTAB
  0
ENDSEC
  0
SECTION
  2
BLOCKS
  0
BLOCK
  8
0
  2
$MODEL_SPACE
 70
     0
 10
0.0
 20
0.0
 30
0.0
  3
$MODEL_SPACE
  1

  0
ENDBLK
  5
14087
  8
0
  0
BLOCK
 67
     1
  8
0
  2
$PAPER_SPACE
 70
     0
 10
0.0
 20
0.0
 30
0.0
  3
$PAPER_SPACE
  1

  0
ENDBLK
  5
14083
 67
     1
  8
0
  0
ENDSEC
  0
SECTION
  2
ENTITIES
  0
POLYLINE
  5
13E1C
  8
0
 66
     1
 10
0.0
 20
0.0
 30
0.0
 70
     1
  0
VERTEX
  5
14276
  8
0
 10
2006.9820751162811
 20
1512.788168403205
 30
0.0
  0
VERTEX
  5
14277
  8
0
 10
2006.9820751162811
 20
1670.288168403205
 30
0.0
  0
VERTEX
  5
14278
  8
0
 10
2229.7320751162811
 20
1670.288168403205
 30
0.0
  0
VERTEX
  5
14279
  8
0
 10
2229.7320751162811
 20
1512.788168403205
 30
0.0
  0
VERTEX
  5
1427A
  8
0
 10
2006.9820751162811
 20
1512.788168403205
 30
0.0
  0
SEQEND
  5
1427B
  8
0
  0
TEXT
  5
13FEC
  8
0
 10
2059.0860763302562
 20
1542.956556502623
 30
0.0
 40
20.0
  1
EK 5 P5
  7
BIG
  0
LINE
  5
140A5
  8
HIDE
 10
2108.4235753035591
 20
1632.848767990921
 30
0.0
 11
2108.4235753035591
 21
1649.3487679909219
 31
0.0
  0
LINE
  5
140A6
  8
HIDE
 10
2113.4235753035591
 20
1632.848767990921
 30
0.0
 11
2113.4235753035591
 21
1649.3487679909219
 31
0.0
  0
CIRCLE
  5
140A9
  8
0
 10
2096.9235753035591
 20
1641.0987679909219
 30
0.0
 40
2.25
  0
CIRCLE
  5
140AA
  8
0
 10
2124.9235753035591
 20
1641.0987679909219
 30
0.0
 40
2.25
  0
LINE
  5
140AC
  8
CENTER
 10
2110.9235753035591
 20
1625.0079305935519
 30
0.0
 11
2110.9235753035591
 21
1654.393131483891
 31
0.0
  0
LINE
  5
140AD
  8
0
 10
2092.9235753035591
 20
1632.8487679909219
 30
0.0
 11
2092.9235753035591
 21
1649.3487679909219
 31
0.0
  0
LINE
  5
140AE
  8
0
 10
2100.9235753035591
 20
1632.8487679909219
 30
0.0
 11
2100.9235753035591
 21
1649.3487679909219
 31
0.0
  0
LINE
  5
140AF
  8
0
 10
2120.9235753035591
 20
1632.8487679909219
 30
0.0
 11
2120.9235753035591
 21
1649.3487679909219
 31
0.0
  0
LINE
  5
140B0
  8
0
 10
2128.9235753035591
 20
1632.8487679909219
 30
0.0
 11
2128.9235753035591
 21
1649.3487679909219
 31
0.0
  0
LINE
  5
140B1
  8
0
 10
2101.9235753035591
 20
1632.8487679909219
 30
0.0
 11
2101.9235753035591
 21
1649.3487679909219
 31
0.0
  0
LINE
  5
140B2
  8
0
 10
2119.9235753035591
 20
1632.8487679909219
 30
0.0
 11
2119.9235753035591
 21
1649.3487679909219
 31
0.0
  0
LINE
  5
140B3
  8
0
 10
2092.9235753035591
 20
1632.8487679909219
 30
0.0
 11
2128.9235753035591
 21
1632.8487679909219
 31
0.0
  0
LINE
  5
140B4
  8
0
 10
2092.9235753035591
 20
1649.3487679909219
 30
0.0
 11
2128.9235753035591
 21
1649.3487679909219
 31
0.0
  0
LINE
  5
140B5
  8
CENTER
 10
2093.4235753035591
 20
1641.0987679909219
 30
0.0
 11
2100.4235753035591
 21
1641.0987679909219
 31
0.0
  0
LINE
  5
140B6
  8
CENTER
 10
2096.9235753035591
 20
1637.5987679909219
 30
0.0
 11
2096.9235753035591
 21
1644.5987679909219
 31
0.0
  0
LINE
  5
140B7
  8
CENTER
 10
2128.4235753035591
 20
1641.0987679909219
 30
0.0
 11
2121.4235753035591
 21
1641.0987679909219
 31
0.0
  0
LINE
  5
140B8
  8
CENTER
 10
2124.9235753035591
 20
1637.5987679909219
 30
0.0
 11
2124.9235753035591
 21
1644.5987679909219
 31
0.0
  0
LINE
  5
140B9
  8
0
 10
2117.6735753035609
 20
1631.648767990921
 30
0.0
 11
2117.6735753035609
 21
1627.548767990922
 31
0.0
  0
ARC
  5
140BA
  8
0
 10
2117.4735753035611
 20
1631.648767990921
 30
0.0
 40
0.2
 50
0.0
 51
90.0
  0
ARC
  5
140BB
  8
0
 10
2117.4735753035611
 20
1627.548767990922
 30
0.0
 40
0.2
 50
270.0
 51
0.0
  0
LINE
  5
140BC
  8
0
 10
2104.1735753035609
 20
1631.648767990921
 30
0.0
 11
2104.17357530356
 21
1627.548767990922
 31
0.0
  0
LINE
  5
140BD
  8
0
 10
2117.4735753035611
 20
1627.3487679909219
 30
0.0
 11
2104.3735753035598
 21
1627.3487679909219
 31
0.0
  0
ARC
  5
140BE
  8
0
 10
2104.3735753035598
 20
1627.548767990922
 30
0.0
 40
0.2
 50
180.0
 51
270.0
  0
LINE
  5
140BF
  8
0
 10
2115.4235753035591
 20
1632.3487679909219
 30
0.0
 11
2106.42357530356
 21
1632.3487679909219
 31
0.0
  0
LINE
  5
140C0
  8
0
 10
2117.4735753035611
 20
1631.8487679909219
 30
0.0
 11
2104.3735753035598
 21
1631.8487679909219
 31
0.0
  0
ARC
  5
140C1
  8
0
 10
2104.3735753035598
 20
1631.648767990921
 30
0.0
 40
0.2
 50
90.0
 51
180.0
  0
LINE
  5
140C2
  8
CENTER
 10
2110.92357530356
 20
1633.156919578016
 30
0.0
 11
2110.92357530356
 21
1626.646304962271
 31
0.0
  0
LINE
  5
140C3
  8
0
 10
2115.42357530356
 20
1632.3487679909219
 30
0.0
 11
2115.712250438155
 21
1631.8487679909219
 31
0.0
  0
LINE
  5
140C4
  8
0
 10
2106.42357530356
 20
1632.3487679909219
 30
0.0
 11
2106.134900168965
 21
1631.8487679909219
 31
0.0
  0
LINE
  5
140C5
  8
0
 10
2112.0456696474371
 20
1631.8487679909219
 30
0.0
 11
2112.0456696474371
 21
1627.3487679909219
 31
0.0
  0
LINE
  5
140C6
  8
0
 10
2109.8014809596798
 20
1631.8487679909219
 30
0.0
 11
2109.8014809596798
 21
1627.3487679909219
 31
0.0
  0
LINE
  5
140C7
  8
HIDE
 10
2108.42357530356
 20
1632.348767990924
 30
0.0
 11
2108.42357530356
 21
1627.3487679909219
 31
0.0
  0
LINE
  5
140C8
  8
HIDE
 10
2113.4235753035591
 20
1632.348767990924
 30
0.0
 11
2113.42357530356
 21
1627.3487679909219
 31
0.0
  0
LINE
  5
140D3
  8
HIDE
 10
2108.67357530356
 20
1632.348767990924
 30
0.0
 11
2108.67357530356
 21
1627.3487679909219
 31
0.0
  0
LINE
  5
140D4
  8
HIDE
 10
2113.1735753035591
 20
1632.348767990924
 30
0.0
 11
2113.17357530356
 21
1627.3487679909219
 31
0.0
  0
LINE
  5
140D5
  8
0
 10
2108.4235753035591
 20
1632.8487679909219
 30
0.0
 11
2108.42357530356
 21
1632.348767990924
 31
0.0
  0
LINE
  5
140D6
  8
0
 10
2113.4235753035591
 20
1632.848767990921
 30
0.0
 11
2113.4235753035591
 21
1632.348767990924
 31
0.0
  0
CIRCLE
  5
140D7
  8
0
 10
2110.92357530356
 20
1629.648767990921
 30
0.0
 40
1.000000000004547
  0
CIRCLE
  5
140D8
  8
0
 10
2110.9235753035591
 20
1629.648767990921
 30
0.0
 40
1.3000000000029091
  0
POLYLINE
  5
140D9
  8
0
 66
     1
 10
0.0
 20
0.0
 30
0.0
 70
     1
  0
VERTEX
  5
142B7
  8
0
 10
2110.5735753035592
 20
1630.2549857735701
 30
0.0
  0
VERTEX
  5
142B8
  8
0
 10
2110.2235753035588
 20
1629.648767990921
 30
0.0
  0
VERTEX
  5
142B9
  8
0
 10
2110.5735753035592
 20
1629.0425502082719
 30
0.0
  0
VERTEX
  5
142BA
  8
0
 10
2111.2735753035599
 20
1629.0425502082719
 30
0.0
  0
VERTEX
  5
142BB
  8
0
 10
2111.6235753035598
 20
1629.648767990921
 30
0.0
  0
VERTEX
  5
142BC
  8
0
 10
2111.2735753035599
 20
1630.2549857735701
 30
0.0
  0
SEQEND
  5
142BD
  8
0
  0
LINE
  5
140DC
  8
HIDE
 10
2149.0199747532552
 20
1602.7481715572219
 30
0.0
 11
2162.5199747532552
 21
1602.7481715572219
 31
0.0
  0
LINE
  5
140DD
  8
HIDE
 10
2149.0199747532552
 20
1607.7481715572219
 30
0.0
 11
2162.5199747532552
 21
1607.7481715572219
 31
0.0
  0
LINE
  5
140DE
  8
0
 10
2149.5199817532548
 20
1601.248171557221
 30
0.0
 11
2149.0199817532548
 21
1601.248171557221
 31
0.0
  0
LINE
  5
140DF
  8
0
 10
2149.5199817532548
 20
1609.2481715572219
 30
0.0
 11
2149.0199817532548
 21
1609.2481715572219
 31
0.0
  0
LINE
  5
140E3
  8
CENTER
 10
2142.268723016854
 20
1605.2481715572219
 30
0.0
 11
2169.063917632192
 21
1605.2481715572219
 31
0.0
  0
LINE
  5
140E4
  8
HIDE
 10
2149.5199817532548
 20
1601.248171557221
 30
0.0
 11
2154.5199747532552
 21
1601.248171557221
 31
0.0
  0
LINE
  5
140E5
  8
HIDE
 10
2162.5199747532552
 20
1601.248171557221
 30
0.0
 11
2166.0199747532552
 21
1601.248171557221
 31
0.0
  0
LINE
  5
140E6
  8
HIDE
 10
2149.5199817532548
 20
1609.2481715572219
 30
0.0
 11
2154.5199747532552
 21
1609.2481715572219
 31
0.0
  0
LINE
  5
140E7
  8
HIDE
 10
2162.5199747532552
 20
1609.2481715572219
 30
0.0
 11
2166.0199747532552
 21
1609.2481715572219
 31
0.0
  0
LINE
  5
140E8
  8
0
 10
2166.0199747532552
 20
1594.2481715572219
 30
0.0
 11
2166.0199747532552
 21
1615.2481715572219
 31
0.0
  0
LINE
  5
140E9
  8
0
 10
2149.5199817532548
 20
1594.2481715572219
 30
0.0
 11
2166.0199747532552
 21
1594.2481715572219
 31
0.0
  0
LINE
  5
140EA
  8
0
 10
2149.5199817532548
 20
1615.2481715572219
 30
0.0
 11
2166.0199747532552
 21
1615.2481715572219
 31
0.0
  0
LINE
  5
140EB
  8
0
 10
2149.5199817532548
 20
1594.2481715572219
 30
0.0
 11
2149.5199817532548
 21
1615.2481715572219
 31
0.0
  0
LINE
  5
140EC
  8
0
 10
2149.5199817532548
 20
1602.2481715572219
 30
0.0
 11
2166.0199747532552
 21
1602.2481715572219
 31
0.0
  0
LINE
  5
140ED
  8
0
 10
2149.5199817532548
 20
1614.2481715572219
 30
0.0
 11
2166.0199747532552
 21
1614.2481715572219
 31
0.0
  0
LINE
  5
140EF
  8
0
 10
2148.319974753254
 20
1611.998171557223
 30
0.0
 11
2144.2199747532559
 21
1611.998171557223
 31
0.0
  0
ARC
  5
140F0
  8
0
 10
2148.319974753254
 20
1611.798171557223
 30
0.0
 40
0.2
 50
0.0
 51
90.0
  0
ARC
  5
140F1
  8
0
 10
2144.2199747532559
 20
1611.798171557223
 30
0.0
 40
0.2
 50
90.0
 51
180.0
  0
LINE
  5
140F2
  8
0
 10
2148.319974753254
 20
1598.498171557223
 30
0.0
 11
2144.2199747532559
 21
1598.4981715572219
 31
0.0
  0
LINE
  5
140F3
  8
0
 10
2144.0199747532561
 20
1611.798171557223
 30
0.0
 11
2144.0199747532561
 21
1598.698171557221
 31
0.0
  0
ARC
  5
140F4
  8
0
 10
2144.2199747532559
 20
1598.698171557221
 30
0.0
 40
0.2
 50
180.0
 51
270.0
  0
LINE
  5
140F5
  8
0
 10
2149.0199747532552
 20
1609.748171557221
 30
0.0
 11
2149.0199747532552
 21
1600.7481715572219
 31
0.0
  0
LINE
  5
140F6
  8
0
 10
2148.5199747532552
 20
1611.798171557223
 30
0.0
 11
2148.5199747532552
 21
1598.6981715572231
 31
0.0
  0
ARC
  5
140F7
  8
0
 10
2148.319974753254
 20
1598.6981715572231
 30
0.0
 40
0.2
 50
270.0
 51
0.0
  0
LINE
  5
140F8
  8
CENTER
 10
2149.8281263403501
 20
1605.2481715572219
 30
0.0
 11
2143.3175117246051
 21
1605.2481715572219
 31
0.0
  0
LINE
  5
140F9
  8
0
 10
2149.0199747532552
 20
1609.7481715572219
 30
0.0
 11
2148.5199747532552
 21
1610.0368466918169
 31
0.0
  0
LINE
  5
140FA
  8
0
 10
2149.0199747532552
 20
1600.748171557223
 30
0.0
 11
2148.5199747532552
 21
1600.459496422628
 31
0.0
  0
LINE
  5
140FB
  8
0
 10
2148.5199747532552
 20
1606.3702659010989
 30
0.0
 11
2144.0199747532561
 21
1606.3702659010989
 31
0.0
  0
LINE
  5
140FC
  8
0
 10
2148.5199747532552
 20
1604.126077213343
 30
0.0
 11
2144.0199747532561
 21
1604.126077213341
 31
0.0
  0
LINE
  5
140FD
  8
HIDE
 10
2149.019974753257
 20
1602.7481715572219
 30
0.0
 11
2144.0199747532561
 21
1602.7481715572219
 31
0.0
  0
LINE
  5
140FE
  8
HIDE
 10
2149.019974753257
 20
1607.748171557221
 30
0.0
 11
2144.0199747532561
 21
1607.7481715572219
 31
0.0
  0
LINE
  5
140FF
  8
CENTER
 10
2146.3199747532549
 20
1607.0772077877291
 30
0.0
 11
2146.3199747532549
 21
1612.4563249774999
 31
0.0
  0
LINE
  5
14100
  8
HIDE
 10
2145.3199747532558
 20
1607.498171557221
 30
0.0
 11
2145.319974753254
 21
1611.923686518631
 31
0.0
  0
LINE
  5
14101
  8
HIDE
 10
2147.3199747532581
 20
1607.498171557221
 30
0.0
 11
2147.319974753254
 21
1611.998171557223
 31
0.0
  0
LINE
  5
14102
  8
HIDE
 10
2145.0199747532552
 20
1607.498171557221
 30
0.0
 11
2145.0199747532552
 21
1611.998171557223
 31
0.0
  0
LINE
  5
14103
  8
HIDE
 10
2147.6199747532569
 20
1607.4981715572201
 30
0.0
 11
2147.6199747532601
 21
1611.998171557223
 31
0.0
  0
LINE
  5
14104
  8
HIDE
 10
2147.6199747532601
 20
1611.5171545852629
 30
0.0
 11
2145.0199747532552
 21
1611.5171545852629
 31
0.0
  0
LINE
  5
14105
  8
HIDE
 10
2147.6199747532601
 20
1609.0171545852629
 30
0.0
 11
2145.0199747532552
 21
1609.0171545852629
 31
0.0
  0
LINE
  5
14106
  8
HIDE
 10
2147.3199747532558
 20
1608.8455857490119
 30
0.0
 11
2147.6199747532569
 21
1609.0187908297701
 31
0.0
  0
LINE
  5
14107
  8
HIDE
 10
2145.3199747532558
 20
1608.8439495045061
 30
0.0
 11
2145.0199747532552
 21
1609.0171545852629
 31
0.0
  0
LINE
  5
14108
  8
HIDE
 10
2147.3199747532558
 20
1608.8455857490119
 30
0.0
 11
2145.3199747532558
 21
1608.8439495045061
 31
0.0
  0
LINE
  5
14109
  8
HIDE
 10
2149.019974753257
 20
1602.9981715572219
 30
0.0
 11
2144.0199747532561
 21
1602.9981715572219
 31
0.0
  0
LINE
  5
1410A
  8
HIDE
 10
2149.019974753257
 20
1607.498171557221
 30
0.0
 11
2144.0199747532561
 21
1607.4981715572219
 31
0.0
  0
LINE
  5
1410B
  8
HIDE
 10
2158.7181316630481
 20
1598.2481715572219
 30
0.0
 11
2162.3199747532549
 21
1598.2481715572219
 31
0.0
  0
ARC
  5
1410C
  8
HIDE
 10
2158.7181316630481
 20
1598.4481715572219
 30
0.0
 40
0.2
 50
180.0
 51
270.0
  0
ARC
  5
1410D
  8
HIDE
 10
2162.3199747532549
 20
1598.4481715572219
 30
0.0
 40
0.2000000000000002
 50
270.0
 51
0.0
  0
LINE
  5
1410E
  8
HIDE
 10
2162.5199747532552
 20
1598.4481715572219
 30
0.0
 11
2162.5199747532552
 21
1612.0481715572221
 31
0.0
  0
LINE
  5
1410F
  8
HIDE
 10
2158.5199747532552
 20
1598.4210820924541
 30
0.0
 11
2158.5199747532552
 21
1612.0752610219899
 31
0.0
  0
LINE
  5
14110
  8
HIDE
 10
2158.7181316630481
 20
1612.2481715572219
 30
0.0
 11
2162.3199747532549
 21
1612.2481715572219
 31
0.0
  0
ARC
  5
14111
  8
HIDE
 10
2158.7181316630481
 20
1612.0481715572221
 30
0.0
 40
0.2000000000000002
 50
90.0
 51
180.0
  0
ARC
  5
14112
  8
HIDE
 10
2162.3199747532549
 20
1612.0481715572221
 30
0.0
 40
0.2000000000000002
 50
0.0
 51
90.0
  0
CIRCLE
  5
14113
  8
HIDE
 10
2160.5199747532561
 20
1609.9981715572219
 30
0.0
 40
1.1999999999999991
  0
LINE
  5
14114
  8
HIDE
 10
2161.6219615952818
 20
1610.473171557222
 30
0.0
 11
2162.5199747532552
 21
1610.4731715572209
 31
0.0
  0
LINE
  5
14115
  8
HIDE
 10
2158.5199747532552
 20
1609.0731715572219
 30
0.0
 11
2159.7555305106839
 21
1609.0731715572219
 31
0.0
  0
LINE
  5
14116
  8
HIDE
 10
2161.2844189958259
 20
1609.0731715572219
 30
0.0
 11
2162.5199747532552
 21
1609.0731715572219
 31
0.0
  0
LINE
  5
14117
  8
HIDE
 10
2160.1412448376268
 20
1611.136839046442
 30
0.0
 11
2158.5199747532561
 21
1611.3072413988191
 31
0.0
  0
LINE
  5
14118
  8
HIDE
 10
2162.5199747532552
 20
1602.7481715572219
 30
0.0
 11
2158.5199747532552
 21
1602.7481715572219
 31
0.0
  0
LINE
  5
14119
  8
HIDE
 10
2162.5199747532552
 20
1607.7481715572219
 30
0.0
 11
2158.5199747532552
 21
1607.7481715572219
 31
0.0
  0
CIRCLE
  5
1411A
  8
HIDE
 10
2160.5199747532561
 20
1600.4981715572219
 30
0.0
 40
1.1999999999999991
  0
LINE
  5
1411B
  8
HIDE
 10
2161.6219615952818
 20
1600.0231715572211
 30
0.0
 11
2162.5199747532552
 21
1600.023171557222
 31
0.0
  0
LINE
  5
1411C
  8
HIDE
 10
2158.5199747532552
 20
1601.4231715572209
 30
0.0
 11
2159.7555305106839
 21
1601.4231715572209
 31
0.0
  0
LINE
  5
1411D
  8
HIDE
 10
2161.2844189958259
 20
1601.4231715572209
 30
0.0
 11
2162.5199747532552
 21
1601.4231715572209
 31
0.0
  0
LINE
  5
1411E
  8
HIDE
 10
2160.1412448376268
 20
1599.359504068002
 30
0.0
 11
2158.5199747532561
 21
1599.1891017156249
 31
0.0
  0
LINE
  5
1411F
  8
HIDE
 10
2158.3218178434631
 20
1598.2481715572219
 30
0.0
 11
2154.719974753255
 21
1598.2481715572219
 31
0.0
  0
ARC
  5
14120
  8
HIDE
 10
2158.3218178434631
 20
1598.4481715572219
 30
0.0
 40
0.2
 50
270.0
 51
0.0
  0
ARC
  5
14121
  8
HIDE
 10
2154.719974753255
 20
1598.4481715572219
 30
0.0
 40
0.2000000000000002
 50
180.0
 51
270.0
  0
LINE
  5
14122
  8
HIDE
 10
2154.5199747532552
 20
1598.4481715572219
 30
0.0
 11
2154.5199747532552
 21
1612.0481715572221
 31
0.0
  0
LINE
  5
14123
  8
HIDE
 10
2158.5199747532552
 20
1598.4210820924541
 30
0.0
 11
2158.5199747532552
 21
1612.0752610219899
 31
0.0
  0
LINE
  5
14124
  8
HIDE
 10
2158.3218178434631
 20
1612.2481715572219
 30
0.0
 11
2154.719974753255
 21
1612.2481715572219
 31
0.0
  0
ARC
  5
14125
  8
HIDE
 10
2158.3218178434631
 20
1612.0481715572221
 30
0.0
 40
0.2000000000000002
 50
0.0
 51
90.0
  0
ARC
  5
14126
  8
HIDE
 10
2154.719974753255
 20
1612.0481715572221
 30
0.0
 40
0.2000000000000002
 50
90.0
 51
180.0
  0
CIRCLE
  5
14127
  8
HIDE
 10
2156.5199747532552
 20
1609.9981715572219
 30
0.0
 40
1.1999999999999991
  0
LINE
  5
14128
  8
HIDE
 10
2155.4179879112289
 20
1610.473171557222
 30
0.0
 11
2154.5199747532552
 21
1610.4731715572209
 31
0.0
  0
LINE
  5
14129
  8
HIDE
 10
2158.5199747532552
 20
1609.0731715572219
 30
0.0
 11
2157.2844189958269
 21
1609.0731715572219
 31
0.0
  0
LINE
  5
1412A
  8
HIDE
 10
2155.7555305106848
 20
1609.0731715572219
 30
0.0
 11
2154.5199747532552
 21
1609.0731715572219
 31
0.0
  0
LINE
  5
1412B
  8
HIDE
 10
2156.898704668884
 20
1611.136839046442
 30
0.0
 11
2158.5199747532552
 21
1611.3072413988191
 31
0.0
  0
LINE
  5
1412C
  8
HIDE
 10
2154.5199747532552
 20
1602.7481715572219
 30
0.0
 11
2158.5199747532552
 21
1602.7481715572219
 31
0.0
  0
LINE
  5
1412D
  8
HIDE
 10
2154.5199747532552
 20
1607.7481715572219
 30
0.0
 11
2158.5199747532552
 21
1607.7481715572219
 31
0.0
  0
CIRCLE
  5
1412E
  8
HIDE
 10
2156.5199747532552
 20
1600.4981715572219
 30
0.0
 40
1.1999999999999991
  0
LINE
  5
1412F
  8
HIDE
 10
2155.4179879112289
 20
1600.0231715572211
 30
0.0
 11
2154.5199747532552
 21
1600.023171557222
 31
0.0
  0
LINE
  5
14130
  8
HIDE
 10
2158.5199747532552
 20
1601.4231715572209
 30
0.0
 11
2157.2844189958269
 21
1601.4231715572209
 31
0.0
  0
LINE
  5
14131
  8
HIDE
 10
2155.7555305106848
 20
1601.4231715572209
 30
0.0
 11
2154.5199747532552
 21
1601.4231715572209
 31
0.0
  0
LINE
  5
14132
  8
HIDE
 10
2156.898704668884
 20
1599.359504068002
 30
0.0
 11
2158.5199747532552
 21
1599.1891017156249
 31
0.0
  0
LINE
  5
14133
  8
CENTER
 10
2157.7699782532559
 20
1597.1986857004449
 30
0.0
 11
2157.7699782532559
 21
1588.4478625103591
 31
0.0
  0
LINE
  5
14134
  8
HIDE
 10
2099.1735753035591
 20
1602.2481715572219
 30
0.0
 11
2099.1735753035591
 21
1594.2481715572219
 31
0.0
  0
LINE
  5
14135
  8
HIDE
 10
2094.6735753035591
 20
1602.2481715572219
 30
0.0
 11
2094.6735753035591
 21
1594.2481715572219
 31
0.0
  0
LINE
  5
14136
  8
HIDE
 10
2127.1735753035591
 20
1602.2481715572219
 30
0.0
 11
2127.1735753035591
 21
1594.2481715572219
 31
0.0
  0
LINE
  5
14137
  8
HIDE
 10
2122.6735753035591
 20
1602.2481715572219
 30
0.0
 11
2122.6735753035591
 21
1594.2481715572219
 31
0.0
  0
ARC
  5
14138
  8
HIDE
 10
2110.9235753035591
 20
1605.2481715572219
 30
0.0
 40
8.0
 50
270.0
 51
180.0
  0
LINE
  5
14139
  8
CENTER
 10
2099.9235753035591
 20
1605.2481715572219
 30
0.0
 11
2121.9235753035591
 21
1605.2481715572219
 31
0.0
  0
LINE
  5
1413A
  8
0
 10
2101.9234903035599
 20
1615.2482305572209
 30
0.0
 11
2100.9234983035599
 21
1614.2482425572221
 31
0.0
  0
LINE
  5
1413B
  8
0
 10
2119.9236213035588
 20
1615.2480995572221
 30
0.0
 11
2120.9235793035591
 21
1614.248141557222
 31
0.0
  0
LINE
  5
1413C
  8
0
 10
2120.9235753035591
 20
1602.2481715572219
 30
0.0
 11
2128.9235753035591
 21
1602.2481715572219
 31
0.0
  0
LINE
  5
1413D
  8
CENTER
 10
2096.9235753035591
 20
1593.047945557222
 30
0.0
 11
2096.9235753035591
 21
1603.3271965572219
 31
0.0
  0
LINE
  5
1413E
  8
CENTER
 10
2124.9235753035591
 20
1593.047945557222
 30
0.0
 11
2124.9235753035591
 21
1603.3271965572219
 31
0.0
  0
LINE
  5
1413F
  8
CENTER
 10
2110.9235753035591
 20
1592.4027585572219
 30
0.0
 11
2110.9235753035591
 21
1616.7162345572219
 31
0.0
  0
LINE
  5
14140
  8
0
 10
2092.9235753035591
 20
1594.2481715572219
 30
0.0
 11
2128.9235753035591
 21
1594.2481715572219
 31
0.0
  0
LINE
  5
14141
  8
0
 10
2101.9235753035591
 20
1615.2481715572219
 30
0.0
 11
2119.9235753035591
 21
1615.2481715572219
 31
0.0
  0
LINE
  5
14142
  8
0
 10
2128.9235753035591
 20
1594.2481715572219
 30
0.0
 11
2128.9235753035591
 21
1602.2481715572219
 31
0.0
  0
LINE
  5
14143
  8
0
 10
2092.9235753035591
 20
1594.2481715572219
 30
0.0
 11
2092.9235753035591
 21
1602.2481715572219
 31
0.0
  0
LINE
  5
14144
  8
0
 10
2092.9235753035591
 20
1602.2481715572219
 30
0.0
 11
2100.9235753035591
 21
1602.2481715572219
 31
0.0
  0
LINE
  5
14145
  8
0
 10
2120.9235753035591
 20
1602.2481715572219
 30
0.0
 11
2120.9235753035591
 21
1614.2481715572219
 31
0.0
  0
LINE
  5
14146
  8
0
 10
2100.9235753035591
 20
1602.2481715572219
 30
0.0
 11
2100.9235753035591
 21
1614.2481865572211
 31
0.0
  0
LINE
  5
14147
  8
0
 10
2112.0456696474389
 20
1598.592091308049
 30
0.0
 11
2117.5796555527331
 21
1604.126077213341
 31
0.0
  0
LINE
  5
14148
  8
0
 10
2104.267495054386
 20
1606.3702659011001
 30
0.0
 11
2109.8014809596789
 21
1611.904251806395
 31
0.0
  0
LINE
  5
14149
  8
0
 10
2112.045669647438
 20
1611.904251806395
 30
0.0
 11
2117.5796555527331
 21
1606.3702659011019
 31
0.0
  0
LINE
  5
1414A
  8
0
 10
2104.267495054386
 20
1604.126077213341
 30
0.0
 11
2109.8014809596812
 21
1598.592091308049
 31
0.0
  0
ARC
  5
1414B
  8
0
 10
2110.9235753035591
 20
1605.2481715572219
 30
0.0
 40
6.75
 50
170.43094468734719
 51
189.56905531265281
  0
ARC
  5
1414C
  8
0
 10
2110.9235753035591
 20
1605.2481715572219
 30
0.0
 40
6.75
 50
260.430944687345
 51
279.56905531265488
  0
ARC
  5
1414D
  8
0
 10
2110.9235753035591
 20
1605.2481715572219
 30
0.0
 40
6.75
 50
350.43094468734722
 51
9.5690553126528055
  0
ARC
  5
1414E
  8
0
 10
2110.9235753035591
 20
1605.2481715572219
 30
0.0
 40
6.75
 50
80.430944687345033
 51
99.569055312654982
  0
ARC
  5
1414F
  8
HIDE
 10
2110.9235753035591
 20
1605.2481715572219
 30
0.0
 40
2.5
 50
270.0
 51
180.0
  0
LINE
  5
14150
  8
HIDE
 10
2111.923575303555
 20
1607.263735994298
 30
0.0
 11
2111.9235753035591
 21
1611.923686518631
 31
0.0
  0
LINE
  5
14151
  8
HIDE
 10
2109.9235753035559
 20
1607.2637359942951
 30
0.0
 11
2109.9235753035591
 21
1611.923686518631
 31
0.0
  0
LINE
  5
14152
  8
HIDE
 10
2112.2235753035552
 20
1607.084608324446
 30
0.0
 11
2112.2235753035588
 21
1611.726346150276
 31
0.0
  0
LINE
  5
14153
  8
HIDE
 10
2109.6235753035598
 20
1607.084608324443
 30
0.0
 11
2109.6235753035562
 21
1611.7263461502721
 31
0.0
  0
LINE
  5
14154
  8
HIDE
 10
2109.6235753035548
 20
1611.5171545852629
 30
0.0
 11
2112.2235753035588
 21
1611.5171545852629
 31
0.0
  0
LINE
  5
14155
  8
HIDE
 10
2109.6235753035548
 20
1609.0171545852629
 30
0.0
 11
2112.2235753035588
 21
1609.0171545852629
 31
0.0
  0
LINE
  5
14156
  8
HIDE
 10
2109.9235753035568
 20
1608.8455857490119
 30
0.0
 11
2109.6235753035562
 21
1609.0187908297701
 31
0.0
  0
LINE
  5
14157
  8
HIDE
 10
2111.9235753035582
 20
1608.8439495045061
 30
0.0
 11
2112.2235753035588
 21
1609.0171545852629
 31
0.0
  0
LINE
  5
14158
  8
HIDE
 10
2109.9235753035568
 20
1608.8455857490119
 30
0.0
 11
2111.9235753035582
 21
1608.8439495045061
 31
0.0
  0
CIRCLE
  5
14159
  8
0
 10
2110.9235753035591
 20
1605.2481715572219
 30
0.0
 40
2.25
  0
CIRCLE
  5
14230
  8
0
 10
2110.9235753035591
 20
1605.2481715572219
 30
0.0
 40
7.75
  0
ENDSEC
  0
EOF
