  0
SECTION
  2
HEADER
  9
$ACADVER
  1
AC1009
  9
$INSBASE
 10
0.0
 20
0.0
 30
0.0
  9
$EXTMIN
 10
46.086586195832297
 20
21.7548248099713
 30
0.0
  9
$EXTMAX
 10
137.80687465319571
 20
113.2901796947038
 30
0.0
  9
$LIMMIN
 10
0.0
 20
0.0
  9
$LIMMAX
 10
12.0
 20
9.0
  9
$ORTHOMODE
 70
     1
  9
$REGENMODE
 70
     1
  9
$FILLMODE
 70
     1
  9
$QTEXTMODE
 70
     0
  9
$MIRRTEXT
 70
     0
  9
$DRAGMODE
 70
     2
  9
$LTSCALE
 40
4.0
  9
$OSMODE
 70
  2239
  9
$ATTMODE
 70
     1
  9
$TEXTSIZE
 40
1.1999999999999991
  9
$TRACEWID
 40
0.05
  9
$TEXTSTYLE
  7
DUKI
  9
$CLAYER
  8
0
  9
$CELTYPE
  6
BYLAYER
  9
$CECOLOR
 62
   256
  9
$DIMSCALE
 40
1.0
  9
$DIMASZ
 40
1.5
  9
$DIMEXO
 40
0.5
  9
$DIMDLI
 40
1.0
  9
$DIMRND
 40
0.0
  9
$DIMDLE
 40
0.0
  9
$DIMEXE
 40
0.5
  9
$DIMTP
 40
0.0
  9
$DIMTM
 40
0.000000001
  9
$DIMTXT
 40
2.0
  9
$DIMCEN
 40
1.0
  9
$DIMTSZ
 40
0.0
  9
$DIMTOL
 70
     0
  9
$DIMLIM
 70
     0
  9
$DIMTIH
 70
     0
  9
$DIMTOH
 70
     0
  9
$DIMSE1
 70
     0
  9
$DIMSE2
 70
     0
  9
$DIMTAD
 70
     1
  9
$DIMZIN
 70
     8
  9
$DIMBLK
  1

  9
$DIMASO
 70
     1
  9
$DIMSHO
 70
     1
  9
$DIMPOST
  1

  9
$DIMAPOST
  1

  9
$DIMALT
 70
     0
  9
$DIMALTD
 70
     2
  9
$DIMALTF
 40
25.399999999999999
  9
$DIMLFAC
 40
1.0
  9
$DIMTOFL
 70
     1
  9
$DIMTVP
 40
0.0
  9
$DIMTIX
 70
     0
  9
$DIMSOXD
 70
     0
  9
$DIMSAH
 70
     0
  9
$DIMBLK1
  1

  9
$DIMBLK2
  1

  9
$DIMSTYLE
  2
DUKI1
  9
$DIMCLRD
 70
     5
  9
$DIMCLRE
 70
     5
  9
$DIMCLRT
 70
     2
  9
$DIMTFAC
 40
0.5
  9
$DIMGAP
 40
0.7
  9
$LUNITS
 70
     2
  9
$LUPREC
 70
     4
  9
$SKETCHINC
 40
0.1
  9
$FILLETRAD
 40
0.2
  9
$AUNITS
 70
     0
  9
$AUPREC
 70
     0
  9
$MENU
  1
.
  9
$ELEVATION
 40
0.0
  9
$PELEVATION
 40
0.0
  9
$THICKNESS
 40
0.0
  9
$LIMCHECK
 70
     0
  9
$BLIPMODE
 70
     0
  9
$CHAMFERA
 40
0.5
  9
$CHAMFERB
 40
0.5
  9
$SKPOLY
 70
     0
  9
$TDCREATE
 40
2455131.5516736922
  9
$TDUPDATE
 40
2456630.607438067
  9
$TDINDWG
 40
0.1167050116
  9
$TDUSRTIMER
 40
0.1167048958
  9
$USRTIMER
 70
     1
  9
$ANGBASE
 50
0.0
  9
$ANGDIR
 70
     0
  9
$PDMODE
 70
     0
  9
$PDSIZE
 40
0.0
  9
$PLINEWID
 40
0.0
  9
$COORDS
 70
     1
  9
$SPLFRAME
 70
     0
  9
$SPLINETYPE
 70
     6
  9
$SPLINESEGS
 70
     8
  9
$ATTDIA
 70
     0
  9
$ATTREQ
 70
     1
  9
$HANDLING
 70
     1
  9
$HANDSEED
  5
1CBB0
  9
$SURFTAB1
 70
     6
  9
$SURFTAB2
 70
     6
  9
$SURFTYPE
 70
     6
  9
$SURFU
 70
     6
  9
$SURFV
 70
     6
  9
$UCSNAME
  2

  9
$UCSORG
 10
0.0
 20
0.0
 30
0.0
  9
$UCSXDIR
 10
1.0
 20
0.0
 30
0.0
  9
$UCSYDIR
 10
0.0
 20
1.0
 30
0.0
  9
$PUCSNAME
  2

  9
$PUCSORG
 10
0.0
 20
0.0
 30
0.0
  9
$PUCSXDIR
 10
1.0
 20
0.0
 30
0.0
  9
$PUCSYDIR
 10
0.0
 20
1.0
 30
0.0
  9
$USERI1
 70
     0
  9
$USERI2
 70
     0
  9
$USERI3
 70
     0
  9
$USERI4
 70
     0
  9
$USERI5
 70
     0
  9
$USERR1
 40
0.0
  9
$USERR2
 40
0.0
  9
$USERR3
 40
0.0
  9
$USERR4
 40
0.0
  9
$USERR5
 40
0.0
  9
$WORLDVIEW
 70
     1
  9
$SHADEDGE
 70
     3
  9
$SHADEDIF
 70
    70
  9
$TILEMODE
 70
     1
  9
$MAXACTVP
 70
    48
  9
$PLIMCHECK
 70
     0
  9
$PEXTMIN
 10
0.0
 20
0.0
 30
0.0
  9
$PEXTMAX
 10
0.0
 20
0.0
 30
0.0
  9
$PLIMMIN
 10
0.0
 20
0.0
  9
$PLIMMAX
 10
12.0
 20
9.0
  9
$UNITMODE
 70
     0
  9
$VISRETAIN
 70
     1
  9
$PLINEGEN
 70
     0
  9
$PSLTSCALE
 70
     1
  0
ENDSEC
  0
SECTION
  2
TABLES
  0
TABLE
  2
VPORT
 70
     1
  0
VPORT
  2
*ACTIVE
 70
     0
 10
0.0
 20
0.0
 11
1.0
 21
1.0
 12
96.052165005762035
 22
66.167850978229183
 13
0.0
 23
0.0
 14
0.5
 24
0.5
 15
0.5
 25
0.5
 16
0.0
 26
0.0
 36
1.0
 17
0.0
 27
0.0
 37
0.0
 40
100.874989848138
 41
2.1408934707903771
 42
50.0
 43
0.0
 44
0.0
 50
0.0
 51
0.0
 71
     0
 72
  2000
 73
     1
 74
     3
 75
     0
 76
     0
 77
     0
 78
     0
  0
ENDTAB
  0
TABLE
  2
LTYPE
 70
     3
  0
LTYPE
  2
CONTINUOUS
 70
     0
  3
Solid line
 72
    65
 73
     0
 40
0.0
  0
LTYPE
  2
PHANTOM2
 70
     0
  3
Phantom (.5x) ___ _ _ ___ _ _ ___ _ _ ___ _ _
 72
    65
 73
     6
 40
1.25
 49
0.625
 49
-0.125
 49
0.125
 49
-0.125
 49
0.125
 49
-0.125
  0
LTYPE
  2
CENTER
 70
     0
  3
____ _ ____ _ ____ _ ____ _ ____ _ ____ _ ____ 
 72
    65
 73
     4
 40
2.0
 49
1.25
 49
-0.25
 49
0.25
 49
-0.25
  0
ENDTAB
  0
TABLE
  2
LAYER
 70
     3
  0
LAYER
  2
0
 70
     0
 62
     7
  6
CONTINUOUS
  0
LAYER
  2
CENTER
 70
     0
 62
     3
  6
CENTER
  0
LAYER
  2
HIDE1
 70
     0
 62
     1
  6
CONTINUOUS
  0
ENDTAB
  0
TABLE
  2
STYLE
 70
     5
  0
STYLE
  2
STANDARD
 70
     0
 40
5.0
 41
1.0
 50
0.0
 71
     0
 42
5.0
  3
txt.shx
  4
whgtxt.shx
  0
STYLE
  2
ANNOTATIVE
 70
     0
 40
0.0
 41
1.0
 50
0.0
 71
     0
 42
0.2
  3
txt
  4

  0
STYLE
  2
DUKI
 70
     0
 40
1.1999999999999991
 41
1.0
 50
0.0
 71
     0
 42
1.1999999999999991
  3
txt
  4

  0
STYLE
  2
DUKI2-1
 70
     0
 40
4.0
 41
1.0
 50
0.0
 71
     0
 42
4.0
  3
txt
  4

  0
STYLE
  2
DUKI_1
 70
     0
 40
2.0
 41
1.0
 50
0.0
 71
     0
 42
2.0
  3
txt
  4

  0
ENDTAB
  0
TABLE
  2
VIEW
 70
     0
  0
ENDTAB
  0
TABLE
  2
UCS
 70
     0
  0
ENDTAB
  0
TABLE
  2
APPID
 70
    20
  0
APPID
  2
ACAD
 70
     0
  0
APPID
  2
ACADANNOTATIVE
 70
     0
  0
APPID
  2
ACAD_EXEMPT_FROM_CAD_STANDARDS
 70
     0
  0
APPID
  2
ACAD_DSTYLE_DIMJOGGED_JOGA
 70
     0
  0
APPID
  2
ACAD_PSEXT
 70
     0
  0
APPID
  2
ACAECLAYERSTANDARD
 70
     0
  0
APPID
  2
DCO15
 70
     0
  0
APPID
  2
ACAD_MLEADERVER
 70
     0
  0
APPID
  2
ACAD_DSTYLE_DIMJAG
 70
     0
  0
APPID
  2
ACAD_DSTYLE_DIMBREAK
 70
     0
  0
APPID
  2
ACAD_DSTYLE_DIMTALN
 70
     0
  0
APPID
  2
ACAD_DSTYLE_DIMRADIAL_EXTENSION
 70
     0
  0
APPID
  2
ACAD_DSTYLE_DIMTEXT_FILL
 70
     0
  0
APPID
  2
ACADANNOPO
 70
     0
  0
APPID
  2
ACADSTRINGINFO
 70
     0
  0
APPID
  2
CONTENTBLOCKICON
 70
     0
  0
APPID
  2
ACAD_NAV_VCDISPLAY
 70
     0
  0
APPID
  2
ACDBDYNAMICBLOCKTRUENAME2
 70
     0
  0
APPID
  2
CAXA_DRAFT_DIMSTYLE_ANGTXTVPOS
 70
     0
  0
APPID
  2
CAXA_DRAFT_TXTSTYLE
 70
     0
  0
ENDTAB
  0
TABLE
  2
DIMSTYLE
 70
     3
  0
DIMSTYLE
  2
STANDARD
 70
     0
  3

  4

  5

  6

  7

 40
1.0
 41
0.18
 42
0.0625
 43
0.38
 44
0.18
 45
0.0
 46
0.0
 47
0.0
 48
0.0
140
0.18
141
0.09
142
0.0
143
25.399999999999999
144
1.0
145
0.0
146
1.0
147
0.09
 71
     0
 72
     0
 73
     1
 74
     1
 75
     0
 76
     0
 77
     0
 78
     0
170
     0
171
     2
172
     0
173
     0
174
     0
175
     0
176
     0
177
     0
178
     0
  0
DIMSTYLE
  2
ANNOTATIVE
 70
     0
  3

  4

  5

  6

  7

 40
1.0
 41
0.18
 42
0.0625
 43
0.38
 44
0.18
 45
0.0
 46
0.0
 47
0.0
 48
0.0
140
0.18
141
0.09
142
0.0
143
25.399999999999999
144
1.0
145
0.0
146
1.0
147
0.09
 71
     0
 72
     0
 73
     1
 74
     1
 75
     0
 76
     0
 77
     0
 78
     0
170
     0
171
     2
172
     0
173
     0
174
     0
175
     0
176
     0
177
     0
178
     0
  0
DIMSTYLE
  2
DUKI1
 70
     0
  3

  4

  5

  6

  7

 40
1.0
 41
1.5
 42
0.5
 43
1.0
 44
0.5
 45
0.0
 46
0.0
 47
0.0
 48
0.000000001
140
2.0
141
1.0
142
0.0
143
25.399999999999999
144
1.0
145
0.0
146
0.5
147
0.7
 71
     0
 72
     0
 73
     0
 74
     0
 75
     0
 76
     0
 77
     1
 78
     8
170
     0
171
     2
172
     1
173
     0
174
     0
175
     0
176
     5
177
     5
178
     2
  0
ENDTAB
  0
ENDSEC
  0
SECTION
  2
BLOCKS
  0
BLOCK
  8
0
  2
$MODEL_SPACE
 70
     0
 10
0.0
 20
0.0
 30
0.0
  3
$MODEL_SPACE
  1

  0
ENDBLK
  5
1CAEB
  8
0
  0
BLOCK
 67
     1
  8
0
  2
$PAPER_SPACE
 70
     0
 10
0.0
 20
0.0
 30
0.0
  3
$PAPER_SPACE
  1

  0
ENDBLK
  5
1CAE7
 67
     1
  8
0
  0
BLOCK
  8
0
  2
*U2
 70
     1
 10
0.0
 20
0.0
 30
0.0
  3
*U2
  1

  0
TEXT
  5
1C51D
  8
0
 10
83.497223404343771
 20
21.7548248099713
 30
0.0
 40
4.0
  1
EK6
  7
DUKI2-1
  0
ENDBLK
  5
1C51F
  8
0
  0
ENDSEC
  0
SECTION
  2
ENTITIES
  0
INSERT
  5
1C3E7
  8
0
  2
*U2
 10
0.0
 20
0.0
 30
0.0
  0
LINE
  5
1C8F0
  8
HIDE1
 10
88.836586195832297
 20
57.604230498907221
 30
0.0
 11
88.836586195839544
 21
52.604230498907221
 31
0.0
  0
LINE
  5
1C8F1
  8
HIDE1
 10
86.836586195839544
 20
52.604230498907221
 30
0.0
 11
86.836586195832297
 21
37.604230498907221
 31
0.0
  0
LINE
  5
1C8F2
  8
HIDE1
 10
81.336586195839573
 20
52.604230498907221
 30
0.0
 11
81.336586195832297
 21
37.604230498907221
 31
0.0
  0
LINE
  5
1C8F3
  8
HIDE1
 10
79.336586195832297
 20
57.604230498907221
 30
0.0
 11
79.336586195846863
 21
52.604230498907221
 31
0.0
  0
LINE
  5
1C8F4
  8
HIDE1
 10
79.336586195832297
 20
52.604230498907221
 30
0.0
 11
88.836586195832297
 21
52.604230498907221
 31
0.0
  0
LINE
  5
1C8F5
  8
HIDE1
 10
49.336586195832297
 20
52.604230498907221
 30
0.0
 11
58.83658619583229
 21
52.604230498907221
 31
0.0
  0
LINE
  5
1C8F6
  8
HIDE1
 10
49.336586195832297
 20
57.604230498907221
 30
0.0
 11
49.336586195846863
 21
52.604230498907221
 31
0.0
  0
LINE
  5
1C8F7
  8
HIDE1
 10
58.83658619583229
 20
57.604230498907221
 30
0.0
 11
58.836586195846863
 21
52.604230498907221
 31
0.0
  0
LINE
  5
1C8F8
  8
HIDE1
 10
56.836586195846863
 20
52.604230498907221
 30
0.0
 11
56.836586195832297
 21
37.604230498907221
 31
0.0
  0
LINE
  5
1C8F9
  8
HIDE1
 10
51.336586195846841
 20
52.604230498907221
 30
0.0
 11
51.33658619583229
 21
37.604230498907221
 31
0.0
  0
LINE
  5
1C8FA
  8
CENTER
 10
84.086586195832297
 20
36.384900498907307
 30
0.0
 11
84.086586195832297
 21
58.677632498907201
 31
0.0
  0
LINE
  5
1C8FC
  8
CENTER
 10
46.086586195832297
 20
50.604230498907206
 30
0.0
 11
92.086586195832297
 21
50.604230498907206
 31
0.0
  0
LINE
  5
1C8FD
  8
0
 10
60.08658619583229
 20
57.604230498907221
 30
0.0
 11
60.08658619583229
 21
62.30423049890792
 31
0.0
  0
LINE
  5
1C8FE
  8
0
 10
61.086586195832297
 20
63.304230498907941
 30
0.0
 11
77.086586195832297
 21
63.304230498907941
 31
0.0
  0
LINE
  5
1C8FF
  8
0
 10
60.08658619583229
 20
62.30423049890792
 30
0.0
 11
61.086586195832297
 21
63.304230498907941
 31
0.0
  0
LINE
  5
1C900
  8
0
 10
78.086586195832297
 20
57.604230498907221
 30
0.0
 11
90.086586195832297
 21
57.604230498907221
 31
0.0
  0
LINE
  5
1C901
  8
CENTER
 10
54.086586195832297
 20
36.384900498907307
 30
0.0
 11
54.086586195832297
 21
58.677632498907201
 31
0.0
  0
LINE
  5
1C902
  8
0
 10
78.086586195832297
 20
57.604230498907221
 30
0.0
 11
78.086586195832297
 21
62.30423049890792
 31
0.0
  0
LINE
  5
1C903
  8
0
 10
77.086586195832297
 20
63.304230498907941
 30
0.0
 11
78.086586195832297
 21
62.30423049890792
 31
0.0
  0
LINE
  5
1C904
  8
0
 10
48.086586195832297
 20
37.604230498907221
 30
0.0
 11
90.086586195832297
 21
37.604230498907221
 31
0.0
  0
LINE
  5
1C905
  8
0
 10
48.086586195832297
 20
37.604230498907221
 30
0.0
 11
48.086586195832297
 21
57.604230498907221
 31
0.0
  0
LINE
  5
1C906
  8
0
 10
90.086586195832297
 20
37.604230498907221
 30
0.0
 11
90.086586195832297
 21
57.604230498907221
 31
0.0
  0
LINE
  5
1C907
  8
0
 10
48.086586195832297
 20
57.604230498907221
 30
0.0
 11
60.08658619583229
 21
57.604230498907221
 31
0.0
  0
LINE
  5
1C908
  8
0
 10
70.451510774657891
 20
43.483873703481891
 30
0.0
 11
76.206942991253982
 21
49.239305920096172
 31
0.0
  0
LINE
  5
1C909
  8
0
 10
61.966229400410612
 20
51.969155077720082
 30
0.0
 11
67.721661617021255
 21
57.72458729433253
 31
0.0
  0
LINE
  5
1C90A
  8
HIDE1
 10
70.586586195832297
 20
57.589511873145398
 30
0.0
 11
70.586586195846849
 21
52.75844149135753
 31
0.0
  0
LINE
  5
1C90B
  8
HIDE1
 10
70.336586195832297
 20
57.745658927451011
 30
0.0
 11
70.336586195832297
 21
52.91250366298425
 31
0.0
  0
LINE
  5
1C90C
  8
HIDE1
 10
67.586586195846849
 20
57.589511873145398
 30
0.0
 11
67.586586195846849
 21
52.758441491361161
 31
0.0
  0
LINE
  5
1C90D
  8
HIDE1
 10
67.836586195832297
 20
57.745658927451011
 30
0.0
 11
67.836586195832297
 21
52.91250366298425
 31
0.0
  0
LINE
  5
1C90E
  8
0
 10
70.451510774657891
 20
57.72458729433253
 30
0.0
 11
76.206942991268534
 21
51.969155077716437
 31
0.0
  0
LINE
  5
1C90F
  8
0
 10
61.966229400410612
 20
49.239305920092526
 30
0.0
 11
67.721661617021255
 21
43.483873703483717
 31
0.0
  0
ARC
  5
1C910
  8
0
 10
69.086586195832297
 20
50.604230498907206
 30
0.0
 40
7.25
 50
169.14842434511101
 51
190.85157565499131
  0
ARC
  5
1C911
  8
0
 10
69.086586195832297
 20
50.604230498907206
 30
0.0
 40
7.25
 50
259.1484243449695
 51
280.85157565503039
  0
ARC
  5
1C912
  8
0
 10
69.086586195832297
 20
50.604230498907206
 30
0.0
 40
7.25
 50
349.14842434500861
 51
10.851575654889009
  0
ARC
  5
1C913
  8
0
 10
69.086586195832297
 20
50.604230498907206
 30
0.0
 40
7.25
 50
79.148424344969598
 51
100.8515756550304
  0
LINE
  5
1C914
  8
HIDE1
 10
67.586586195846849
 20
54.327255632744141
 30
0.0
 11
70.586586195846849
 21
54.327255632744141
 31
0.0
  0
LINE
  5
1C915
  8
HIDE1
 10
67.586586195846849
 20
57.327255632744141
 30
0.0
 11
70.586586195846849
 21
57.327255632744141
 31
0.0
  0
LINE
  5
1C916
  8
HIDE1
 10
67.586586195846849
 20
54.327255632742322
 30
0.0
 11
67.836586195832297
 21
54.182918065447097
 31
0.0
  0
LINE
  5
1C917
  8
HIDE1
 10
70.586586195832297
 20
54.327255632742322
 30
0.0
 11
70.336586195832297
 21
54.182918065445278
 31
0.0
  0
LINE
  5
1C918
  8
HIDE1
 10
67.836586195832297
 20
54.182918065447097
 30
0.0
 11
70.336586195832297
 21
54.182918065445278
 31
0.0
  0
ARC
  5
1C919
  8
HIDE1
 10
69.086586195832297
 20
50.604230498907206
 30
0.0
 40
3.0
 50
270.0
 51
180.0
  0
CIRCLE
  5
1C91A
  8
0
 10
69.086586195832297
 20
50.604230498907206
 30
0.0
 40
2.625
  0
CIRCLE
  5
1C91B
  8
0
 10
69.086586195832297
 20
50.604230498907206
 30
0.0
 40
10.5
  0
ARC
  5
1C91C
  8
HIDE1
 10
69.086586195832297
 20
50.604230498907206
 30
0.0
 40
11.0
 50
270.0
 51
180.0
  0
LINE
  5
1C921
  8
CENTER
 10
69.086586195832297
 20
34.728541599129471
 30
0.0
 11
69.086586195832297
 21
64.69351439862055
 31
0.0
  0
LINE
  5
1C925
  8
0
 10
64.336586195832297
 20
111.920263277961
 30
0.0
 11
64.336586195832297
 21
108.420263277961
 31
0.0
  0
LINE
  5
1C926
  8
0
 10
73.836586195832297
 20
111.920263277961
 30
0.0
 11
73.836586195832297
 21
108.420263277961
 31
0.0
  0
CIRCLE
  5
1C927
  8
0
 10
54.086586195832297
 20
98.420263277961013
 30
0.0
 40
2.75
  0
CIRCLE
  5
1C928
  8
0
 10
54.086586195832297
 20
98.420263277961013
 30
0.0
 40
4.75
  0
CIRCLE
  5
1C929
  8
0
 10
84.086586195832297
 20
98.420263277961013
 30
0.0
 40
2.75
  0
CIRCLE
  5
1C92A
  8
0
 10
84.086586195832297
 20
98.420263277961013
 30
0.0
 40
4.75
  0
LINE
  5
1C92B
  8
CENTER
 10
69.086586195832297
 20
79.052606632703288
 30
0.0
 11
69.086586195832297
 21
113.2901796947038
 31
0.0
  0
LINE
  5
1C92C
  8
0
 10
48.086586195832297
 20
88.420263277961013
 30
0.0
 11
48.086586195832297
 21
108.420263277961
 31
0.0
  0
LINE
  5
1C92D
  8
0
 10
90.086586195832297
 20
88.420263277961013
 30
0.0
 11
90.086586195832297
 21
108.420263277961
 31
0.0
  0
LINE
  5
1C92E
  8
0
 10
60.08658619583229
 20
88.420263277961013
 30
0.0
 11
60.08658619583229
 21
108.420263277961
 31
0.0
  0
LINE
  5
1C92F
  8
0
 10
78.086586195832297
 20
88.420263277961013
 30
0.0
 11
78.086586195832297
 21
108.420263277961
 31
0.0
  0
LINE
  5
1C930
  8
0
 10
77.086586195832297
 20
88.420263277961013
 30
0.0
 11
77.086586195832297
 21
108.420263277961
 31
0.0
  0
LINE
  5
1C931
  8
0
 10
61.086586195832297
 20
88.420263277961013
 30
0.0
 11
61.086586195832297
 21
108.420263277961
 31
0.0
  0
LINE
  5
1C932
  8
0
 10
48.086586195832297
 20
88.420263277961013
 30
0.0
 11
90.086586195832297
 21
88.420263277961013
 31
0.0
  0
LINE
  5
1C933
  8
0
 10
48.086586195832297
 20
108.420263277961
 30
0.0
 11
90.086586195832297
 21
108.420263277961
 31
0.0
  0
LINE
  5
1C934
  8
CENTER
 10
46.296577195828363
 20
98.420263277961013
 30
0.0
 11
61.876594195828602
 21
98.420263277961013
 31
0.0
  0
LINE
  5
1C935
  8
CENTER
 10
54.086586195832297
 20
106.2102722779612
 30
0.0
 11
54.086586195832297
 21
90.630270277960676
 31
0.0
  0
LINE
  5
1C936
  8
CENTER
 10
76.296578195835977
 20
98.420263277961013
 30
0.0
 11
91.876579195838076
 21
98.420263277961013
 31
0.0
  0
LINE
  5
1C937
  8
CENTER
 10
84.086586195832297
 20
106.2102722779612
 30
0.0
 11
84.086586195832297
 21
90.630270277960676
 31
0.0
  0
LINE
  5
1C938
  8
0
 10
76.336586195832297
 20
86.920263277961013
 30
0.0
 11
76.336586195832297
 21
82.420263277961027
 31
0.0
  0
LINE
  5
1C939
  8
0
 10
61.836586195832297
 20
86.920263277961013
 30
0.0
 11
61.836586195832297
 21
82.420263277959165
 31
0.0
  0
LINE
  5
1C93A
  8
0
 10
76.336586195832297
 20
82.420263277961027
 30
0.0
 11
61.836586195832297
 21
82.420263277961027
 31
0.0
  0
LINE
  5
1C93B
  8
0
 10
74.086586195832297
 20
87.420263277961027
 30
0.0
 11
64.086586195832297
 21
87.420263277961027
 31
0.0
  0
LINE
  5
1C93C
  8
CENTER
 10
71.127357584382935
 20
84.720263277960285
 30
0.0
 11
67.04581480729621
 21
84.720263277960285
 31
0.0
  0
LINE
  5
1C93D
  8
0
 10
76.336586195832297
 20
86.920263277961013
 30
0.0
 11
61.836586195832297
 21
86.920263277961013
 31
0.0
  0
LINE
  5
1C93E
  8
CENTER
 10
69.086586195832297
 20
88.512605681521904
 30
0.0
 11
69.086586195832297
 21
81.432914319285715
 31
0.0
  0
LINE
  5
1C93F
  8
0
 10
70.451510774643339
 20
86.920263277961013
 30
0.0
 11
70.451510774643339
 21
82.420263277961027
 31
0.0
  0
LINE
  5
1C940
  8
0
 10
67.721661617021255
 20
86.920263277961013
 30
0.0
 11
67.721661617021255
 21
82.420263277961027
 31
0.0
  0
LINE
  5
1C941
  8
HIDE1
 10
66.086586195832297
 20
87.420263277961027
 30
0.0
 11
66.086586195832297
 21
82.420263277961027
 31
0.0
  0
LINE
  5
1C942
  8
HIDE1
 10
72.086586195832297
 20
87.420263277961027
 30
0.0
 11
72.086586195832297
 21
82.420263277961027
 31
0.0
  0
LINE
  5
1C943
  8
0
 10
64.086586195832297
 20
87.420263277961027
 30
0.0
 11
63.797911061252748
 21
86.920263277961013
 31
0.0
  0
LINE
  5
1C944
  8
0
 10
74.086586195832297
 20
87.420263277961027
 30
0.0
 11
74.375261330426383
 21
86.920263277961013
 31
0.0
  0
LINE
  5
1C945
  8
HIDE1
 10
66.086586195832297
 20
87.920263277961013
 30
0.0
 11
66.086586195832297
 21
111.920263277961
 31
0.0
  0
LINE
  5
1C946
  8
HIDE1
 10
72.086586195832297
 20
87.920263277961013
 30
0.0
 11
72.086586195832297
 21
111.920263277961
 31
0.0
  0
CIRCLE
  5
1C947
  8
0
 10
69.086586195832297
 20
84.720263277960285
 30
0.0
 40
1.25
  0
CIRCLE
  5
1C948
  8
0
 10
69.086586195832297
 20
84.720263277960285
 30
0.0
 40
1.4999999999954521
  0
POLYLINE
  5
1C949
  8
0
 66
     1
 10
0.0
 20
0.0
 30
0.0
 70
     1
  0
VERTEX
  5
1CB6D
  8
0
 10
70.042270545893643
 20
84.720263277960285
 30
0.0
  0
VERTEX
  5
1CB6E
  8
0
 10
69.564428370870246
 20
85.54791020311437
 30
0.0
  0
VERTEX
  5
1CB6F
  8
0
 10
68.608744020808899
 20
85.54791020311437
 30
0.0
  0
VERTEX
  5
1CB70
  8
0
 10
68.13090184577095
 20
84.720263277960285
 30
0.0
  0
VERTEX
  5
1CB71
  8
0
 10
68.608744020808899
 20
83.892616352806144
 30
0.0
  0
VERTEX
  5
1CB72
  8
0
 10
69.564428370870246
 20
83.892616352806144
 30
0.0
  0
SEQEND
  5
1CB73
  8
0
  0
LINE
  5
1C94A
  8
0
 10
64.336586195846849
 20
88.420263277961013
 30
0.0
 11
64.336586195832297
 21
87.420263277961027
 31
0.0
  0
LINE
  5
1C94B
  8
0
 10
73.836586195846863
 20
88.420263277961013
 30
0.0
 11
73.836586195846863
 21
87.420263277961027
 31
0.0
  0
LINE
  5
1C94C
  8
CENTER
 10
69.086586195832297
 20
87.420263277961027
 30
0.0
 11
69.086586195832297
 21
80.340571915724809
 31
0.0
  0
LINE
  5
1C94D
  8
0
 10
73.836586195832297
 20
111.920263277961
 30
0.0
 11
64.336586195832297
 21
111.920263277961
 31
0.0
  0
LINE
  5
1C94E
  8
HIDE1
 10
112.8427786264387
 20
47.604230498907206
 30
0.0
 11
116.3427786264387
 21
47.604230498907206
 31
0.0
  0
LINE
  5
1C94F
  8
HIDE1
 10
130.3427786264387
 20
47.604230498907206
 30
0.0
 11
137.3427786264387
 21
47.604230498907206
 31
0.0
  0
LINE
  5
1C950
  8
HIDE1
 10
112.8427786264387
 20
53.604230498907206
 30
0.0
 11
116.3427786264387
 21
53.604230498907206
 31
0.0
  0
LINE
  5
1C951
  8
HIDE1
 10
130.3427786264387
 20
53.604230498907206
 30
0.0
 11
137.3427786264387
 21
53.604230498907206
 31
0.0
  0
LINE
  5
1C952
  8
0
 10
113.8427786264387
 20
37.604230498907221
 30
0.0
 11
133.8427786264387
 21
37.604230498907221
 31
0.0
  0
LINE
  5
1C953
  8
0
 10
133.8427786264387
 20
37.604230498907221
 30
0.0
 11
133.8427786264314
 21
63.304230498907941
 31
0.0
  0
LINE
  5
1C954
  8
0
 10
113.8427786264387
 20
37.604230498907221
 30
0.0
 11
113.8427786264314
 21
63.304230498907941
 31
0.0
  0
LINE
  5
1C955
  8
CENTER
 10
104.7903662135308
 20
50.604230498907206
 30
0.0
 11
137.80687465319571
 21
50.604230498907206
 31
0.0
  0
LINE
  5
1C956
  8
HIDE1
 10
113.8427786264387
 20
55.354230498907206
 30
0.0
 11
116.3427786264387
 21
55.35423049890538
 31
0.0
  0
LINE
  5
1C957
  8
HIDE1
 10
130.3427786264387
 20
55.354230498907206
 30
0.0
 11
133.8427786264387
 21
55.354230498907206
 31
0.0
  0
LINE
  5
1C958
  8
HIDE1
 10
113.8427786264387
 20
45.854230498907206
 30
0.0
 11
116.3427786264387
 21
45.854230498907206
 31
0.0
  0
LINE
  5
1C959
  8
HIDE1
 10
130.3427786264387
 20
45.854230498907206
 30
0.0
 11
133.8427786264387
 21
45.854230498907206
 31
0.0
  0
LINE
  5
1C95A
  8
0
 10
113.8427786264387
 20
63.304230498907941
 30
0.0
 11
133.8427786264387
 21
63.304230498907941
 31
0.0
  0
LINE
  5
1C95B
  8
0
 10
133.8427786264387
 20
55.354230498907206
 30
0.0
 11
137.3427786264387
 21
55.354230498907206
 31
0.0
  0
LINE
  5
1C95C
  8
0
 10
133.8427786264387
 20
45.854230498907206
 30
0.0
 11
137.3427786264387
 21
45.854230498907206
 31
0.0
  0
LINE
  5
1C95D
  8
0
 10
113.8427786264387
 20
55.354230498907206
 30
0.0
 11
112.8427786264387
 21
55.354230498907206
 31
0.0
  0
LINE
  5
1C95E
  8
0
 10
113.8427786264387
 20
45.854230498907206
 30
0.0
 11
112.8427786264387
 21
45.854230498907206
 31
0.0
  0
LINE
  5
1C95F
  8
0
 10
112.3427786264387
 20
57.854230498907206
 30
0.0
 11
107.8427786264387
 21
57.854230498907206
 31
0.0
  0
LINE
  5
1C960
  8
0
 10
112.3427786264387
 20
43.354230498907206
 30
0.0
 11
107.8427786264387
 21
43.354230498907206
 31
0.0
  0
LINE
  5
1C961
  8
0
 10
107.8427786264387
 20
57.854230498907206
 30
0.0
 11
107.8427786264387
 21
43.354230498907206
 31
0.0
  0
LINE
  5
1C962
  8
0
 10
112.8427786264387
 20
55.604230498907206
 30
0.0
 11
112.8427786264387
 21
45.604230498909033
 31
0.0
  0
LINE
  5
1C963
  8
CENTER
 10
110.1427786264416
 20
58.432375086985637
 30
0.0
 11
110.1427786264416
 21
52.401083746493327
 31
0.0
  0
LINE
  5
1C964
  8
0
 10
112.3427786264387
 20
57.854230498907206
 30
0.0
 11
112.3427786264387
 21
43.354230498907206
 31
0.0
  0
LINE
  5
1C965
  8
HIDE1
 10
112.8427786264387
 20
47.604230498907206
 30
0.0
 11
107.8427786264387
 21
47.604230498907206
 31
0.0
  0
LINE
  5
1C966
  8
HIDE1
 10
112.8427786264387
 20
53.604230498907206
 30
0.0
 11
107.8427786264387
 21
53.604230498907206
 31
0.0
  0
LINE
  5
1C967
  8
0
 10
112.8427786264387
 20
45.604230498907206
 30
0.0
 11
112.3427786264387
 21
45.315555364316751
 31
0.0
  0
LINE
  5
1C968
  8
0
 10
112.8427786264387
 20
55.604230498907206
 30
0.0
 11
112.3427786264387
 21
55.892905633503112
 31
0.0
  0
LINE
  5
1C969
  8
HIDE1
 10
108.6427786264416
 20
57.854230498907206
 30
0.0
 11
108.64277862643431
 21
53.229230498910859
 31
0.0
  0
LINE
  5
1C96A
  8
HIDE1
 10
108.8927786264416
 20
57.854230498907206
 30
0.0
 11
108.8927786264416
 21
53.229230498910859
 31
0.0
  0
LINE
  5
1C96B
  8
HIDE1
 10
111.64277862643431
 20
57.854230498907206
 30
0.0
 11
111.64277862643431
 21
53.229230498910859
 31
0.0
  0
LINE
  5
1C96C
  8
HIDE1
 10
111.3927786264416
 20
57.854230498907206
 30
0.0
 11
111.3927786264416
 21
53.229230498910859
 31
0.0
  0
LINE
  5
1C96D
  8
HIDE1
 10
111.64277862643431
 20
54.327255632744141
 30
0.0
 11
108.64277862643431
 21
54.327255632744141
 31
0.0
  0
LINE
  5
1C96E
  8
HIDE1
 10
111.64277862643431
 20
57.327255632744141
 30
0.0
 11
108.64277862643431
 21
57.327255632744141
 31
0.0
  0
LINE
  5
1C96F
  8
HIDE1
 10
111.64277862643431
 20
54.327255632744141
 30
0.0
 11
111.3927786264416
 21
54.182918065447097
 31
0.0
  0
LINE
  5
1C970
  8
HIDE1
 10
108.6427786264416
 20
54.327255632744141
 30
0.0
 11
108.8927786264416
 21
54.182918065447097
 31
0.0
  0
LINE
  5
1C971
  8
HIDE1
 10
111.3927786264416
 20
54.182918065447097
 30
0.0
 11
108.8927786264416
 21
54.182918065447097
 31
0.0
  0
LINE
  5
1C972
  8
HIDE1
 10
112.8427786264387
 20
53.229230498910859
 30
0.0
 11
107.8427786264387
 21
53.229230498909033
 31
0.0
  0
LINE
  5
1C973
  8
HIDE1
 10
112.8427786264387
 20
47.979230498907206
 30
0.0
 11
107.8427786264387
 21
47.979230498907206
 31
0.0
  0
CIRCLE
  5
1C974
  8
HIDE1
 10
119.8427786264387
 20
43.854230498907206
 30
0.0
 40
2.25
  0
CIRCLE
  5
1C975
  8
HIDE1
 10
119.8427786264387
 20
57.354230498907206
 30
0.0
 40
2.25
  0
ARC
  5
1C976
  8
HIDE1
 10
123.042778626443
 20
53.904230498906493
 30
0.0
 40
0.2999999999999998
 50
270.0
 51
0.0
  0
ARC
  5
1C977
  8
HIDE1
 10
123.042778626443
 20
47.304230498907941
 30
0.0
 40
0.2999999999999998
 50
0.0
 51
90.0
  0
LINE
  5
1C978
  8
HIDE1
 10
116.3427786264387
 20
55.954230498907577
 30
0.0
 11
118.0813871310624
 21
55.954230498907577
 31
0.0
  0
LINE
  5
1C979
  8
HIDE1
 10
121.60417012182219
 20
55.954230498907577
 30
0.0
 11
123.3427786264387
 21
55.954230498907577
 31
0.0
  0
LINE
  5
1C97A
  8
HIDE1
 10
123.3427786264387
 20
45.254230498908647
 30
0.0
 11
121.60417012182219
 21
45.254230498908647
 31
0.0
  0
LINE
  5
1C97B
  8
HIDE1
 10
118.0813871310624
 20
45.254230498908647
 30
0.0
 11
116.3427786264387
 21
45.254230498908647
 31
0.0
  0
ARC
  5
1C97C
  8
HIDE1
 10
116.6427786264416
 20
53.904230498906493
 30
0.0
 40
0.3
 50
180.0
 51
270.0
  0
LINE
  5
1C97D
  8
HIDE1
 10
116.3427786264387
 20
53.904230498906493
 30
0.0
 11
116.3427786264387
 21
50.604230498907206
 31
0.0
  0
LINE
  5
1C97E
  8
HIDE1
 10
116.3427786264387
 20
47.304230498907941
 30
0.0
 11
116.3427786264387
 21
50.604230498907206
 31
0.0
  0
ARC
  5
1C97F
  8
HIDE1
 10
116.6427786264416
 20
47.304230498907941
 30
0.0
 40
0.2999999999999998
 50
90.0
 51
180.0
  0
LINE
  5
1C980
  8
HIDE1
 10
116.3427786264387
 20
45.254230498908647
 30
0.0
 11
116.3427786264387
 21
47.304230498907941
 31
0.0
  0
LINE
  5
1C981
  8
HIDE1
 10
116.6427786264416
 20
47.604230498907206
 30
0.0
 11
123.042778626443
 21
47.604230498907206
 31
0.0
  0
LINE
  5
1C982
  8
HIDE1
 10
116.6427786264416
 20
53.604230498907206
 30
0.0
 11
123.042778626443
 21
53.604230498907206
 31
0.0
  0
LINE
  5
1C983
  8
HIDE1
 10
116.3427786264387
 20
55.954230498907577
 30
0.0
 11
116.3427786264387
 21
53.904230498906493
 31
0.0
  0
LINE
  5
1C984
  8
HIDE1
 10
123.3427786264387
 20
53.904230498906493
 30
0.0
 11
123.3427786264387
 21
50.604230498907206
 31
0.0
  0
LINE
  5
1C985
  8
HIDE1
 10
123.3427786264387
 20
47.304230498907941
 30
0.0
 11
123.3427786264387
 21
50.604230498907206
 31
0.0
  0
LINE
  5
1C986
  8
HIDE1
 10
123.3427786264387
 20
47.304230498907941
 30
0.0
 11
123.3427786264387
 21
45.254230498908647
 31
0.0
  0
LINE
  5
1C987
  8
HIDE1
 10
123.3427786264387
 20
55.954230498907577
 30
0.0
 11
123.3427786264387
 21
53.904230498906493
 31
0.0
  0
LINE
  5
1C988
  8
HIDE1
 10
116.3427786264387
 20
45.254230498908647
 30
0.0
 11
116.3427786264387
 21
42.254230498908647
 31
0.0
  0
LINE
  5
1C989
  8
HIDE1
 10
123.3427786264387
 20
41.354230498907206
 30
0.0
 11
123.3427786264387
 21
45.254230498908647
 31
0.0
  0
LINE
  5
1C98A
  8
HIDE1
 10
119.8427786264387
 20
41.604230498907206
 30
0.0
 11
123.3427786264387
 21
41.354230498907206
 31
0.0
  0
LINE
  5
1C98B
  8
HIDE1
 10
116.6427786264416
 20
40.104230498907206
 30
0.0
 11
123.042778626443
 21
40.104230498907206
 31
0.0
  0
LINE
  5
1C98C
  8
HIDE1
 10
118.2608494244872
 20
42.254230498908647
 30
0.0
 11
116.3427786264387
 21
42.254230498908647
 31
0.0
  0
ARC
  5
1C98D
  8
HIDE1
 10
116.6427786264416
 20
40.404230498906472
 30
0.0
 40
0.2999999999999971
 50
180.0
 51
270.0
  0
LINE
  5
1C98E
  8
HIDE1
 10
116.3427786264387
 20
42.254230498908647
 30
0.0
 11
116.3427786264387
 21
40.404230498906472
 31
0.0
  0
ARC
  5
1C98F
  8
HIDE1
 10
123.042778626443
 20
40.404230498906472
 30
0.0
 40
0.3000000000001339
 50
270.0
 51
0.0
  0
LINE
  5
1C990
  8
HIDE1
 10
123.3427786264387
 20
40.404230498906472
 30
0.0
 11
123.3427786264387
 21
41.354230498907206
 31
0.0
  0
LINE
  5
1C991
  8
HIDE1
 10
116.3427786264387
 20
58.954230498907577
 30
0.0
 11
116.3427786264387
 21
60.804230498907941
 31
0.0
  0
LINE
  5
1C992
  8
HIDE1
 10
123.3427786264387
 20
60.804230498907941
 30
0.0
 11
123.3427786264387
 21
59.854230498907206
 31
0.0
  0
LINE
  5
1C993
  8
HIDE1
 10
123.3427786264387
 20
59.854230498907206
 30
0.0
 11
123.3427786264387
 21
55.954230498907577
 31
0.0
  0
LINE
  5
1C994
  8
HIDE1
 10
116.3427786264387
 20
55.954230498907577
 30
0.0
 11
116.3427786264387
 21
58.954230498907577
 31
0.0
  0
LINE
  5
1C995
  8
HIDE1
 10
119.8427786264387
 20
59.604230498907206
 30
0.0
 11
123.3427786264387
 21
59.854230498907206
 31
0.0
  0
LINE
  5
1C996
  8
HIDE1
 10
118.2608494244872
 20
58.954230498907577
 30
0.0
 11
116.3427786264387
 21
58.954230498907577
 31
0.0
  0
LINE
  5
1C997
  8
HIDE1
 10
116.6427786264416
 20
61.104230498907206
 30
0.0
 11
123.042778626443
 21
61.104230498907206
 31
0.0
  0
ARC
  5
1C998
  8
HIDE1
 10
116.6427786264416
 20
60.804230498907941
 30
0.0
 40
0.2999999999999971
 50
90.0
 51
180.0
  0
ARC
  5
1C999
  8
HIDE1
 10
123.042778626443
 20
60.804230498907941
 30
0.0
 40
0.2999999999999634
 50
0.0
 51
90.0
  0
LINE
  5
1C99A
  8
HIDE1
 10
123.2900203014309
 20
59.850462047120693
 30
0.0
 11
123.3427786264387
 21
59.903220372130249
 31
0.0
  0
CIRCLE
  5
1C99B
  8
HIDE1
 10
126.8427786264387
 20
43.854230498907206
 30
0.0
 40
2.25
  0
CIRCLE
  5
1C99C
  8
HIDE1
 10
126.8427786264387
 20
57.354230498907206
 30
0.0
 40
2.25
  0
ARC
  5
1C99D
  8
HIDE1
 10
123.6427786264416
 20
53.904230498906493
 30
0.0
 40
0.2999999999999998
 50
180.0
 51
270.0
  0
ARC
  5
1C99E
  8
HIDE1
 10
123.6427786264416
 20
47.304230498907941
 30
0.0
 40
0.2999999999999998
 50
90.0
 51
180.0
  0
LINE
  5
1C99F
  8
HIDE1
 10
130.3427786264387
 20
55.954230498907577
 30
0.0
 11
128.60417012182231
 21
55.954230498907577
 31
0.0
  0
LINE
  5
1C9A0
  8
HIDE1
 10
125.0813871310624
 20
55.954230498907577
 30
0.0
 11
123.3427786264387
 21
55.954230498907577
 31
0.0
  0
LINE
  5
1C9A1
  8
HIDE1
 10
123.3427786264387
 20
45.254230498908647
 30
0.0
 11
125.0813871310624
 21
45.254230498908647
 31
0.0
  0
LINE
  5
1C9A2
  8
HIDE1
 10
128.60417012182231
 20
45.254230498908647
 30
0.0
 11
130.3427786264387
 21
45.254230498908647
 31
0.0
  0
ARC
  5
1C9A3
  8
HIDE1
 10
130.04277862644301
 20
53.904230498906493
 30
0.0
 40
0.3
 50
270.0
 51
0.0
  0
LINE
  5
1C9A4
  8
HIDE1
 10
130.3427786264387
 20
53.904230498906493
 30
0.0
 11
130.3427786264387
 21
50.604230498907206
 31
0.0
  0
LINE
  5
1C9A5
  8
HIDE1
 10
130.3427786264387
 20
47.304230498907941
 30
0.0
 11
130.3427786264387
 21
50.604230498907206
 31
0.0
  0
ARC
  5
1C9A6
  8
HIDE1
 10
130.04277862644301
 20
47.304230498907941
 30
0.0
 40
0.2999999999999998
 50
0.0
 51
90.0
  0
LINE
  5
1C9A7
  8
HIDE1
 10
130.3427786264387
 20
45.254230498908647
 30
0.0
 11
130.3427786264387
 21
47.304230498907941
 31
0.0
  0
LINE
  5
1C9A8
  8
HIDE1
 10
130.04277862644301
 20
47.604230498907206
 30
0.0
 11
123.6427786264416
 21
47.604230498907206
 31
0.0
  0
LINE
  5
1C9A9
  8
HIDE1
 10
130.04277862644301
 20
53.604230498907206
 30
0.0
 11
123.6427786264416
 21
53.604230498907206
 31
0.0
  0
LINE
  5
1C9AA
  8
HIDE1
 10
130.3427786264387
 20
55.954230498907577
 30
0.0
 11
130.3427786264387
 21
53.904230498906493
 31
0.0
  0
LINE
  5
1C9AB
  8
HIDE1
 10
123.3427786264387
 20
53.904230498906493
 30
0.0
 11
123.3427786264387
 21
50.604230498907206
 31
0.0
  0
LINE
  5
1C9AC
  8
HIDE1
 10
123.3427786264387
 20
47.304230498907941
 30
0.0
 11
123.3427786264387
 21
50.604230498907206
 31
0.0
  0
LINE
  5
1C9AD
  8
HIDE1
 10
123.3427786264387
 20
47.304230498907941
 30
0.0
 11
123.3427786264387
 21
45.254230498908647
 31
0.0
  0
LINE
  5
1C9AE
  8
HIDE1
 10
123.3427786264387
 20
55.954230498907577
 30
0.0
 11
123.3427786264387
 21
53.904230498906493
 31
0.0
  0
LINE
  5
1C9AF
  8
HIDE1
 10
130.3427786264387
 20
45.254230498908647
 30
0.0
 11
130.3427786264387
 21
42.254230498908647
 31
0.0
  0
LINE
  5
1C9B0
  8
HIDE1
 10
123.3427786264387
 20
41.354230498907206
 30
0.0
 11
123.3427786264387
 21
45.254230498908647
 31
0.0
  0
LINE
  5
1C9B1
  8
HIDE1
 10
126.8427786264387
 20
41.604230498907206
 30
0.0
 11
123.3427786264387
 21
41.354230498907206
 31
0.0
  0
LINE
  5
1C9B2
  8
HIDE1
 10
130.04277862644301
 20
40.104230498907206
 30
0.0
 11
123.6427786264416
 21
40.104230498907206
 31
0.0
  0
LINE
  5
1C9B3
  8
HIDE1
 10
128.4247078283974
 20
42.254230498908647
 30
0.0
 11
130.3427786264387
 21
42.254230498908647
 31
0.0
  0
ARC
  5
1C9B4
  8
HIDE1
 10
130.04277862644301
 20
40.404230498906472
 30
0.0
 40
0.2999999999999971
 50
270.0
 51
0.0
  0
LINE
  5
1C9B5
  8
HIDE1
 10
130.3427786264387
 20
42.254230498908647
 30
0.0
 11
130.3427786264387
 21
40.404230498906472
 31
0.0
  0
ARC
  5
1C9B6
  8
HIDE1
 10
123.6427786264416
 20
40.404230498906472
 30
0.0
 40
0.3000000000001339
 50
180.0
 51
270.0
  0
LINE
  5
1C9B7
  8
HIDE1
 10
123.3427786264387
 20
40.404230498906472
 30
0.0
 11
123.3427786264387
 21
41.354230498907206
 31
0.0
  0
LINE
  5
1C9B8
  8
HIDE1
 10
130.3427786264387
 20
58.954230498907577
 30
0.0
 11
130.3427786264387
 21
60.804230498907941
 31
0.0
  0
LINE
  5
1C9B9
  8
HIDE1
 10
123.3427786264387
 20
60.804230498907941
 30
0.0
 11
123.3427786264387
 21
59.854230498907206
 31
0.0
  0
LINE
  5
1C9BA
  8
HIDE1
 10
123.3427786264387
 20
59.854230498907206
 30
0.0
 11
123.3427786264387
 21
55.954230498907577
 31
0.0
  0
LINE
  5
1C9BB
  8
HIDE1
 10
130.3427786264387
 20
55.954230498907577
 30
0.0
 11
130.3427786264387
 21
58.954230498907577
 31
0.0
  0
LINE
  5
1C9BC
  8
HIDE1
 10
126.8427786264387
 20
59.604230498907206
 30
0.0
 11
123.3427786264387
 21
59.854230498907206
 31
0.0
  0
LINE
  5
1C9BD
  8
HIDE1
 10
128.4247078283974
 20
58.954230498907577
 30
0.0
 11
130.3427786264387
 21
58.954230498907577
 31
0.0
  0
LINE
  5
1C9BE
  8
HIDE1
 10
130.04277862644301
 20
61.104230498907206
 30
0.0
 11
123.6427786264416
 21
61.104230498907206
 31
0.0
  0
ARC
  5
1C9BF
  8
HIDE1
 10
130.04277862644301
 20
60.804230498907941
 30
0.0
 40
0.2999999999999971
 50
0.0
 51
90.0
  0
ARC
  5
1C9C0
  8
HIDE1
 10
123.6427786264416
 20
60.804230498907941
 30
0.0
 40
0.2999999999999634
 50
90.0
 51
180.0
  0
LINE
  5
1C9C1
  8
HIDE1
 10
123.39553695145371
 20
59.850462047120693
 30
0.0
 11
123.3427786264387
 21
59.903220372130249
 31
0.0
  0
LINE
  5
1C9C2
  8
CENTER
 10
123.8427786264387
 20
32.32378356540665
 30
0.0
 11
123.8427786264387
 21
39.597821350823672
 31
0.0
  0
LINE
  5
1C9C3
  8
0
 10
137.3427786264387
 20
55.354230498907206
 30
0.0
 11
137.3427786264387
 21
45.854230498907206
 31
0.0
  0
LINE
  5
1C9C4
  8
0
 10
113.8427786264314
 20
62.304230498918862
 30
0.0
 11
133.84277862642409
 21
62.304230498922493
 31
0.0
  0
ENDSEC
  0
EOF
