  0
SECTION
  2
HEADER
  9
$ACADVER
  1
AC1009
  9
$INSBASE
 10
0.0
 20
0.0
 30
0.0
  9
$EXTMIN
 10
1903.0405749290021
 20
1433.173578249188
 30
0.0
  9
$EXTMAX
 10
2356.6458478853651
 20
1748.173578249188
 30
0.0
  9
$LIMMIN
 10
0.0
 20
0.0
  9
$LIMMAX
 10
12.0
 20
9.0
  9
$ORTHOMODE
 70
     1
  9
$REGENMODE
 70
     1
  9
$FILLMODE
 70
     1
  9
$QTEXTMODE
 70
     0
  9
$MIRRTEXT
 70
     0
  9
$DRAGMODE
 70
     2
  9
$LTSCALE
 40
5.0
  9
$OSMODE
 70
  2239
  9
$ATTMODE
 70
     1
  9
$TEXTSIZE
 40
2.5
  9
$TRACEWID
 40
0.05
  9
$TEXTSTYLE
  7
BIG
  9
$CLAYER
  8
0
  9
$CELTYPE
  6
BYLAYER
  9
$CECOLOR
 62
   256
  9
$DIMSCALE
 40
1.0
  9
$DIMASZ
 40
3.0
  9
$DIMEXO
 40
1.0
  9
$DIMDLI
 40
0.0
  9
$DIMRND
 40
0.0
  9
$DIMDLE
 40
0.0
  9
$DIMEXE
 40
1.0
  9
$DIMTP
 40
0.0
  9
$DIMTM
 40
0.0
  9
$DIMTXT
 40
3.0
  9
$DIMCEN
 40
0.0
  9
$DIMTSZ
 40
0.0
  9
$DIMTOL
 70
     0
  9
$DIMLIM
 70
     0
  9
$DIMTIH
 70
     0
  9
$DIMTOH
 70
     0
  9
$DIMSE1
 70
     0
  9
$DIMSE2
 70
     0
  9
$DIMTAD
 70
     1
  9
$DIMZIN
 70
     8
  9
$DIMBLK
  1

  9
$DIMASO
 70
     1
  9
$DIMSHO
 70
     1
  9
$DIMPOST
  1

  9
$DIMAPOST
  1

  9
$DIMALT
 70
     0
  9
$DIMALTD
 70
     2
  9
$DIMALTF
 40
25.399999999999999
  9
$DIMLFAC
 40
1.0
  9
$DIMTOFL
 70
     1
  9
$DIMTVP
 40
0.0
  9
$DIMTIX
 70
     1
  9
$DIMSOXD
 70
     0
  9
$DIMSAH
 70
     0
  9
$DIMBLK1
  1

  9
$DIMBLK2
  1

  9
$DIMSTYLE
  2
DUKITEC
  9
$DIMCLRD
 70
     5
  9
$DIMCLRE
 70
     5
  9
$DIMCLRT
 70
     0
  9
$DIMTFAC
 40
1.0
  9
$DIMGAP
 40
1.0
  9
$LUNITS
 70
     2
  9
$LUPREC
 70
     4
  9
$SKETCHINC
 40
0.1
  9
$FILLETRAD
 40
0.2
  9
$AUNITS
 70
     0
  9
$AUPREC
 70
     0
  9
$MENU
  1
.
  9
$ELEVATION
 40
0.0
  9
$PELEVATION
 40
0.0
  9
$THICKNESS
 40
0.0
  9
$LIMCHECK
 70
     0
  9
$BLIPMODE
 70
     0
  9
$CHAMFERA
 40
0.5
  9
$CHAMFERB
 40
0.5
  9
$SKPOLY
 70
     0
  9
$TDCREATE
 40
2454396.704694734
  9
$TDUPDATE
 40
2456630.6184952431
  9
$TDINDWG
 40
0.0126114236
  9
$TDUSRTIMER
 40
0.0126113079
  9
$USRTIMER
 70
     1
  9
$ANGBASE
 50
0.0
  9
$ANGDIR
 70
     0
  9
$PDMODE
 70
     0
  9
$PDSIZE
 40
0.0
  9
$PLINEWID
 40
0.0
  9
$COORDS
 70
     1
  9
$SPLFRAME
 70
     0
  9
$SPLINETYPE
 70
     6
  9
$SPLINESEGS
 70
     8
  9
$ATTDIA
 70
     0
  9
$ATTREQ
 70
     1
  9
$HANDLING
 70
     1
  9
$HANDSEED
  5
146F6
  9
$SURFTAB1
 70
     6
  9
$SURFTAB2
 70
     6
  9
$SURFTYPE
 70
     6
  9
$SURFU
 70
     6
  9
$SURFV
 70
     6
  9
$UCSNAME
  2

  9
$UCSORG
 10
0.0
 20
0.0
 30
0.0
  9
$UCSXDIR
 10
1.0
 20
0.0
 30
0.0
  9
$UCSYDIR
 10
0.0
 20
1.0
 30
0.0
  9
$PUCSNAME
  2

  9
$PUCSORG
 10
0.0
 20
0.0
 30
0.0
  9
$PUCSXDIR
 10
1.0
 20
0.0
 30
0.0
  9
$PUCSYDIR
 10
0.0
 20
1.0
 30
0.0
  9
$USERI1
 70
     0
  9
$USERI2
 70
     0
  9
$USERI3
 70
     0
  9
$USERI4
 70
     0
  9
$USERI5
 70
     0
  9
$USERR1
 40
0.0
  9
$USERR2
 40
0.0
  9
$USERR3
 40
0.0
  9
$USERR4
 40
0.0
  9
$USERR5
 40
0.0
  9
$WORLDVIEW
 70
     1
  9
$SHADEDGE
 70
     3
  9
$SHADEDIF
 70
    70
  9
$TILEMODE
 70
     1
  9
$MAXACTVP
 70
    64
  9
$PLIMCHECK
 70
     0
  9
$PEXTMIN
 10
0.0
 20
0.0
 30
0.0
  9
$PEXTMAX
 10
0.0
 20
0.0
 30
0.0
  9
$PLIMMIN
 10
0.0
 20
0.0
  9
$PLIMMAX
 10
12.0
 20
9.0
  9
$UNITMODE
 70
     0
  9
$VISRETAIN
 70
     1
  9
$PLINEGEN
 70
     0
  9
$PSLTSCALE
 70
     1
  0
ENDSEC
  0
SECTION
  2
TABLES
  0
TABLE
  2
VPORT
 70
     1
  0
VPORT
  2
*ACTIVE
 70
     0
 10
0.0
 20
0.0
 11
1.0
 21
1.0
 12
2113.605209461392
 22
1576.4767606262851
 13
0.0
 23
0.0
 14
0.5
 24
0.5
 15
0.5
 25
0.5
 16
0.0
 26
0.0
 36
1.0
 17
0.0
 27
0.0
 37
0.0
 40
149.5105579903456
 41
2.1408934707903771
 42
50.0
 43
0.0
 44
0.0
 50
0.0
 51
0.0
 71
     0
 72
  2000
 73
     1
 74
     3
 75
     0
 76
     0
 77
     0
 78
     0
  0
ENDTAB
  0
TABLE
  2
LTYPE
 70
     5
  0
LTYPE
  2
CONTINUOUS
 70
     0
  3
Solid line
 72
    65
 73
     0
 40
0.0
  0
LTYPE
  2
PHANTOM2
 70
     0
  3
Phantom (.5x) ___ _ _ ___ _ _ ___ _ _ ___ _ _
 72
    65
 73
     6
 40
1.25
 49
0.625
 49
-0.125
 49
0.125
 49
-0.125
 49
0.125
 49
-0.125
  0
LTYPE
  2
CENTER
 70
     0
  3
___ _ ___ _ ___ _ ___ _ ___ _ ___ _ ___ _ ___ _
 72
    65
 73
     4
 40
0.95
 49
0.625
 49
-0.125
 49
0.075
 49
-0.125
  0
LTYPE
  2
DASHED2
 70
     0
  3
Dashed (.5x) _ _ _ _ _ _ _ _ _ _ _ _ _ _ _ _ _
 72
    65
 73
     2
 40
0.375
 49
0.25
 49
-0.125
  0
ENDTAB
  0
TABLE
  2
LAYER
 70
     6
  0
LAYER
  2
0
 70
     0
 62
     7
  6
CONTINUOUS
  0
LAYER
  2
HIDE
 70
     0
 62
     1
  6
DASHED2
  0
LAYER
  2
CENTER
 70
     0
 62
     3
  6
CENTER
  0
ENDTAB
  0
TABLE
  2
STYLE
 70
     3
  0
STYLE
  2
STANDARD
 70
     0
 40
5.0
 41
1.0
 50
0.0
 71
     0
 42
5.0
  3
txt.shx
  4
whgtxt.shx
  0
STYLE
  2
BIG
 70
     0
 40
20.0
 41
1.0
 50
0.0
 71
     0
 42
2.5
  3
txt
  4

  0
ENDTAB
  0
TABLE
  2
VIEW
 70
     0
  0
ENDTAB
  0
TABLE
  2
UCS
 70
     0
  0
ENDTAB
  0
TABLE
  2
APPID
 70
    10
  0
APPID
  2
ACAD
 70
     0
  0
APPID
  2
ACADANNOTATIVE
 70
     0
  0
APPID
  2
ACAD_EXEMPT_FROM_CAD_STANDARDS
 70
     0
  0
APPID
  2
ACAD_DSTYLE_DIMJOGGED_JOGA
 70
     0
  0
APPID
  2
ACAD_PSEXT
 70
     0
  0
APPID
  2
ACAECLAYERSTANDARD
 70
     0
  0
APPID
  2
DCO15
 70
     0
  0
APPID
  2
CONTENTBLOCKICON
 70
     0
  0
APPID
  2
ACAD_NAV_VCDISPLAY
 70
     0
  0
APPID
  2
ACAD_MLEADERVER
 70
     0
  0
ENDTAB
  0
TABLE
  2
DIMSTYLE
 70
     4
  0
DIMSTYLE
  2
DUKITEC
 70
     0
  3

  4

  5

  6

  7

 40
1.0
 41
3.0
 42
1.0
 43
0.0
 44
1.0
 45
0.0
 46
0.0
 47
0.0
 48
0.0
140
3.0
141
0.0
142
0.0
143
25.399999999999999
144
1.0
145
0.0
146
1.0
147
1.0
 71
     0
 72
     0
 73
     0
 74
     0
 75
     0
 76
     0
 77
     1
 78
     8
170
     0
171
     2
172
     1
173
     0
174
     1
175
     0
176
     5
177
     5
178
     0
  0
ENDTAB
  0
ENDSEC
  0
SECTION
  2
BLOCKS
  0
BLOCK
  8
0
  2
$MODEL_SPACE
 70
     0
 10
0.0
 20
0.0
 30
0.0
  3
$MODEL_SPACE
  1

  0
ENDBLK
  5
14198
  8
0
  0
BLOCK
 67
     1
  8
0
  2
$PAPER_SPACE
 70
     0
 10
0.0
 20
0.0
 30
0.0
  3
$PAPER_SPACE
  1

  0
ENDBLK
  5
14194
 67
     1
  8
0
  0
ENDSEC
  0
SECTION
  2
ENTITIES
  0
POLYLINE
  5
13E1C
  8
0
 66
     1
 10
0.0
 20
0.0
 30
0.0
 70
     1
  0
VERTEX
  5
146B1
  8
0
 10
1960.9720297953991
 20
1480.626565132482
 30
0.0
  0
VERTEX
  5
146B2
  8
0
 10
1960.9720297953991
 20
1701.126565132482
 30
0.0
  0
VERTEX
  5
146B3
  8
0
 10
2272.8220297953999
 20
1701.126565132482
 30
0.0
  0
VERTEX
  5
146B4
  8
0
 10
2272.8220297953999
 20
1480.626565132482
 30
0.0
  0
VERTEX
  5
146B5
  8
0
 10
1960.9720297953991
 20
1480.626565132482
 30
0.0
  0
SEQEND
  5
146B6
  8
0
  0
TEXT
  5
140FA
  8
0
 10
2078.4769708940121
 20
1508.3756372070229
 30
0.0
 40
20.0
  1
EK 8
  7
BIG
  0
LINE
  5
141BE
  8
HIDE
 10
2081.8484737922781
 20
1623.8470171583581
 30
0.0
 11
2081.848473792279
 21
1650.8470131583581
 31
0.0
  0
LINE
  5
141BF
  8
HIDE
 10
2089.8484737922781
 20
1623.8470171583581
 30
0.0
 11
2089.848473792279
 21
1650.8470131583581
 31
0.0
  0
LINE
  5
141C0
  8
0
 10
2080.348473792279
 20
1624.3470171583581
 30
0.0
 11
2080.348473792279
 21
1623.8470171583581
 31
0.0
  0
LINE
  5
141C1
  8
0
 10
2091.3484737922781
 20
1624.3470171583581
 30
0.0
 11
2091.3484737922781
 21
1623.8470171583581
 31
0.0
  0
CIRCLE
  5
141C2
  8
0
 10
2066.8484737922781
 20
1635.8470171583581
 30
0.0
 40
3.299999999999998
  0
CIRCLE
  5
141C3
  8
0
 10
2066.8484737922781
 20
1635.8470171583581
 30
0.0
 40
5.5
  0
CIRCLE
  5
141C4
  8
0
 10
2104.8484737922781
 20
1635.8470171583581
 30
0.0
 40
5.5
  0
CIRCLE
  5
141C5
  8
0
 10
2104.8484737922781
 20
1635.8470171583581
 30
0.0
 40
3.299999999999998
  0
LINE
  5
141C9
  8
CENTER
 10
2085.8484737922781
 20
1616.2670025109751
 30
0.0
 11
2085.848473792279
 21
1650.8470131583581
 31
0.0
  0
LINE
  5
141CA
  8
0
 10
2059.8484737922781
 20
1624.3470171583581
 30
0.0
 11
2111.8484817922781
 21
1624.3470171583581
 31
0.0
  0
LINE
  5
141CB
  8
0
 10
2059.8484737922781
 20
1647.3470171583581
 30
0.0
 11
2111.8484817922781
 21
1647.3470171583581
 31
0.0
  0
LINE
  5
141CC
  8
0
 10
2059.8484737922781
 20
1624.3470171583581
 30
0.0
 11
2059.8484737922781
 21
1647.3470171583581
 31
0.0
  0
LINE
  5
141CD
  8
0
 10
2073.3484737922781
 20
1624.3470171583581
 30
0.0
 11
2073.3484737922781
 21
1647.3470171583581
 31
0.0
  0
LINE
  5
141CE
  8
0
 10
2098.3484737922781
 20
1624.3470171583581
 30
0.0
 11
2098.3484737922781
 21
1647.3470171583581
 31
0.0
  0
LINE
  5
141CF
  8
0
 10
2111.8484817922781
 20
1624.3470171583581
 30
0.0
 11
2111.8484817922781
 21
1647.3470171583581
 31
0.0
  0
LINE
  5
141D0
  8
0
 10
2074.3484737922781
 20
1624.3470171583581
 30
0.0
 11
2074.3484737922781
 21
1647.3470171583581
 31
0.0
  0
LINE
  5
141D1
  8
0
 10
2097.3484737922781
 20
1624.3470171583581
 30
0.0
 11
2097.3484737922781
 21
1647.3470171583581
 31
0.0
  0
LINE
  5
141D2
  8
CENTER
 10
2060.1900686176041
 20
1635.8470171583581
 30
0.0
 11
2073.5068789669522
 21
1635.8470171583581
 31
0.0
  0
LINE
  5
141D3
  8
CENTER
 10
2066.8484737922781
 20
1629.188611983684
 30
0.0
 11
2066.8484737922781
 21
1642.5054223330319
 31
0.0
  0
LINE
  5
141D4
  8
CENTER
 10
2098.1900686176041
 20
1635.8470171583581
 30
0.0
 11
2111.5068789669522
 21
1635.8470171583581
 31
0.0
  0
LINE
  5
141D5
  8
CENTER
 10
2104.8484737922781
 20
1629.188611983684
 30
0.0
 11
2104.8484737922781
 21
1642.5054223330319
 31
0.0
  0
LINE
  5
141D6
  8
0
 10
2094.3484737922781
 20
1617.3470171583581
 30
0.0
 11
2085.8484737922781
 21
1617.347017158359
 31
0.0
  0
LINE
  5
141D7
  8
0
 10
2092.3484737922772
 20
1623.8470171583581
 30
0.0
 11
2085.8484737922781
 21
1623.8470171583581
 31
0.0
  0
LINE
  5
141D8
  8
CENTER
 10
2087.975107651183
 20
1620.3470171583569
 30
0.0
 11
2085.8484737922781
 21
1620.3470171583569
 31
0.0
  0
LINE
  5
141D9
  8
0
 10
2094.3484737922781
 20
1623.3470171583581
 30
0.0
 11
2085.8484737922781
 21
1623.3470171583581
 31
0.0
  0
LINE
  5
141DA
  8
0
 10
2094.3484737922781
 20
1623.3470171583581
 30
0.0
 11
2094.3484737922781
 21
1617.3470171583581
 31
0.0
  0
LINE
  5
141DB
  8
0
 10
2092.3484737922781
 20
1623.8470171583581
 30
0.0
 11
2092.6371489268722
 21
1623.3470171583581
 31
0.0
  0
LINE
  5
141DC
  8
0
 10
2087.3886758363351
 20
1623.3470171583581
 30
0.0
 11
2087.3886758363342
 21
1617.347017158359
 31
0.0
  0
LINE
  5
141DD
  8
HIDE
 10
2089.8484737922759
 20
1623.8470171583581
 30
0.0
 11
2089.848473792274
 21
1617.347017158359
 31
0.0
  0
LINE
  5
141DE
  8
0
 10
2077.3484737922781
 20
1617.3470171583581
 30
0.0
 11
2085.8484737922781
 21
1617.347017158359
 31
0.0
  0
LINE
  5
141DF
  8
0
 10
2079.348473792279
 20
1623.8470171583581
 30
0.0
 11
2085.8484737922781
 21
1623.8470171583581
 31
0.0
  0
LINE
  5
141E0
  8
0
 10
2077.3484737922781
 20
1623.3470171583581
 30
0.0
 11
2085.8484737922781
 21
1623.3470171583581
 31
0.0
  0
LINE
  5
141E1
  8
0
 10
2077.3484737922781
 20
1623.3470171583581
 30
0.0
 11
2077.3484737922781
 21
1617.3470171583581
 31
0.0
  0
LINE
  5
141E2
  8
0
 10
2079.3484737922781
 20
1623.8470171583581
 30
0.0
 11
2079.059798657684
 21
1623.3470171583581
 31
0.0
  0
LINE
  5
141E3
  8
0
 10
2084.3082717482212
 20
1623.3470171583581
 30
0.0
 11
2084.3082717482221
 21
1617.347017158359
 31
0.0
  0
LINE
  5
141E4
  8
HIDE
 10
2081.8484737922809
 20
1623.8470171583581
 30
0.0
 11
2081.8484737922831
 21
1617.347017158359
 31
0.0
  0
CIRCLE
  5
141E5
  8
0
 10
2085.8484737922781
 20
1620.3470171583569
 30
0.0
 40
1.2500000000009091
  0
CIRCLE
  5
141E6
  8
0
 10
2085.848473792279
 20
1620.3470171583569
 30
0.0
 40
1.4999999999963609
  0
LINE
  5
141E7
  8
0
 10
2086.5984727922778
 20
1619.9140031583561
 30
0.0
 11
2085.8484737922781
 21
1619.4809931583559
 31
0.0
  0
LINE
  5
141E8
  8
0
 10
2085.8484727922778
 20
1621.213041158356
 30
0.0
 11
2085.0984737922781
 21
1620.7800311583569
 31
0.0
  0
LINE
  5
141E9
  8
0
 10
2085.8484737922781
 20
1619.4809931583559
 30
0.0
 11
2085.098474792278
 21
1619.9140031583561
 31
0.0
  0
LINE
  5
141EA
  8
0
 10
2086.5984737922781
 20
1620.7800311583569
 30
0.0
 11
2085.848474792278
 21
1621.213041158356
 31
0.0
  0
LINE
  5
141EB
  8
0
 10
2085.0984737922781
 20
1619.9140031583561
 30
0.0
 11
2085.0984737922781
 21
1620.7800311583569
 31
0.0
  0
LINE
  5
141EC
  8
0
 10
2086.5984737922781
 20
1619.9140031583561
 30
0.0
 11
2086.5984737922781
 21
1620.7800311583569
 31
0.0
  0
LINE
  5
141ED
  8
CENTER
 10
2083.7218399333728
 20
1620.3470171583569
 30
0.0
 11
2088.3484737922781
 21
1620.3470171583569
 31
0.0
  0
LINE
  5
1426C
  8
HIDE
 10
2072.3484737922772
 20
1591.350201193502
 30
0.0
 11
2072.3484737922772
 21
1579.350201193502
 31
0.0
  0
LINE
  5
1426D
  8
HIDE
 10
2070.1484737922769
 20
1579.350201193502
 30
0.0
 11
2070.1484737922769
 21
1565.350201193502
 31
0.0
  0
LINE
  5
1426E
  8
HIDE
 10
2061.3484737922772
 20
1591.350201193502
 30
0.0
 11
2061.3484737922772
 21
1579.350201193502
 31
0.0
  0
LINE
  5
1426F
  8
HIDE
 10
2063.548473792277
 20
1579.350201193502
 30
0.0
 11
2063.548473792277
 21
1565.350201193502
 31
0.0
  0
LINE
  5
14270
  8
HIDE
 10
2061.3484737922772
 20
1579.350201193502
 30
0.0
 11
2072.3484737922772
 21
1579.350201193502
 31
0.0
  0
LINE
  5
14271
  8
HIDE
 10
2099.3484737922772
 20
1579.350201193502
 30
0.0
 11
2110.3484737922772
 21
1579.350201193502
 31
0.0
  0
LINE
  5
14272
  8
HIDE
 10
2101.548473792277
 20
1579.350201193502
 30
0.0
 11
2101.548473792277
 21
1565.350201193502
 31
0.0
  0
LINE
  5
14273
  8
HIDE
 10
2108.1484737922779
 20
1579.350201193502
 30
0.0
 11
2108.1484737922779
 21
1565.350201193502
 31
0.0
  0
LINE
  5
14274
  8
HIDE
 10
2110.3484737922772
 20
1591.350201193502
 30
0.0
 11
2110.3484737922772
 21
1579.350201193502
 31
0.0
  0
LINE
  5
14275
  8
HIDE
 10
2099.3484737922772
 20
1591.350201193502
 30
0.0
 11
2099.3484737922772
 21
1579.350201193502
 31
0.0
  0
LINE
  5
14277
  8
0
 10
2059.8484737922772
 20
1565.350201193502
 30
0.0
 11
2111.8484817922772
 21
1565.350201193502
 31
0.0
  0
LINE
  5
14278
  8
0
 10
2098.3484737922772
 20
1591.350201193502
 30
0.0
 11
2098.3484737922772
 21
1596.350201193502
 31
0.0
  0
LINE
  5
14279
  8
0
 10
2059.8484737922772
 20
1591.350201193502
 30
0.0
 11
2073.3484737922772
 21
1591.350201193502
 31
0.0
  0
LINE
  5
1427A
  8
0
 10
2073.3484737922772
 20
1591.350201193502
 30
0.0
 11
2073.3484737922772
 21
1596.350201193502
 31
0.0
  0
LINE
  5
1427B
  8
0
 10
2111.8484817922772
 20
1565.350201193502
 30
0.0
 11
2111.8484817922772
 21
1591.350201193502
 31
0.0
  0
LINE
  5
1427C
  8
0
 10
2074.3484737922772
 20
1597.350201193502
 30
0.0
 11
2097.3484737922772
 21
1597.350201193502
 31
0.0
  0
LINE
  5
1427D
  8
0
 10
2098.3484737922772
 20
1591.350201193502
 30
0.0
 11
2111.8484817922772
 21
1591.350201193502
 31
0.0
  0
LINE
  5
1427E
  8
CENTER
 10
2104.8484737922772
 20
1564.100705193501
 30
0.0
 11
2104.8484737922772
 21
1592.5771301935019
 31
0.0
  0
LINE
  5
1427F
  8
CENTER
 10
2066.8484737922772
 20
1564.0278741935019
 30
0.0
 11
2066.8484737922772
 21
1592.4314691935019
 31
0.0
  0
LINE
  5
14280
  8
0
 10
2097.3485267922779
 20
1597.3501511935019
 30
0.0
 11
2098.3485047922768
 21
1596.350170193502
 31
0.0
  0
LINE
  5
14281
  8
0
 10
2073.348451792277
 20
1596.350227193501
 30
0.0
 11
2074.3483997922781
 21
1597.350227193501
 31
0.0
  0
LINE
  5
14282
  8
CENTER
 10
2057.8484737922772
 20
1582.350201193502
 30
0.0
 11
2113.8484817922781
 21
1582.350201193502
 31
0.0
  0
LINE
  5
14283
  8
CENTER
 10
2085.8484737922772
 20
1563.6637231935019
 30
0.0
 11
2085.8484737922772
 21
1598.694821193501
 31
0.0
  0
LINE
  5
14284
  8
0
 10
2059.8484737922772
 20
1565.350201193502
 30
0.0
 11
2059.8484737922772
 21
1591.350201193502
 31
0.0
  0
LINE
  5
14286
  8
0
 10
2087.388675836336
 20
1573.99090830095
 30
0.0
 11
2094.2077666848299
 21
1580.809999149446
 31
0.0
  0
LINE
  5
14287
  8
0
 10
2077.4891808997272
 20
1583.890403237561
 30
0.0
 11
2084.3082717482189
 21
1590.709494086055
 31
0.0
  0
LINE
  5
14289
  8
0
 10
2087.3886758363378
 20
1590.709494086055
 30
0.0
 11
2094.2077666848309
 21
1583.890403237561
 31
0.0
  0
LINE
  5
1428A
  8
0
 10
2077.4891808997272
 20
1580.809999149438
 30
0.0
 11
2084.3082717482148
 21
1573.99090830095
 31
0.0
  0
ARC
  5
1428B
  8
0
 10
2085.8484737922781
 20
1582.3502011935011
 30
0.0
 40
8.5
 50
79.560321780045356
 51
100.4396782199546
  0
ARC
  5
1428C
  8
0
 10
2085.8484737922781
 20
1582.3502011935011
 30
0.0
 40
8.5
 50
169.5603217799918
 51
190.4396782200082
  0
ARC
  5
1428D
  8
0
 10
2085.8484737922781
 20
1582.3502011935011
 30
0.0
 40
8.5
 50
259.56032178004529
 51
280.4396782199546
  0
ARC
  5
1428E
  8
0
 10
2085.8484737922781
 20
1582.3502011935011
 30
0.0
 40
8.5
 50
349.5603217799918
 51
10.43967822000821
  0
ARC
  5
1428F
  8
HIDE
 10
2085.8484737922781
 20
1582.3502011935011
 30
0.0
 40
4.0
 50
270.0
 51
180.0
  0
CIRCLE
  5
14290
  8
0
 10
2085.8484737922781
 20
1582.3502011935011
 30
0.0
 40
3.5
  0
LINE
  5
14291
  8
HIDE
 10
2087.3484737922781
 20
1590.7168014588431
 30
0.0
 11
2087.3484737922799
 21
1585.5124788536691
 31
0.0
  0
LINE
  5
14292
  8
HIDE
 10
2087.0984737922781
 20
1590.7577870539019
 30
0.0
 11
2087.0984737922781
 21
1585.619375401157
 31
0.0
  0
LINE
  5
14293
  8
HIDE
 10
2084.3484737922799
 20
1590.7168014588431
 30
0.0
 11
2084.3484737922822
 21
1585.5124788536721
 31
0.0
  0
LINE
  5
14294
  8
HIDE
 10
2084.5984737922781
 20
1590.7577870539019
 30
0.0
 11
2084.5984737922781
 21
1585.619375401156
 31
0.0
  0
LINE
  5
14295
  8
HIDE
 10
2084.3484737922822
 20
1587.323226327338
 30
0.0
 11
2087.3484737922822
 21
1587.323226327338
 31
0.0
  0
LINE
  5
14296
  8
HIDE
 10
2084.3484737922822
 20
1590.323226327338
 30
0.0
 11
2087.3484737922822
 21
1590.323226327338
 31
0.0
  0
LINE
  5
14297
  8
HIDE
 10
2084.3484737922822
 20
1587.3232263273369
 30
0.0
 11
2084.5984737922781
 21
1587.1788887600419
 31
0.0
  0
LINE
  5
14298
  8
HIDE
 10
2087.3484737922781
 20
1587.3232263273369
 30
0.0
 11
2087.0984737922781
 21
1587.178888760041
 31
0.0
  0
LINE
  5
14299
  8
HIDE
 10
2084.5984737922781
 20
1587.1788887600419
 30
0.0
 11
2087.0984737922781
 21
1587.178888760041
 31
0.0
  0
CIRCLE
  5
142A0
  8
0
 10
2085.8484737922772
 20
1582.3502011935011
 30
0.0
 40
14.0
  0
ARC
  5
142A1
  8
HIDE
 10
2085.8484737922781
 20
1582.3502011935011
 30
0.0
 40
14.5
 50
269.99999999999642
 51
179.99999999999909
  0
LINE
  5
1430F
  8
HIDE
 10
2082.3484737922831
 20
1617.347017158359
 30
0.0
 11
2082.3484737922831
 21
1623.8470171583581
 31
0.0
  0
LINE
  5
14310
  8
HIDE
 10
2089.3484737922709
 20
1617.3470171583581
 30
0.0
 11
2089.348473792274
 21
1623.8470171583581
 31
0.0
  0
LINE
  5
145C0
  8
0
 10
2173.7304597981552
 20
1587.850201193502
 30
0.0
 11
2177.2304597981561
 21
1587.8502011935
 31
0.0
  0
LINE
  5
145C1
  8
0
 10
2173.7304597981552
 20
1576.850201193502
 30
0.0
 11
2177.2304597981561
 21
1576.8502011935
 31
0.0
  0
LINE
  5
145C2
  8
CENTER
 10
2138.7176525580539
 20
1582.350201193502
 30
0.0
 11
2180.2945533952388
 21
1582.350201193502
 31
0.0
  0
LINE
  5
145C3
  8
0
 10
2150.2304597981561
 20
1576.850201193502
 30
0.0
 11
2150.7304597981561
 21
1576.850201193502
 31
0.0
  0
LINE
  5
145C4
  8
HIDE
 10
2169.7304597981561
 20
1576.850201193502
 30
0.0
 11
2173.7304597981552
 21
1576.850201193502
 31
0.0
  0
LINE
  5
145C5
  8
0
 10
2150.2304597981561
 20
1587.850201193502
 30
0.0
 11
2150.7304597981561
 21
1587.850201193502
 31
0.0
  0
LINE
  5
145C6
  8
HIDE
 10
2169.7304597981561
 20
1587.850201193502
 30
0.0
 11
2173.7304597981552
 21
1587.850201193502
 31
0.0
  0
LINE
  5
145C7
  8
0
 10
2150.7304597981561
 20
1565.350201193502
 30
0.0
 11
2173.7304597981552
 21
1565.350201193502
 31
0.0
  0
LINE
  5
145C8
  8
0
 10
2150.7304597981561
 20
1597.350201193502
 30
0.0
 11
2173.7304597981552
 21
1597.350201193502
 31
0.0
  0
LINE
  5
145C9
  8
0
 10
2173.7304597981552
 20
1565.350201193502
 30
0.0
 11
2173.7304597981552
 21
1597.350201193502
 31
0.0
  0
LINE
  5
145CA
  8
0
 10
2150.7304597981561
 20
1565.350201193502
 30
0.0
 11
2150.7304597981561
 21
1597.350201193502
 31
0.0
  0
LINE
  5
145CB
  8
0
 10
2150.7304597981561
 20
1591.350201193502
 30
0.0
 11
2173.7304597981552
 21
1591.350201193502
 31
0.0
  0
LINE
  5
145CC
  8
0
 10
2150.7304597981561
 20
1596.350170193502
 30
0.0
 11
2173.7304597981552
 21
1596.350170193502
 31
0.0
  0
LINE
  5
145CD
  8
0
 10
2143.7304597981561
 20
1590.850201193502
 30
0.0
 11
2143.7304597981579
 21
1582.350201193502
 31
0.0
  0
LINE
  5
145CE
  8
0
 10
2150.2304597981561
 20
1588.8502011935011
 30
0.0
 11
2150.2304597981561
 21
1582.350201193502
 31
0.0
  0
LINE
  5
145CF
  8
CENTER
 10
2146.7304597981561
 20
1591.6158358828959
 30
0.0
 11
2146.7304597981561
 21
1585.441628316805
 31
0.0
  0
LINE
  5
145D0
  8
0
 10
2149.7304597981561
 20
1590.850201193502
 30
0.0
 11
2149.7304597981561
 21
1582.350201193502
 31
0.0
  0
LINE
  5
145D1
  8
0
 10
2149.7304597981561
 20
1590.850201193502
 30
0.0
 11
2143.7304597981561
 21
1590.850201193502
 31
0.0
  0
LINE
  5
145D2
  8
0
 10
2150.2304597981561
 20
1588.850201193502
 30
0.0
 11
2149.7304597981561
 21
1589.1388763280961
 31
0.0
  0
LINE
  5
145D3
  8
0
 10
2149.7304597981561
 20
1583.890403237559
 30
0.0
 11
2143.7304597981579
 21
1583.8904032375581
 31
0.0
  0
LINE
  5
145D4
  8
HIDE
 10
2150.2304597981561
 20
1585.8502011934991
 30
0.0
 11
2143.7304597981579
 21
1585.850201193497
 31
0.0
  0
LINE
  5
145D5
  8
HIDE
 10
2150.2304597981561
 20
1586.3502011934991
 30
0.0
 11
2143.7304597981579
 21
1586.350201193497
 31
0.0
  0
LINE
  5
145D6
  8
0
 10
2143.7304597981561
 20
1573.850201193502
 30
0.0
 11
2143.7304597981579
 21
1582.350201193502
 31
0.0
  0
LINE
  5
145D7
  8
0
 10
2150.2304597981561
 20
1575.8502011935029
 30
0.0
 11
2150.2304597981561
 21
1582.350201193502
 31
0.0
  0
LINE
  5
145D8
  8
0
 10
2149.7304597981561
 20
1573.850201193502
 30
0.0
 11
2149.7304597981561
 21
1582.350201193502
 31
0.0
  0
LINE
  5
145D9
  8
0
 10
2149.7304597981561
 20
1573.850201193502
 30
0.0
 11
2143.7304597981561
 21
1573.850201193502
 31
0.0
  0
LINE
  5
145DA
  8
0
 10
2150.2304597981561
 20
1575.850201193502
 30
0.0
 11
2149.7304597981561
 21
1575.5615260589079
 31
0.0
  0
LINE
  5
145DB
  8
0
 10
2149.7304597981561
 20
1580.809999149445
 30
0.0
 11
2143.7304597981579
 21
1580.809999149446
 31
0.0
  0
LINE
  5
145DC
  8
HIDE
 10
2150.2304597981561
 20
1578.850201193505
 30
0.0
 11
2143.7304597981579
 21
1578.8502011935061
 31
0.0
  0
LINE
  5
145DD
  8
HIDE
 10
2150.2304597981561
 20
1578.350201193505
 30
0.0
 11
2143.7304597981579
 21
1578.3502011935061
 31
0.0
  0
LINE
  5
145DE
  8
HIDE
 10
2145.2304597981561
 20
1590.850201193502
 30
0.0
 11
2145.2304597981538
 21
1585.850201193497
 31
0.0
  0
LINE
  5
145DF
  8
HIDE
 10
2145.4804597981561
 20
1590.850201193502
 30
0.0
 11
2145.4804597981561
 21
1585.850201193497
 31
0.0
  0
LINE
  5
145E0
  8
HIDE
 10
2148.2304597981538
 20
1590.850201193502
 30
0.0
 11
2148.230459798152
 21
1585.8502011934991
 31
0.0
  0
LINE
  5
145E1
  8
HIDE
 10
2147.9804597981552
 20
1590.850201193502
 30
0.0
 11
2147.9804597981552
 21
1585.8502011934991
 31
0.0
  0
LINE
  5
145E2
  8
HIDE
 10
2148.230459798152
 20
1587.3232263273389
 30
0.0
 11
2145.230459798152
 21
1587.3232263273389
 31
0.0
  0
LINE
  5
145E3
  8
HIDE
 10
2148.230459798152
 20
1590.3232263273389
 30
0.0
 11
2145.230459798152
 21
1590.3232263273389
 31
0.0
  0
LINE
  5
145E4
  8
HIDE
 10
2148.230459798152
 20
1587.3232263273369
 30
0.0
 11
2147.9804597981552
 21
1587.1788887600419
 31
0.0
  0
LINE
  5
145E5
  8
HIDE
 10
2145.2304597981561
 20
1587.323226327338
 30
0.0
 11
2145.4804597981561
 21
1587.178888760041
 31
0.0
  0
LINE
  5
145E6
  8
HIDE
 10
2147.9804597981552
 20
1587.1788887600419
 30
0.0
 11
2145.4804597981561
 21
1587.178888760041
 31
0.0
  0
LINE
  5
145E7
  8
HIDE
 10
2150.7304597981561
 20
1578.350201193502
 30
0.0
 11
2155.7304597981561
 21
1578.350201193502
 31
0.0
  0
LINE
  5
145E8
  8
HIDE
 10
2169.7304597981561
 20
1578.350201193502
 30
0.0
 11
2177.2304597981561
 21
1578.350201193502
 31
0.0
  0
LINE
  5
145E9
  8
HIDE
 10
2150.7304597981561
 20
1586.350201193502
 30
0.0
 11
2155.7304597981561
 21
1586.350201193502
 31
0.0
  0
LINE
  5
145EA
  8
HIDE
 10
2169.7304597981561
 20
1586.350201193502
 30
0.0
 11
2177.2304597981561
 21
1586.350201193502
 31
0.0
  0
LINE
  5
145EB
  8
HIDE
 10
2150.7304597981561
 20
1587.850201193502
 30
0.0
 11
2155.7304597981561
 21
1587.850201193502
 31
0.0
  0
LINE
  5
145EC
  8
HIDE
 10
2150.7304597981561
 20
1576.850201193502
 30
0.0
 11
2155.7304597981561
 21
1576.850201193502
 31
0.0
  0
LINE
  5
145ED
  8
CENTER
 10
2162.2304597981561
 20
1569.35129014883
 30
0.0
 11
2162.2304597981561
 21
1559.983573344535
 31
0.0
  0
CIRCLE
  5
145EE
  8
HIDE
 10
2166.2304597981561
 20
1574.350201193502
 30
0.0
 40
2.0999999999999992
  0
CIRCLE
  5
145EF
  8
HIDE
 10
2166.2304597981561
 20
1590.350201193502
 30
0.0
 40
2.0999999999999992
  0
LINE
  5
145F0
  8
HIDE
 10
2169.7304597981561
 20
1573.360201193502
 30
0.0
 11
2169.7304597981561
 21
1576.2802011935021
 31
0.0
  0
LINE
  5
145F1
  8
0
 10
2177.2304597981561
 20
1576.8502011934991
 30
0.0
 11
2177.2304597981561
 21
1587.8502011935
 31
0.0
  0
LINE
  5
145F2
  8
HIDE
 10
2162.7304597981561
 20
1575.7802011935021
 30
0.0
 11
2162.7304597981561
 21
1572.860201193502
 31
0.0
  0
LINE
  5
145F3
  8
HIDE
 10
2167.7102908695961
 20
1572.860201193502
 30
0.0
 11
2169.7304597981561
 21
1572.860201193502
 31
0.0
  0
LINE
  5
145F4
  8
HIDE
 10
2163.0304597981558
 20
1570.350201193502
 30
0.0
 11
2169.430459798155
 21
1570.350201193502
 31
0.0
  0
ARC
  5
145F5
  8
HIDE
 10
2163.0304597981558
 20
1570.650201193502
 30
0.0
 40
0.3
 50
180.0
 51
270.0
  0
LINE
  5
145F6
  8
HIDE
 10
2162.7304597981561
 20
1573.360201193502
 30
0.0
 11
2162.7304597981561
 21
1570.650201193502
 31
0.0
  0
ARC
  5
145F7
  8
HIDE
 10
2169.430459798155
 20
1570.650201193502
 30
0.0
 40
0.3000000000000007
 50
270.0
 51
0.0
  0
LINE
  5
145F8
  8
HIDE
 10
2169.7304597981561
 20
1570.650201193502
 30
0.0
 11
2169.7304597981561
 21
1573.360201193502
 31
0.0
  0
ARC
  5
145F9
  8
HIDE
 10
2163.0304597981558
 20
1586.650201193502
 30
0.0
 40
0.3
 50
180.0
 51
270.0
  0
ARC
  5
145FA
  8
HIDE
 10
2169.430459798155
 20
1586.650201193502
 30
0.0
 40
0.2999999999999998
 50
270.0
 51
0.0
  0
LINE
  5
145FB
  8
HIDE
 10
2169.7304597981561
 20
1586.650201193502
 30
0.0
 11
2169.7304597981561
 21
1582.350201193502
 31
0.0
  0
LINE
  5
145FC
  8
HIDE
 10
2162.7304597981561
 20
1582.350201193502
 30
0.0
 11
2162.7304597981561
 21
1586.650201193502
 31
0.0
  0
LINE
  5
145FD
  8
HIDE
 10
2162.7304597981561
 20
1575.7802011935021
 30
0.0
 11
2164.6925716357719
 21
1575.7802011935021
 31
0.0
  0
LINE
  5
145FE
  8
HIDE
 10
2167.7683479605398
 20
1575.7802011935021
 30
0.0
 11
2169.7304597981561
 21
1575.7802011935021
 31
0.0
  0
LINE
  5
145FF
  8
HIDE
 10
2163.0304597981558
 20
1578.350201193502
 30
0.0
 11
2169.430459798155
 21
1578.350201193502
 31
0.0
  0
LINE
  5
14600
  8
HIDE
 10
2163.0304597981558
 20
1586.350201193502
 30
0.0
 11
2169.430459798155
 21
1586.350201193502
 31
0.0
  0
LINE
  5
14601
  8
HIDE
 10
2162.7304597981561
 20
1582.350201193502
 30
0.0
 11
2162.7304597981561
 21
1578.0502011935021
 31
0.0
  0
ARC
  5
14602
  8
HIDE
 10
2163.0304597981558
 20
1578.0502011935021
 30
0.0
 40
0.2999999999999998
 50
90.0
 51
180.0
  0
LINE
  5
14603
  8
HIDE
 10
2162.7304597981561
 20
1578.0502011935021
 30
0.0
 11
2162.7304597981561
 21
1576.2802011935021
 31
0.0
  0
LINE
  5
14604
  8
HIDE
 10
2169.7304597981561
 20
1578.0502011935021
 30
0.0
 11
2169.7304597981561
 21
1582.350201193502
 31
0.0
  0
ARC
  5
14605
  8
HIDE
 10
2169.430459798155
 20
1578.0502011935021
 30
0.0
 40
0.2999999999999998
 50
0.0
 51
90.0
  0
LINE
  5
14606
  8
HIDE
 10
2169.7304597981561
 20
1576.2802011935021
 30
0.0
 11
2169.7304597981561
 21
1578.0502011935021
 31
0.0
  0
LINE
  5
14607
  8
HIDE
 10
2162.7304597981561
 20
1588.920201193501
 30
0.0
 11
2164.6925716357719
 21
1588.920201193501
 31
0.0
  0
LINE
  5
14608
  8
HIDE
 10
2167.7683479605398
 20
1588.920201193501
 30
0.0
 11
2169.7304597981561
 21
1588.920201193501
 31
0.0
  0
LINE
  5
14609
  8
HIDE
 10
2162.74152649492
 20
1592.5513663471449
 30
0.0
 11
2165.3869017435418
 21
1592.2733262046479
 31
0.0
  0
LINE
  5
1460A
  8
HIDE
 10
2167.7102908695961
 20
1591.840201193502
 30
0.0
 11
2169.7304597981561
 21
1591.840201193502
 31
0.0
  0
LINE
  5
1460B
  8
HIDE
 10
2163.0304597981558
 20
1594.350201193502
 30
0.0
 11
2169.430459798155
 21
1594.350201193502
 31
0.0
  0
ARC
  5
1460C
  8
HIDE
 10
2163.0304597981558
 20
1594.0502011935021
 30
0.0
 40
0.3000000000000007
 50
90.0
 51
180.0
  0
LINE
  5
1460D
  8
HIDE
 10
2162.7304597981561
 20
1591.340201193502
 30
0.0
 11
2162.7304597981561
 21
1594.0502011935021
 31
0.0
  0
LINE
  5
1460E
  8
HIDE
 10
2162.7304597981561
 20
1586.650201193502
 30
0.0
 11
2162.7304597981561
 21
1588.420201193502
 31
0.0
  0
LINE
  5
1460F
  8
HIDE
 10
2162.7304597981561
 20
1588.920201193501
 30
0.0
 11
2162.7304597981561
 21
1591.840201193502
 31
0.0
  0
LINE
  5
14610
  8
HIDE
 10
2169.7304597981561
 20
1594.0502011935021
 30
0.0
 11
2169.7304597981561
 21
1591.340201193502
 31
0.0
  0
LINE
  5
14611
  8
HIDE
 10
2169.7304597981561
 20
1588.420201193502
 30
0.0
 11
2169.7304597981561
 21
1586.650201193502
 31
0.0
  0
LINE
  5
14612
  8
HIDE
 10
2169.7304597981561
 20
1591.340201193502
 30
0.0
 11
2169.7304597981561
 21
1588.420201193502
 31
0.0
  0
ARC
  5
14613
  8
HIDE
 10
2169.430459798155
 20
1594.0502011935021
 30
0.0
 40
0.2999999999999998
 50
0.0
 51
90.0
  0
LINE
  5
14614
  8
HIDE
 10
2162.74152649492
 20
1572.1490360398591
 30
0.0
 11
2165.3869017435418
 21
1572.4270761823559
 31
0.0
  0
CIRCLE
  5
14615
  8
HIDE
 10
2159.2304597981552
 20
1574.350201193502
 30
0.0
 40
2.0999999999999992
  0
CIRCLE
  5
14616
  8
HIDE
 10
2159.2304597981552
 20
1590.350201193502
 30
0.0
 40
2.0999999999999992
  0
LINE
  5
14617
  8
HIDE
 10
2155.7304597981561
 20
1573.360201193502
 30
0.0
 11
2155.7304597981561
 21
1576.2802011935021
 31
0.0
  0
LINE
  5
14618
  8
HIDE
 10
2162.7304597981561
 20
1575.7802011935021
 30
0.0
 11
2162.7304597981561
 21
1572.860201193502
 31
0.0
  0
LINE
  5
14619
  8
HIDE
 10
2157.7506287267161
 20
1572.860201193502
 30
0.0
 11
2155.7304597981561
 21
1572.860201193502
 31
0.0
  0
LINE
  5
1461A
  8
HIDE
 10
2162.4304597981559
 20
1570.350201193502
 30
0.0
 11
2156.0304597981558
 21
1570.350201193502
 31
0.0
  0
ARC
  5
1461B
  8
HIDE
 10
2162.4304597981559
 20
1570.650201193502
 30
0.0
 40
0.3
 50
270.0
 51
0.0
  0
LINE
  5
1461C
  8
HIDE
 10
2162.7304597981561
 20
1573.360201193502
 30
0.0
 11
2162.7304597981561
 21
1570.650201193502
 31
0.0
  0
ARC
  5
1461D
  8
HIDE
 10
2156.0304597981558
 20
1570.650201193502
 30
0.0
 40
0.3000000000000007
 50
180.0
 51
270.0
  0
LINE
  5
1461E
  8
HIDE
 10
2155.7304597981561
 20
1570.650201193502
 30
0.0
 11
2155.7304597981561
 21
1573.360201193502
 31
0.0
  0
ARC
  5
1461F
  8
HIDE
 10
2162.4304597981559
 20
1586.650201193502
 30
0.0
 40
0.3
 50
270.0
 51
0.0
  0
ARC
  5
14620
  8
HIDE
 10
2156.0304597981558
 20
1586.650201193502
 30
0.0
 40
0.2999999999999998
 50
180.0
 51
270.0
  0
LINE
  5
14621
  8
HIDE
 10
2155.7304597981561
 20
1586.650201193502
 30
0.0
 11
2155.7304597981561
 21
1582.350201193502
 31
0.0
  0
LINE
  5
14622
  8
HIDE
 10
2162.7304597981561
 20
1582.350201193502
 30
0.0
 11
2162.7304597981561
 21
1586.650201193502
 31
0.0
  0
LINE
  5
14623
  8
HIDE
 10
2162.7304597981561
 20
1575.7802011935021
 30
0.0
 11
2160.7683479605389
 21
1575.7802011935021
 31
0.0
  0
LINE
  5
14624
  8
HIDE
 10
2157.6925716357719
 20
1575.7802011935021
 30
0.0
 11
2155.7304597981561
 21
1575.7802011935021
 31
0.0
  0
LINE
  5
14625
  8
HIDE
 10
2162.4304597981559
 20
1578.350201193502
 30
0.0
 11
2156.0304597981558
 21
1578.350201193502
 31
0.0
  0
LINE
  5
14626
  8
HIDE
 10
2162.4304597981559
 20
1586.350201193502
 30
0.0
 11
2156.0304597981558
 21
1586.350201193502
 31
0.0
  0
LINE
  5
14627
  8
HIDE
 10
2162.7304597981561
 20
1582.350201193502
 30
0.0
 11
2162.7304597981561
 21
1578.0502011935021
 31
0.0
  0
ARC
  5
14628
  8
HIDE
 10
2162.4304597981559
 20
1578.0502011935021
 30
0.0
 40
0.2999999999999998
 50
0.0
 51
90.0
  0
LINE
  5
14629
  8
HIDE
 10
2162.7304597981561
 20
1578.0502011935021
 30
0.0
 11
2162.7304597981561
 21
1576.2802011935021
 31
0.0
  0
LINE
  5
1462A
  8
HIDE
 10
2155.7304597981561
 20
1578.0502011935021
 30
0.0
 11
2155.7304597981561
 21
1582.350201193502
 31
0.0
  0
ARC
  5
1462B
  8
HIDE
 10
2156.0304597981558
 20
1578.0502011935021
 30
0.0
 40
0.2999999999999998
 50
90.0
 51
180.0
  0
LINE
  5
1462C
  8
HIDE
 10
2155.7304597981561
 20
1576.2802011935021
 30
0.0
 11
2155.7304597981561
 21
1578.0502011935021
 31
0.0
  0
LINE
  5
1462D
  8
HIDE
 10
2162.7304597981561
 20
1588.920201193501
 30
0.0
 11
2160.7683479605389
 21
1588.920201193501
 31
0.0
  0
LINE
  5
1462E
  8
HIDE
 10
2157.6925716357719
 20
1588.920201193501
 30
0.0
 11
2155.7304597981561
 21
1588.920201193501
 31
0.0
  0
LINE
  5
1462F
  8
HIDE
 10
2162.7193931013908
 20
1592.5513663471449
 30
0.0
 11
2160.074017852769
 21
1592.2733262046479
 31
0.0
  0
LINE
  5
14630
  8
HIDE
 10
2157.7506287267161
 20
1591.840201193502
 30
0.0
 11
2155.7304597981561
 21
1591.840201193502
 31
0.0
  0
LINE
  5
14631
  8
HIDE
 10
2162.4304597981559
 20
1594.350201193502
 30
0.0
 11
2156.0304597981558
 21
1594.350201193502
 31
0.0
  0
ARC
  5
14632
  8
HIDE
 10
2162.4304597981559
 20
1594.0502011935021
 30
0.0
 40
0.3000000000000007
 50
0.0
 51
90.0
  0
LINE
  5
14633
  8
HIDE
 10
2162.7304597981561
 20
1591.340201193502
 30
0.0
 11
2162.7304597981561
 21
1594.0502011935021
 31
0.0
  0
LINE
  5
14634
  8
HIDE
 10
2162.7304597981561
 20
1586.650201193502
 30
0.0
 11
2162.7304597981561
 21
1588.420201193502
 31
0.0
  0
LINE
  5
14635
  8
HIDE
 10
2162.7304597981561
 20
1588.920201193501
 30
0.0
 11
2162.7304597981561
 21
1591.840201193502
 31
0.0
  0
LINE
  5
14636
  8
HIDE
 10
2155.7304597981561
 20
1594.0502011935021
 30
0.0
 11
2155.7304597981561
 21
1591.340201193502
 31
0.0
  0
LINE
  5
14637
  8
HIDE
 10
2155.7304597981561
 20
1588.420201193502
 30
0.0
 11
2155.7304597981561
 21
1586.650201193502
 31
0.0
  0
LINE
  5
14638
  8
HIDE
 10
2155.7304597981561
 20
1591.340201193502
 30
0.0
 11
2155.7304597981561
 21
1588.420201193502
 31
0.0
  0
ARC
  5
14639
  8
HIDE
 10
2156.0304597981558
 20
1594.0502011935021
 30
0.0
 40
0.2999999999999998
 50
90.0
 51
180.0
  0
LINE
  5
1463A
  8
HIDE
 10
2162.7193931013908
 20
1572.1490360398591
 30
0.0
 11
2160.074017852769
 21
1572.4270761823559
 31
0.0
  0
LINE
  5
1464A
  8
0
 10
2080.3484777922781
 20
1647.3470131583581
 30
0.0
 11
2080.3484777922799
 21
1650.8470131583581
 31
0.0
  0
LINE
  5
1464B
  8
0
 10
2091.3484777922781
 20
1647.3470131583581
 30
0.0
 11
2091.3484777922799
 21
1650.8470131583581
 31
0.0
  0
LINE
  5
1464C
  8
0
 10
2091.3484777922808
 20
1650.8470131583581
 30
0.0
 11
2080.3484777922799
 21
1650.8470131583581
 31
0.0
  0
ENDSEC
  0
EOF
