  0
SECTION
  2
HEADER
  9
$ACADVER
  1
AC1009
  9
$INSBASE
 10
0.0
 20
0.0
 30
0.0
  9
$EXTMIN
 10
1903.0405749290021
 20
1433.173578249188
 30
0.0
  9
$EXTMAX
 10
2348.540574929003
 20
1748.173578249188
 30
0.0
  9
$LIMMIN
 10
0.0
 20
0.0
  9
$LIMMAX
 10
12.0
 20
9.0
  9
$ORTHOMODE
 70
     1
  9
$REGENMODE
 70
     1
  9
$FILLMODE
 70
     1
  9
$QTEXTMODE
 70
     0
  9
$MIRRTEXT
 70
     0
  9
$DRAGMODE
 70
     2
  9
$LTSCALE
 40
5.0
  9
$OSMODE
 70
  2239
  9
$ATTMODE
 70
     1
  9
$TEXTSIZE
 40
2.5
  9
$TRACEWID
 40
0.05
  9
$TEXTSTYLE
  7
BIG
  9
$CLAYER
  8
0
  9
$CELTYPE
  6
BYLAYER
  9
$CECOLOR
 62
   256
  9
$DIMSCALE
 40
1.0
  9
$DIMASZ
 40
3.0
  9
$DIMEXO
 40
1.0
  9
$DIMDLI
 40
0.0
  9
$DIMRND
 40
0.0
  9
$DIMDLE
 40
0.0
  9
$DIMEXE
 40
1.0
  9
$DIMTP
 40
0.0
  9
$DIMTM
 40
0.0
  9
$DIMTXT
 40
3.0
  9
$DIMCEN
 40
0.0
  9
$DIMTSZ
 40
0.0
  9
$DIMTOL
 70
     0
  9
$DIMLIM
 70
     0
  9
$DIMTIH
 70
     0
  9
$DIMTOH
 70
     0
  9
$DIMSE1
 70
     0
  9
$DIMSE2
 70
     0
  9
$DIMTAD
 70
     1
  9
$DIMZIN
 70
     8
  9
$DIMBLK
  1

  9
$DIMASO
 70
     1
  9
$DIMSHO
 70
     1
  9
$DIMPOST
  1

  9
$DIMAPOST
  1

  9
$DIMALT
 70
     0
  9
$DIMALTD
 70
     2
  9
$DIMALTF
 40
25.399999999999999
  9
$DIMLFAC
 40
1.0
  9
$DIMTOFL
 70
     1
  9
$DIMTVP
 40
0.0
  9
$DIMTIX
 70
     1
  9
$DIMSOXD
 70
     0
  9
$DIMSAH
 70
     0
  9
$DIMBLK1
  1

  9
$DIMBLK2
  1

  9
$DIMSTYLE
  2
DUKITEC
  9
$DIMCLRD
 70
     5
  9
$DIMCLRE
 70
     5
  9
$DIMCLRT
 70
     0
  9
$DIMTFAC
 40
1.0
  9
$DIMGAP
 40
1.0
  9
$LUNITS
 70
     2
  9
$LUPREC
 70
     4
  9
$SKETCHINC
 40
0.1
  9
$FILLETRAD
 40
0.2
  9
$AUNITS
 70
     0
  9
$AUPREC
 70
     0
  9
$MENU
  1
.
  9
$ELEVATION
 40
0.0
  9
$PELEVATION
 40
0.0
  9
$THICKNESS
 40
0.0
  9
$LIMCHECK
 70
     0
  9
$BLIPMODE
 70
     0
  9
$CHAMFERA
 40
0.5
  9
$CHAMFERB
 40
0.5
  9
$SKPOLY
 70
     0
  9
$TDCREATE
 40
2454396.7073300001
  9
$TDUPDATE
 40
2456630.616807871
  9
$TDINDWG
 40
0.0030748611
  9
$TDUSRTIMER
 40
0.0030748032
  9
$USRTIMER
 70
     1
  9
$ANGBASE
 50
0.0
  9
$ANGDIR
 70
     0
  9
$PDMODE
 70
     0
  9
$PDSIZE
 40
0.0
  9
$PLINEWID
 40
0.0
  9
$COORDS
 70
     1
  9
$SPLFRAME
 70
     0
  9
$SPLINETYPE
 70
     6
  9
$SPLINESEGS
 70
     8
  9
$ATTDIA
 70
     0
  9
$ATTREQ
 70
     1
  9
$HANDLING
 70
     1
  9
$HANDSEED
  5
143FC
  9
$SURFTAB1
 70
     6
  9
$SURFTAB2
 70
     6
  9
$SURFTYPE
 70
     6
  9
$SURFU
 70
     6
  9
$SURFV
 70
     6
  9
$UCSNAME
  2

  9
$UCSORG
 10
0.0
 20
0.0
 30
0.0
  9
$UCSXDIR
 10
1.0
 20
0.0
 30
0.0
  9
$UCSYDIR
 10
0.0
 20
1.0
 30
0.0
  9
$PUCSNAME
  2

  9
$PUCSORG
 10
0.0
 20
0.0
 30
0.0
  9
$PUCSXDIR
 10
1.0
 20
0.0
 30
0.0
  9
$PUCSYDIR
 10
0.0
 20
1.0
 30
0.0
  9
$USERI1
 70
     0
  9
$USERI2
 70
     0
  9
$USERI3
 70
     0
  9
$USERI4
 70
     0
  9
$USERI5
 70
     0
  9
$USERR1
 40
0.0
  9
$USERR2
 40
0.0
  9
$USERR3
 40
0.0
  9
$USERR4
 40
0.0
  9
$USERR5
 40
0.0
  9
$WORLDVIEW
 70
     1
  9
$SHADEDGE
 70
     3
  9
$SHADEDIF
 70
    70
  9
$TILEMODE
 70
     1
  9
$MAXACTVP
 70
    64
  9
$PLIMCHECK
 70
     0
  9
$PEXTMIN
 10
0.0
 20
0.0
 30
0.0
  9
$PEXTMAX
 10
0.0
 20
0.0
 30
0.0
  9
$PLIMMIN
 10
0.0
 20
0.0
  9
$PLIMMAX
 10
12.0
 20
9.0
  9
$UNITMODE
 70
     0
  9
$VISRETAIN
 70
     1
  9
$PLINEGEN
 70
     0
  9
$PSLTSCALE
 70
     1
  0
ENDSEC
  0
SECTION
  2
TABLES
  0
TABLE
  2
VPORT
 70
     1
  0
VPORT
  2
*ACTIVE
 70
     0
 10
0.0
 20
0.0
 11
1.0
 21
1.0
 12
2134.1475375786899
 22
1607.44243637097
 13
0.0
 23
0.0
 14
0.5
 24
0.5
 15
0.5
 25
0.5
 16
0.0
 26
0.0
 36
1.0
 17
0.0
 27
0.0
 37
0.0
 40
194.6565759618411
 41
2.1408934707903771
 42
50.0
 43
0.0
 44
0.0
 50
0.0
 51
0.0
 71
     0
 72
  2000
 73
     1
 74
     3
 75
     0
 76
     0
 77
     0
 78
     0
  0
ENDTAB
  0
TABLE
  2
LTYPE
 70
     5
  0
LTYPE
  2
CONTINUOUS
 70
     0
  3
Solid line
 72
    65
 73
     0
 40
0.0
  0
LTYPE
  2
PHANTOM2
 70
     0
  3
Phantom (.5x) ___ _ _ ___ _ _ ___ _ _ ___ _ _
 72
    65
 73
     6
 40
1.25
 49
0.625
 49
-0.125
 49
0.125
 49
-0.125
 49
0.125
 49
-0.125
  0
LTYPE
  2
CENTER
 70
     0
  3
___ _ ___ _ ___ _ ___ _ ___ _ ___ _ ___ _ ___ _
 72
    65
 73
     4
 40
0.95
 49
0.625
 49
-0.125
 49
0.075
 49
-0.125
  0
LTYPE
  2
DASHED2
 70
     0
  3
Dashed (.5x) _ _ _ _ _ _ _ _ _ _ _ _ _ _ _ _ _
 72
    65
 73
     2
 40
0.375
 49
0.25
 49
-0.125
  0
ENDTAB
  0
TABLE
  2
LAYER
 70
     4
  0
LAYER
  2
0
 70
     0
 62
     7
  6
CONTINUOUS
  0
LAYER
  2
HIDE
 70
     0
 62
     1
  6
DASHED2
  0
LAYER
  2
CENTER
 70
     0
 62
     3
  6
CENTER
  0
ENDTAB
  0
TABLE
  2
STYLE
 70
     3
  0
STYLE
  2
STANDARD
 70
     0
 40
5.0
 41
1.0
 50
0.0
 71
     0
 42
5.0
  3
txt.shx
  4
whgtxt.shx
  0
STYLE
  2
BIG
 70
     0
 40
20.0
 41
1.0
 50
0.0
 71
     0
 42
2.5
  3
txt
  4

  0
ENDTAB
  0
TABLE
  2
VIEW
 70
     0
  0
ENDTAB
  0
TABLE
  2
UCS
 70
     0
  0
ENDTAB
  0
TABLE
  2
APPID
 70
    10
  0
APPID
  2
ACAD
 70
     0
  0
APPID
  2
ACADANNOTATIVE
 70
     0
  0
APPID
  2
ACAD_EXEMPT_FROM_CAD_STANDARDS
 70
     0
  0
APPID
  2
ACAD_DSTYLE_DIMJOGGED_JOGA
 70
     0
  0
APPID
  2
ACAD_PSEXT
 70
     0
  0
APPID
  2
ACAECLAYERSTANDARD
 70
     0
  0
APPID
  2
DCO15
 70
     0
  0
APPID
  2
CONTENTBLOCKICON
 70
     0
  0
APPID
  2
ACAD_NAV_VCDISPLAY
 70
     0
  0
APPID
  2
ACAD_MLEADERVER
 70
     0
  0
ENDTAB
  0
TABLE
  2
DIMSTYLE
 70
     4
  0
DIMSTYLE
  2
DUKITEC
 70
     0
  3

  4

  5

  6

  7

 40
1.0
 41
3.0
 42
1.0
 43
0.0
 44
1.0
 45
0.0
 46
0.0
 47
0.0
 48
0.0
140
3.0
141
0.0
142
0.0
143
25.399999999999999
144
1.0
145
0.0
146
1.0
147
1.0
 71
     0
 72
     0
 73
     0
 74
     0
 75
     0
 76
     0
 77
     1
 78
     8
170
     0
171
     2
172
     1
173
     0
174
     1
175
     0
176
     5
177
     5
178
     0
  0
ENDTAB
  0
ENDSEC
  0
SECTION
  2
BLOCKS
  0
BLOCK
  8
0
  2
$MODEL_SPACE
 70
     0
 10
0.0
 20
0.0
 30
0.0
  3
$MODEL_SPACE
  1

  0
ENDBLK
  5
140A7
  8
0
  0
BLOCK
 67
     1
  8
0
  2
$PAPER_SPACE
 70
     0
 10
0.0
 20
0.0
 30
0.0
  3
$PAPER_SPACE
  1

  0
ENDBLK
  5
140A3
 67
     1
  8
0
  0
ENDSEC
  0
SECTION
  2
ENTITIES
  0
POLYLINE
  5
13E1C
  8
0
 66
     1
 10
0.0
 20
0.0
 30
0.0
 70
     1
  0
VERTEX
  5
143B7
  8
0
 10
2000.9525816294929
 20
1516.377052120903
 30
0.0
  0
VERTEX
  5
143B8
  8
0
 10
2000.9525816294929
 20
1705.377052120903
 30
0.0
  0
VERTEX
  5
143B9
  8
0
 10
2268.2525816294929
 20
1705.377052120903
 30
0.0
  0
VERTEX
  5
143BA
  8
0
 10
2268.2525816294929
 20
1516.377052120903
 30
0.0
  0
VERTEX
  5
143BB
  8
0
 10
2000.9525816294929
 20
1516.377052120903
 30
0.0
  0
SEQEND
  5
143BC
  8
0
  0
TEXT
  5
14013
  8
0
 10
2076.1779695369378
 20
1547.2011370597861
 30
0.0
 40
20.0
  1
EK 8 P5
  7
BIG
  0
LINE
  5
141AD
  8
HIDE
 10
2091.1355227173831
 20
1624.813723718263
 30
0.0
 11
2091.1355227173831
 21
1612.813723718263
 31
0.0
  0
LINE
  5
141AE
  8
HIDE
 10
2088.9355227173828
 20
1612.813723718263
 30
0.0
 11
2088.9355227173828
 21
1598.813723718263
 31
0.0
  0
LINE
  5
141AF
  8
HIDE
 10
2080.1355227173831
 20
1624.813723718263
 30
0.0
 11
2080.1355227173831
 21
1612.813723718263
 31
0.0
  0
LINE
  5
141B0
  8
HIDE
 10
2082.335522717382
 20
1612.813723718263
 30
0.0
 11
2082.335522717382
 21
1598.813723718263
 31
0.0
  0
LINE
  5
141B1
  8
HIDE
 10
2080.1355227173831
 20
1612.813723718263
 30
0.0
 11
2091.1355227173831
 21
1612.813723718263
 31
0.0
  0
LINE
  5
141B2
  8
HIDE
 10
2118.1355227173831
 20
1612.813723718263
 30
0.0
 11
2129.1355227173831
 21
1612.813723718263
 31
0.0
  0
LINE
  5
141B3
  8
HIDE
 10
2120.3355227173829
 20
1612.813723718263
 30
0.0
 11
2120.3355227173829
 21
1598.813723718263
 31
0.0
  0
LINE
  5
141B4
  8
HIDE
 10
2126.9355227173828
 20
1612.813723718263
 30
0.0
 11
2126.9355227173828
 21
1598.813723718263
 31
0.0
  0
LINE
  5
141B5
  8
HIDE
 10
2129.1355227173831
 20
1624.813723718263
 30
0.0
 11
2129.1355227173831
 21
1612.813723718263
 31
0.0
  0
LINE
  5
141B6
  8
HIDE
 10
2118.1355227173831
 20
1624.813723718263
 30
0.0
 11
2118.1355227173831
 21
1612.813723718263
 31
0.0
  0
LINE
  5
141B7
  8
0
 10
2078.6355227173822
 20
1598.813723718263
 30
0.0
 11
2130.6355307173831
 21
1598.813723718263
 31
0.0
  0
LINE
  5
141B8
  8
0
 10
2117.1355227173831
 20
1624.813723718263
 30
0.0
 11
2117.1355227173831
 21
1629.8137237182621
 31
0.0
  0
LINE
  5
141B9
  8
0
 10
2078.6355227173822
 20
1624.813723718263
 30
0.0
 11
2092.1355227173831
 21
1624.813723718263
 31
0.0
  0
LINE
  5
141BA
  8
0
 10
2092.1355227173831
 20
1624.813723718263
 30
0.0
 11
2092.1355227173831
 21
1629.8137237182621
 31
0.0
  0
LINE
  5
141BB
  8
0
 10
2130.6355307173831
 20
1598.813723718263
 30
0.0
 11
2130.6355307173831
 21
1624.813723718263
 31
0.0
  0
LINE
  5
141BC
  8
0
 10
2093.1355227173831
 20
1630.813723718263
 30
0.0
 11
2116.1355227173831
 21
1630.813723718263
 31
0.0
  0
LINE
  5
141BD
  8
0
 10
2117.1355227173831
 20
1624.813723718263
 30
0.0
 11
2130.6355307173831
 21
1624.813723718263
 31
0.0
  0
LINE
  5
141BE
  8
CENTER
 10
2123.6355227173831
 20
1597.5642277182619
 30
0.0
 11
2123.6355227173831
 21
1626.0406527182629
 31
0.0
  0
LINE
  5
141BF
  8
CENTER
 10
2085.6355227173831
 20
1597.4913967182631
 30
0.0
 11
2085.6355227173831
 21
1625.894991718262
 31
0.0
  0
LINE
  5
141C0
  8
0
 10
2116.1355757173828
 20
1630.8136737182631
 30
0.0
 11
2117.1355537173831
 21
1629.8136927182629
 31
0.0
  0
LINE
  5
141C1
  8
0
 10
2092.135500717382
 20
1629.813749718262
 30
0.0
 11
2093.135448717383
 21
1630.813749718262
 31
0.0
  0
LINE
  5
141C2
  8
CENTER
 10
2076.6355227173831
 20
1615.813723718263
 30
0.0
 11
2132.6355307173831
 21
1615.813723718263
 31
0.0
  0
LINE
  5
141C3
  8
CENTER
 10
2104.6355227173831
 20
1597.1272457182631
 30
0.0
 11
2104.6355227173831
 21
1632.1583437182619
 31
0.0
  0
LINE
  5
141C4
  8
0
 10
2078.6355227173822
 20
1598.813723718263
 30
0.0
 11
2078.6355227173822
 21
1624.813723718263
 31
0.0
  0
LINE
  5
141C5
  8
0
 10
2106.1757247614419
 20
1607.4544308257109
 30
0.0
 11
2112.9948156099349
 21
1614.273521674206
 31
0.0
  0
LINE
  5
141C6
  8
0
 10
2096.2762298248322
 20
1617.353925762322
 30
0.0
 11
2103.0953206733238
 21
1624.1730166108159
 31
0.0
  0
LINE
  5
141C7
  8
0
 10
2106.1757247614441
 20
1624.1730166108159
 30
0.0
 11
2112.9948156099372
 21
1617.353925762322
 31
0.0
  0
LINE
  5
141C8
  8
0
 10
2096.2762298248322
 20
1614.2735216741989
 30
0.0
 11
2103.0953206733202
 21
1607.4544308257109
 31
0.0
  0
ARC
  5
141C9
  8
0
 10
2104.635522717384
 20
1615.813723718263
 30
0.0
 40
8.5
 50
79.56032178004547
 51
100.4396782199545
  0
ARC
  5
141CA
  8
0
 10
2104.635522717384
 20
1615.813723718263
 30
0.0
 40
8.5
 50
169.56032177999151
 51
190.4396782200084
  0
ARC
  5
141CB
  8
0
 10
2104.635522717384
 20
1615.813723718263
 30
0.0
 40
8.5
 50
259.56032178004551
 51
280.43967821995449
  0
ARC
  5
141CC
  8
0
 10
2104.635522717384
 20
1615.813723718263
 30
0.0
 40
8.5
 50
349.56032177999163
 51
10.439678220008419
  0
ARC
  5
141CD
  8
HIDE
 10
2104.635522717384
 20
1615.813723718263
 30
0.0
 40
4.0
 50
270.0
 51
180.0
  0
CIRCLE
  5
141CE
  8
0
 10
2104.635522717384
 20
1615.813723718263
 30
0.0
 40
3.5
  0
LINE
  5
141CF
  8
HIDE
 10
2106.135522717384
 20
1624.1803239836031
 30
0.0
 11
2106.1355227173849
 21
1618.9760013784289
 31
0.0
  0
LINE
  5
141D0
  8
HIDE
 10
2105.885522717384
 20
1624.2213095786631
 30
0.0
 11
2105.885522717384
 21
1619.082897925919
 31
0.0
  0
LINE
  5
141D1
  8
HIDE
 10
2103.1355227173849
 20
1624.1803239836031
 30
0.0
 11
2103.1355227173872
 21
1618.9760013784321
 31
0.0
  0
LINE
  5
141D2
  8
HIDE
 10
2103.3855227173831
 20
1624.2213095786631
 30
0.0
 11
2103.3855227173831
 21
1619.0828979259179
 31
0.0
  0
LINE
  5
141D3
  8
HIDE
 10
2103.1355227173872
 20
1620.786748852099
 30
0.0
 11
2106.1355227173872
 21
1620.786748852099
 31
0.0
  0
LINE
  5
141D4
  8
HIDE
 10
2103.1355227173872
 20
1623.7867488520999
 30
0.0
 11
2106.1355227173872
 21
1623.7867488520999
 31
0.0
  0
LINE
  5
141D5
  8
HIDE
 10
2103.1355227173872
 20
1620.7867488520981
 30
0.0
 11
2103.3855227173831
 21
1620.6424112848019
 31
0.0
  0
LINE
  5
141D6
  8
HIDE
 10
2106.135522717384
 20
1620.786748852099
 30
0.0
 11
2105.885522717384
 21
1620.6424112848019
 31
0.0
  0
LINE
  5
141D7
  8
HIDE
 10
2103.3855227173831
 20
1620.6424112848019
 30
0.0
 11
2105.885522717384
 21
1620.6424112848019
 31
0.0
  0
LINE
  5
1424C
  8
HIDE
 10
2100.6355227173831
 20
1657.310539683119
 30
0.0
 11
2100.635522717384
 21
1680.8105396831179
 31
0.0
  0
LINE
  5
1424D
  8
HIDE
 10
2108.6355227173831
 20
1657.310539683119
 30
0.0
 11
2108.635522717384
 21
1680.8105396831179
 31
0.0
  0
LINE
  5
1424E
  8
0
 10
2099.135522717384
 20
1657.810539683119
 30
0.0
 11
2099.135522717384
 21
1657.310539683119
 31
0.0
  0
LINE
  5
1424F
  8
0
 10
2110.135522717384
 20
1657.810539683119
 30
0.0
 11
2110.135522717384
 21
1657.310539683119
 31
0.0
  0
CIRCLE
  5
14250
  8
0
 10
2085.6355227173831
 20
1669.310539683119
 30
0.0
 40
3.299999999999998
  0
CIRCLE
  5
14251
  8
0
 10
2085.6355227173831
 20
1669.310539683119
 30
0.0
 40
5.5
  0
CIRCLE
  5
14252
  8
0
 10
2123.635522717384
 20
1669.310539683119
 30
0.0
 40
5.5
  0
CIRCLE
  5
14253
  8
0
 10
2123.635522717384
 20
1669.310539683119
 30
0.0
 40
3.299999999999998
  0
LINE
  5
14254
  8
CENTER
 10
2104.635522717384
 20
1649.7305250357349
 30
0.0
 11
2104.635522717384
 21
1683.698077293619
 31
0.0
  0
LINE
  5
14255
  8
0
 10
2078.635522717384
 20
1657.810539683119
 30
0.0
 11
2130.635530717384
 21
1657.810539683119
 31
0.0
  0
LINE
  5
14256
  8
0
 10
2078.635522717384
 20
1680.8105396831179
 30
0.0
 11
2130.635530717384
 21
1680.8105396831179
 31
0.0
  0
LINE
  5
14257
  8
0
 10
2078.635522717384
 20
1657.810539683119
 30
0.0
 11
2078.635522717384
 21
1680.8105396831179
 31
0.0
  0
LINE
  5
14258
  8
0
 10
2092.135522717384
 20
1657.810539683119
 30
0.0
 11
2092.135522717384
 21
1680.8105396831179
 31
0.0
  0
LINE
  5
14259
  8
0
 10
2117.135522717384
 20
1657.810539683119
 30
0.0
 11
2117.135522717384
 21
1680.8105396831179
 31
0.0
  0
LINE
  5
1425A
  8
0
 10
2130.635530717384
 20
1657.810539683119
 30
0.0
 11
2130.635530717384
 21
1680.8105396831179
 31
0.0
  0
LINE
  5
1425B
  8
0
 10
2093.135522717384
 20
1657.810539683119
 30
0.0
 11
2093.135522717384
 21
1680.8105396831179
 31
0.0
  0
LINE
  5
1425C
  8
0
 10
2116.1355227173831
 20
1657.810539683119
 30
0.0
 11
2116.1355227173831
 21
1680.8105396831179
 31
0.0
  0
LINE
  5
1425D
  8
CENTER
 10
2078.977117542709
 20
1669.310539683119
 30
0.0
 11
2092.293927892058
 21
1669.310539683119
 31
0.0
  0
LINE
  5
1425E
  8
CENTER
 10
2085.6355227173831
 20
1662.652134508445
 30
0.0
 11
2085.6355227173831
 21
1675.9689448577931
 31
0.0
  0
LINE
  5
1425F
  8
CENTER
 10
2116.9771175427099
 20
1669.310539683119
 30
0.0
 11
2130.293927892058
 21
1669.310539683119
 31
0.0
  0
LINE
  5
14260
  8
CENTER
 10
2123.635522717384
 20
1662.652134508445
 30
0.0
 11
2123.635522717384
 21
1675.9689448577931
 31
0.0
  0
LINE
  5
14261
  8
0
 10
2113.1355227173831
 20
1650.8105396831179
 30
0.0
 11
2104.635522717384
 21
1650.8105396831199
 31
0.0
  0
LINE
  5
14262
  8
0
 10
2111.1355227173831
 20
1657.310539683119
 30
0.0
 11
2104.635522717384
 21
1657.310539683119
 31
0.0
  0
LINE
  5
14263
  8
CENTER
 10
2106.7621565762888
 20
1653.810539683117
 30
0.0
 11
2104.635522717384
 21
1653.810539683117
 31
0.0
  0
LINE
  5
14264
  8
0
 10
2113.1355227173831
 20
1656.810539683119
 30
0.0
 11
2104.635522717384
 21
1656.810539683119
 31
0.0
  0
LINE
  5
14265
  8
0
 10
2113.1355227173831
 20
1656.810539683119
 30
0.0
 11
2113.1355227173831
 21
1650.8105396831179
 31
0.0
  0
LINE
  5
14266
  8
0
 10
2111.135522717384
 20
1657.310539683119
 30
0.0
 11
2111.4241978519772
 21
1656.810539683119
 31
0.0
  0
LINE
  5
14267
  8
0
 10
2106.1757247614401
 20
1656.810539683119
 30
0.0
 11
2106.1757247614401
 21
1650.8105396831199
 31
0.0
  0
LINE
  5
14268
  8
HIDE
 10
2108.6355227173808
 20
1657.310539683119
 30
0.0
 11
2108.635522717379
 21
1650.8105396831199
 31
0.0
  0
LINE
  5
14269
  8
0
 10
2096.135522717384
 20
1650.8105396831179
 30
0.0
 11
2104.635522717384
 21
1650.8105396831199
 31
0.0
  0
LINE
  5
1426A
  8
0
 10
2098.1355227173849
 20
1657.310539683119
 30
0.0
 11
2104.635522717384
 21
1657.310539683119
 31
0.0
  0
LINE
  5
1426B
  8
0
 10
2096.135522717384
 20
1656.810539683119
 30
0.0
 11
2104.635522717384
 21
1656.810539683119
 31
0.0
  0
LINE
  5
1426C
  8
0
 10
2096.135522717384
 20
1656.810539683119
 30
0.0
 11
2096.135522717384
 21
1650.8105396831179
 31
0.0
  0
LINE
  5
1426D
  8
0
 10
2098.135522717384
 20
1657.310539683119
 30
0.0
 11
2097.8468475827899
 21
1656.810539683119
 31
0.0
  0
LINE
  5
1426E
  8
0
 10
2103.095320673327
 20
1656.810539683119
 30
0.0
 11
2103.0953206733279
 21
1650.8105396831199
 31
0.0
  0
LINE
  5
1426F
  8
HIDE
 10
2100.6355227173858
 20
1657.310539683119
 30
0.0
 11
2100.6355227173881
 21
1650.8105396831199
 31
0.0
  0
CIRCLE
  5
14270
  8
0
 10
2104.635522717384
 20
1653.810539683117
 30
0.0
 40
1.2500000000009091
  0
CIRCLE
  5
14271
  8
0
 10
2104.635522717384
 20
1653.810539683117
 30
0.0
 40
1.4999999999963609
  0
LINE
  5
14272
  8
0
 10
2105.3855217173841
 20
1653.3775256831179
 30
0.0
 11
2104.635522717384
 21
1652.9445156831171
 31
0.0
  0
LINE
  5
14273
  8
0
 10
2104.6355217173832
 20
1654.6765636831169
 30
0.0
 11
2103.885522717384
 21
1654.2435536831181
 31
0.0
  0
LINE
  5
14274
  8
0
 10
2104.635522717384
 20
1652.9445156831171
 30
0.0
 11
2103.8855237173839
 21
1653.3775256831179
 31
0.0
  0
LINE
  5
14275
  8
0
 10
2105.385522717384
 20
1654.2435536831181
 30
0.0
 11
2104.6355237173839
 21
1654.6765636831169
 31
0.0
  0
LINE
  5
14276
  8
0
 10
2103.885522717384
 20
1653.3775256831179
 30
0.0
 11
2103.885522717384
 21
1654.2435536831181
 31
0.0
  0
LINE
  5
14277
  8
0
 10
2105.385522717384
 20
1653.3775256831179
 30
0.0
 11
2105.385522717384
 21
1654.2435536831181
 31
0.0
  0
LINE
  5
14278
  8
CENTER
 10
2102.5088888584792
 20
1653.810539683117
 30
0.0
 11
2107.135522717384
 21
1653.810539683117
 31
0.0
  0
CIRCLE
  5
14279
  8
0
 10
2104.6355227173831
 20
1615.813723718263
 30
0.0
 40
14.0
  0
ARC
  5
1427A
  8
HIDE
 10
2104.635522717384
 20
1615.813723718263
 30
0.0
 40
14.5
 50
270.0
 51
180.0
  0
LINE
  5
1427D
  8
HIDE
 10
2101.1355227173881
 20
1650.8105396831199
 30
0.0
 11
2101.1355227173881
 21
1657.310539683119
 31
0.0
  0
LINE
  5
1427E
  8
HIDE
 10
2108.1355227173772
 20
1650.810539683119
 30
0.0
 11
2108.1355227173799
 21
1657.310539683119
 31
0.0
  0
LINE
  5
14288
  8
CENTER
 10
2159.121183693992
 20
1615.813723718263
 30
0.0
 11
2200.6980845311782
 21
1615.813723718263
 31
0.0
  0
LINE
  5
14289
  8
0
 10
2170.633990934095
 20
1610.313723718263
 30
0.0
 11
2171.1339909340941
 21
1610.313723718263
 31
0.0
  0
LINE
  5
1428A
  8
HIDE
 10
2190.133990934095
 20
1610.313723718263
 30
0.0
 11
2194.133990934095
 21
1610.313723718263
 31
0.0
  0
LINE
  5
1428B
  8
0
 10
2170.633990934095
 20
1621.313723718263
 30
0.0
 11
2171.1339909340941
 21
1621.313723718263
 31
0.0
  0
LINE
  5
1428C
  8
HIDE
 10
2190.133990934095
 20
1621.313723718263
 30
0.0
 11
2194.133990934095
 21
1621.313723718263
 31
0.0
  0
LINE
  5
1428D
  8
0
 10
2171.1339909340941
 20
1598.813723718263
 30
0.0
 11
2194.133990934095
 21
1598.813723718263
 31
0.0
  0
LINE
  5
1428E
  8
0
 10
2171.1339909340941
 20
1630.813723718263
 30
0.0
 11
2194.133990934095
 21
1630.813723718263
 31
0.0
  0
LINE
  5
1428F
  8
0
 10
2194.133990934095
 20
1598.813723718263
 30
0.0
 11
2194.133990934095
 21
1630.813723718263
 31
0.0
  0
LINE
  5
14290
  8
0
 10
2171.1339909340941
 20
1598.813723718263
 30
0.0
 11
2171.1339909340941
 21
1630.813723718263
 31
0.0
  0
LINE
  5
14291
  8
0
 10
2171.1339909340941
 20
1624.813723718263
 30
0.0
 11
2194.133990934095
 21
1624.813723718263
 31
0.0
  0
LINE
  5
14292
  8
0
 10
2171.1339909340941
 20
1629.8136927182629
 30
0.0
 11
2194.133990934095
 21
1629.8136927182629
 31
0.0
  0
LINE
  5
14294
  8
0
 10
2164.133990934095
 20
1624.313723718263
 30
0.0
 11
2164.1339909340968
 21
1615.813723718263
 31
0.0
  0
LINE
  5
14295
  8
0
 10
2170.633990934095
 20
1622.3137237182621
 30
0.0
 11
2170.633990934095
 21
1615.813723718263
 31
0.0
  0
LINE
  5
14296
  8
CENTER
 10
2167.133990934095
 20
1625.0793584076571
 30
0.0
 11
2167.133990934095
 21
1618.905150841566
 31
0.0
  0
LINE
  5
14297
  8
0
 10
2170.133990934095
 20
1624.313723718263
 30
0.0
 11
2170.133990934095
 21
1615.813723718263
 31
0.0
  0
LINE
  5
14298
  8
0
 10
2170.133990934095
 20
1624.313723718263
 30
0.0
 11
2164.133990934095
 21
1624.313723718263
 31
0.0
  0
LINE
  5
14299
  8
0
 10
2170.633990934095
 20
1622.313723718263
 30
0.0
 11
2170.133990934095
 21
1622.602398852857
 31
0.0
  0
LINE
  5
1429A
  8
0
 10
2170.133990934095
 20
1617.3539257623199
 30
0.0
 11
2164.1339909340968
 21
1617.353925762319
 31
0.0
  0
LINE
  5
1429B
  8
HIDE
 10
2170.633990934095
 20
1619.31372371826
 30
0.0
 11
2164.1339909340968
 21
1619.313723718258
 31
0.0
  0
LINE
  5
1429C
  8
HIDE
 10
2170.633990934095
 20
1619.81372371826
 30
0.0
 11
2164.1339909340968
 21
1619.813723718258
 31
0.0
  0
LINE
  5
1429D
  8
0
 10
2164.133990934095
 20
1607.313723718263
 30
0.0
 11
2164.1339909340968
 21
1615.813723718263
 31
0.0
  0
LINE
  5
1429E
  8
0
 10
2170.633990934095
 20
1609.3137237182641
 30
0.0
 11
2170.633990934095
 21
1615.813723718263
 31
0.0
  0
LINE
  5
1429F
  8
0
 10
2170.133990934095
 20
1607.313723718263
 30
0.0
 11
2170.133990934095
 21
1615.813723718263
 31
0.0
  0
LINE
  5
142A0
  8
0
 10
2170.133990934095
 20
1607.313723718263
 30
0.0
 11
2164.133990934095
 21
1607.313723718263
 31
0.0
  0
LINE
  5
142A1
  8
0
 10
2170.633990934095
 20
1609.313723718263
 30
0.0
 11
2170.133990934095
 21
1609.0250485836691
 31
0.0
  0
LINE
  5
142A2
  8
0
 10
2170.133990934095
 20
1614.273521674206
 30
0.0
 11
2164.1339909340968
 21
1614.273521674206
 31
0.0
  0
LINE
  5
142A3
  8
HIDE
 10
2170.633990934095
 20
1612.3137237182659
 30
0.0
 11
2164.1339909340968
 21
1612.3137237182671
 31
0.0
  0
LINE
  5
142A4
  8
HIDE
 10
2170.633990934095
 20
1611.8137237182659
 30
0.0
 11
2164.1339909340968
 21
1611.8137237182671
 31
0.0
  0
LINE
  5
142A5
  8
HIDE
 10
2165.633990934095
 20
1624.313723718263
 30
0.0
 11
2165.6339909340932
 21
1619.313723718258
 31
0.0
  0
LINE
  5
142A6
  8
HIDE
 10
2165.8839909340941
 20
1624.313723718263
 30
0.0
 11
2165.8839909340941
 21
1619.313723718258
 31
0.0
  0
LINE
  5
142A7
  8
HIDE
 10
2168.6339909340932
 20
1624.313723718263
 30
0.0
 11
2168.6339909340909
 21
1619.31372371826
 31
0.0
  0
LINE
  5
142A8
  8
HIDE
 10
2168.383990934095
 20
1624.313723718263
 30
0.0
 11
2168.383990934095
 21
1619.31372371826
 31
0.0
  0
LINE
  5
142A9
  8
HIDE
 10
2168.6339909340909
 20
1620.7867488520999
 30
0.0
 11
2165.6339909340909
 21
1620.7867488520999
 31
0.0
  0
LINE
  5
142AA
  8
HIDE
 10
2168.6339909340909
 20
1623.7867488520999
 30
0.0
 11
2165.6339909340909
 21
1623.7867488520999
 31
0.0
  0
LINE
  5
142AB
  8
HIDE
 10
2168.6339909340909
 20
1620.7867488520981
 30
0.0
 11
2168.383990934095
 21
1620.6424112848031
 31
0.0
  0
LINE
  5
142AC
  8
HIDE
 10
2165.633990934095
 20
1620.786748852099
 30
0.0
 11
2165.8839909340941
 21
1620.6424112848019
 31
0.0
  0
LINE
  5
142AD
  8
HIDE
 10
2168.383990934095
 20
1620.6424112848031
 30
0.0
 11
2165.8839909340941
 21
1620.6424112848019
 31
0.0
  0
LINE
  5
142AE
  8
HIDE
 10
2171.1339909340941
 20
1611.813723718263
 30
0.0
 11
2176.133990934095
 21
1611.813723718263
 31
0.0
  0
LINE
  5
142B0
  8
HIDE
 10
2171.1339909340941
 20
1619.8137237182621
 30
0.0
 11
2176.133990934095
 21
1619.8137237182621
 31
0.0
  0
LINE
  5
142B2
  8
HIDE
 10
2171.1339909340941
 20
1621.313723718263
 30
0.0
 11
2176.133990934095
 21
1621.313723718263
 31
0.0
  0
LINE
  5
142B3
  8
HIDE
 10
2171.1339909340941
 20
1610.313723718263
 30
0.0
 11
2176.133990934095
 21
1610.313723718263
 31
0.0
  0
LINE
  5
142B4
  8
CENTER
 10
2182.6339909340941
 20
1602.8148126735921
 30
0.0
 11
2182.6339909340941
 21
1593.4470958692959
 31
0.0
  0
CIRCLE
  5
142B5
  8
HIDE
 10
2186.633990934095
 20
1608.313723718263
 30
0.0
 40
2.0999999999999992
  0
CIRCLE
  5
142B6
  8
HIDE
 10
2186.633990934095
 20
1623.313723718263
 30
0.0
 40
2.0999999999999992
  0
LINE
  5
142B7
  8
HIDE
 10
2190.133990934095
 20
1606.823723718263
 30
0.0
 11
2190.133990934095
 21
1609.743723718263
 31
0.0
  0
LINE
  5
142B9
  8
HIDE
 10
2183.133990934095
 20
1609.743723718263
 30
0.0
 11
2183.133990934095
 21
1606.823723718263
 31
0.0
  0
LINE
  5
142BA
  8
HIDE
 10
2188.113822005535
 20
1606.823723718263
 30
0.0
 11
2190.133990934095
 21
1606.823723718263
 31
0.0
  0
LINE
  5
142BB
  8
HIDE
 10
2183.4339909340938
 20
1604.813723718263
 30
0.0
 11
2189.8339909340939
 21
1604.813723718263
 31
0.0
  0
ARC
  5
142BC
  8
HIDE
 10
2183.4339909340938
 20
1605.1137237182629
 30
0.0
 40
0.3
 50
180.0
 51
270.0
  0
LINE
  5
142BD
  8
HIDE
 10
2183.133990934095
 20
1606.823723718263
 30
0.0
 11
2183.133990934095
 21
1605.1137237182629
 31
0.0
  0
ARC
  5
142BE
  8
HIDE
 10
2189.8339909340939
 20
1605.1137237182629
 30
0.0
 40
0.3000000000000007
 50
270.0
 51
0.0
  0
LINE
  5
142BF
  8
HIDE
 10
2190.133990934095
 20
1605.1137237182629
 30
0.0
 11
2190.133990934095
 21
1606.823723718263
 31
0.0
  0
ARC
  5
142C0
  8
HIDE
 10
2183.4339909340938
 20
1620.1137237182629
 30
0.0
 40
0.3
 50
180.0
 51
270.0
  0
ARC
  5
142C1
  8
HIDE
 10
2189.8339909340939
 20
1620.1137237182629
 30
0.0
 40
0.2999999999999998
 50
270.0
 51
0.0
  0
LINE
  5
142C2
  8
HIDE
 10
2190.133990934095
 20
1620.1137237182629
 30
0.0
 11
2190.133990934095
 21
1615.813723718263
 31
0.0
  0
LINE
  5
142C3
  8
HIDE
 10
2183.133990934095
 20
1615.813723718263
 30
0.0
 11
2183.133990934095
 21
1620.1137237182629
 31
0.0
  0
LINE
  5
142C4
  8
HIDE
 10
2183.133990934095
 20
1609.743723718263
 30
0.0
 11
2185.0961027717108
 21
1609.743723718263
 31
0.0
  0
LINE
  5
142C5
  8
HIDE
 10
2188.1718790964778
 20
1609.743723718263
 30
0.0
 11
2190.133990934095
 21
1609.743723718263
 31
0.0
  0
LINE
  5
142C6
  8
HIDE
 10
2183.4339909340938
 20
1611.813723718263
 30
0.0
 11
2189.8339909340939
 21
1611.813723718263
 31
0.0
  0
LINE
  5
142C7
  8
HIDE
 10
2183.4339909340938
 20
1619.8137237182621
 30
0.0
 11
2189.8339909340939
 21
1619.8137237182621
 31
0.0
  0
LINE
  5
142C8
  8
HIDE
 10
2183.133990934095
 20
1615.813723718263
 30
0.0
 11
2183.133990934095
 21
1611.513723718263
 31
0.0
  0
ARC
  5
142C9
  8
HIDE
 10
2183.4339909340938
 20
1611.513723718263
 30
0.0
 40
0.2999999999999998
 50
90.0
 51
180.0
  0
LINE
  5
142CA
  8
HIDE
 10
2183.133990934095
 20
1611.513723718263
 30
0.0
 11
2183.133990934095
 21
1609.743723718263
 31
0.0
  0
LINE
  5
142CB
  8
HIDE
 10
2190.133990934095
 20
1611.513723718263
 30
0.0
 11
2190.133990934095
 21
1615.813723718263
 31
0.0
  0
ARC
  5
142CC
  8
HIDE
 10
2189.8339909340939
 20
1611.513723718263
 30
0.0
 40
0.2999999999999998
 50
0.0
 51
90.0
  0
LINE
  5
142CD
  8
HIDE
 10
2190.133990934095
 20
1609.743723718263
 30
0.0
 11
2190.133990934095
 21
1611.513723718263
 31
0.0
  0
LINE
  5
142CE
  8
HIDE
 10
2183.133990934095
 20
1621.883723718262
 30
0.0
 11
2185.0961027717108
 21
1621.883723718262
 31
0.0
  0
LINE
  5
142CF
  8
HIDE
 10
2188.1718790964778
 20
1621.883723718262
 30
0.0
 11
2190.133990934095
 21
1621.883723718262
 31
0.0
  0
LINE
  5
142D0
  8
HIDE
 10
2183.1450576308589
 20
1625.5148888719059
 30
0.0
 11
2185.7904328794812
 21
1625.2368487294091
 31
0.0
  0
LINE
  5
142D1
  8
HIDE
 10
2188.113822005535
 20
1624.803723718263
 30
0.0
 11
2190.133990934095
 21
1624.803723718263
 31
0.0
  0
LINE
  5
142D2
  8
HIDE
 10
2183.4339909340938
 20
1626.813723718263
 30
0.0
 11
2189.8339909340939
 21
1626.813723718263
 31
0.0
  0
ARC
  5
142D3
  8
HIDE
 10
2183.4339909340938
 20
1626.513723718263
 30
0.0
 40
0.3000000000000007
 50
90.0
 51
180.0
  0
LINE
  5
142D4
  8
HIDE
 10
2183.133990934095
 20
1624.803723718263
 30
0.0
 11
2183.133990934095
 21
1626.513723718263
 31
0.0
  0
LINE
  5
142D5
  8
HIDE
 10
2183.133990934095
 20
1620.1137237182629
 30
0.0
 11
2183.133990934095
 21
1621.883723718262
 31
0.0
  0
LINE
  5
142D6
  8
HIDE
 10
2183.133990934095
 20
1621.883723718262
 30
0.0
 11
2183.133990934095
 21
1624.803723718263
 31
0.0
  0
LINE
  5
142D7
  8
HIDE
 10
2190.133990934095
 20
1626.513723718263
 30
0.0
 11
2190.133990934095
 21
1624.803723718263
 31
0.0
  0
LINE
  5
142D8
  8
HIDE
 10
2190.133990934095
 20
1621.883723718262
 30
0.0
 11
2190.133990934095
 21
1620.1137237182629
 31
0.0
  0
LINE
  5
142D9
  8
HIDE
 10
2190.133990934095
 20
1624.803723718263
 30
0.0
 11
2190.133990934095
 21
1621.883723718262
 31
0.0
  0
ARC
  5
142DA
  8
HIDE
 10
2189.8339909340939
 20
1626.513723718263
 30
0.0
 40
0.2999999999999998
 50
0.0
 51
90.0
  0
LINE
  5
142DB
  8
HIDE
 10
2183.1450576308589
 20
1606.11255856462
 30
0.0
 11
2185.7904328794812
 21
1606.3905987071171
 31
0.0
  0
CIRCLE
  5
142DC
  8
HIDE
 10
2179.633990934095
 20
1608.313723718263
 30
0.0
 40
2.0999999999999992
  0
CIRCLE
  5
142DD
  8
HIDE
 10
2179.633990934095
 20
1623.313723718263
 30
0.0
 40
2.0999999999999992
  0
LINE
  5
142DE
  8
HIDE
 10
2176.133990934095
 20
1606.823723718263
 30
0.0
 11
2176.133990934095
 21
1609.743723718263
 31
0.0
  0
LINE
  5
142DF
  8
HIDE
 10
2183.133990934095
 20
1609.743723718263
 30
0.0
 11
2183.133990934095
 21
1606.823723718263
 31
0.0
  0
LINE
  5
142E0
  8
HIDE
 10
2178.154159862655
 20
1606.823723718263
 30
0.0
 11
2176.133990934095
 21
1606.823723718263
 31
0.0
  0
LINE
  5
142E1
  8
HIDE
 10
2182.8339909340948
 20
1604.813723718263
 30
0.0
 11
2176.4339909340952
 21
1604.813723718263
 31
0.0
  0
ARC
  5
142E2
  8
HIDE
 10
2182.8339909340948
 20
1605.1137237182629
 30
0.0
 40
0.3
 50
270.0
 51
0.0
  0
LINE
  5
142E3
  8
HIDE
 10
2183.133990934095
 20
1606.823723718263
 30
0.0
 11
2183.133990934095
 21
1605.1137237182629
 31
0.0
  0
ARC
  5
142E4
  8
HIDE
 10
2176.4339909340952
 20
1605.1137237182629
 30
0.0
 40
0.3000000000000007
 50
180.0
 51
270.0
  0
LINE
  5
142E5
  8
HIDE
 10
2176.133990934095
 20
1605.1137237182629
 30
0.0
 11
2176.133990934095
 21
1606.823723718263
 31
0.0
  0
ARC
  5
142E6
  8
HIDE
 10
2182.8339909340948
 20
1620.1137237182629
 30
0.0
 40
0.3
 50
270.0
 51
0.0
  0
ARC
  5
142E7
  8
HIDE
 10
2176.4339909340952
 20
1620.1137237182629
 30
0.0
 40
0.2999999999999998
 50
180.0
 51
270.0
  0
LINE
  5
142E8
  8
HIDE
 10
2176.133990934095
 20
1620.1137237182629
 30
0.0
 11
2176.133990934095
 21
1615.813723718263
 31
0.0
  0
LINE
  5
142E9
  8
HIDE
 10
2183.133990934095
 20
1615.813723718263
 30
0.0
 11
2183.133990934095
 21
1620.1137237182629
 31
0.0
  0
LINE
  5
142EA
  8
HIDE
 10
2183.133990934095
 20
1609.743723718263
 30
0.0
 11
2181.1718790964778
 21
1609.743723718263
 31
0.0
  0
LINE
  5
142EB
  8
HIDE
 10
2178.0961027717108
 20
1609.743723718263
 30
0.0
 11
2176.133990934095
 21
1609.743723718263
 31
0.0
  0
LINE
  5
142EC
  8
HIDE
 10
2182.8339909340948
 20
1611.813723718263
 30
0.0
 11
2176.4339909340952
 21
1611.813723718263
 31
0.0
  0
LINE
  5
142ED
  8
HIDE
 10
2182.8339909340948
 20
1619.8137237182621
 30
0.0
 11
2176.4339909340952
 21
1619.8137237182621
 31
0.0
  0
LINE
  5
142EE
  8
HIDE
 10
2183.133990934095
 20
1615.813723718263
 30
0.0
 11
2183.133990934095
 21
1611.513723718263
 31
0.0
  0
ARC
  5
142EF
  8
HIDE
 10
2182.8339909340948
 20
1611.513723718263
 30
0.0
 40
0.2999999999999998
 50
0.0
 51
90.0
  0
LINE
  5
142F0
  8
HIDE
 10
2183.133990934095
 20
1611.513723718263
 30
0.0
 11
2183.133990934095
 21
1609.743723718263
 31
0.0
  0
LINE
  5
142F1
  8
HIDE
 10
2176.133990934095
 20
1611.513723718263
 30
0.0
 11
2176.133990934095
 21
1615.813723718263
 31
0.0
  0
ARC
  5
142F2
  8
HIDE
 10
2176.4339909340952
 20
1611.513723718263
 30
0.0
 40
0.2999999999999998
 50
90.0
 51
180.0
  0
LINE
  5
142F3
  8
HIDE
 10
2176.133990934095
 20
1609.743723718263
 30
0.0
 11
2176.133990934095
 21
1611.513723718263
 31
0.0
  0
LINE
  5
142F4
  8
HIDE
 10
2183.133990934095
 20
1621.883723718262
 30
0.0
 11
2181.1718790964778
 21
1621.883723718262
 31
0.0
  0
LINE
  5
142F5
  8
HIDE
 10
2178.0961027717108
 20
1621.883723718262
 30
0.0
 11
2176.133990934095
 21
1621.883723718262
 31
0.0
  0
LINE
  5
142F6
  8
HIDE
 10
2183.1229242373302
 20
1625.5148888719059
 30
0.0
 11
2180.4775489887079
 21
1625.2368487294091
 31
0.0
  0
LINE
  5
142F7
  8
HIDE
 10
2178.154159862655
 20
1624.803723718263
 30
0.0
 11
2176.133990934095
 21
1624.803723718263
 31
0.0
  0
LINE
  5
142F8
  8
HIDE
 10
2182.8339909340948
 20
1626.813723718263
 30
0.0
 11
2176.4339909340952
 21
1626.813723718263
 31
0.0
  0
ARC
  5
142F9
  8
HIDE
 10
2182.8339909340948
 20
1626.513723718263
 30
0.0
 40
0.3000000000000007
 50
0.0
 51
90.0
  0
LINE
  5
142FA
  8
HIDE
 10
2183.133990934095
 20
1624.803723718263
 30
0.0
 11
2183.133990934095
 21
1626.513723718263
 31
0.0
  0
LINE
  5
142FB
  8
HIDE
 10
2183.133990934095
 20
1620.1137237182629
 30
0.0
 11
2183.133990934095
 21
1621.883723718262
 31
0.0
  0
LINE
  5
142FC
  8
HIDE
 10
2183.133990934095
 20
1621.883723718262
 30
0.0
 11
2183.133990934095
 21
1624.803723718263
 31
0.0
  0
LINE
  5
142FD
  8
HIDE
 10
2176.133990934095
 20
1626.513723718263
 30
0.0
 11
2176.133990934095
 21
1624.803723718263
 31
0.0
  0
LINE
  5
142FE
  8
HIDE
 10
2176.133990934095
 20
1621.883723718262
 30
0.0
 11
2176.133990934095
 21
1620.1137237182629
 31
0.0
  0
LINE
  5
142FF
  8
HIDE
 10
2176.133990934095
 20
1624.803723718263
 30
0.0
 11
2176.133990934095
 21
1621.883723718262
 31
0.0
  0
ARC
  5
14300
  8
HIDE
 10
2176.4339909340952
 20
1626.513723718263
 30
0.0
 40
0.2999999999999998
 50
90.0
 51
180.0
  0
LINE
  5
14301
  8
HIDE
 10
2183.1229242373302
 20
1606.11255856462
 30
0.0
 11
2180.4775489887079
 21
1606.3905987071171
 31
0.0
  0
ENDSEC
  0
EOF
