  0
SECTION
  2
HEADER
  9
$ACADVER
  1
AC1009
  9
$INSBASE
 10
0.0
 20
0.0
 30
0.0
  9
$EXTMIN
 10
1903.0405749290021
 20
1433.173578249188
 30
0.0
  9
$EXTMAX
 10
2348.540574929003
 20
1748.173578249188
 30
0.0
  9
$LIMMIN
 10
0.0
 20
0.0
  9
$LIMMAX
 10
12.0
 20
9.0
  9
$ORTHOMODE
 70
     0
  9
$REGENMODE
 70
     1
  9
$FILLMODE
 70
     1
  9
$QTEXTMODE
 70
     0
  9
$MIRRTEXT
 70
     0
  9
$DRAGMODE
 70
     2
  9
$LTSCALE
 40
5.0
  9
$OSMODE
 70
  2477
  9
$ATTMODE
 70
     1
  9
$TEXTSIZE
 40
2.5
  9
$TRACEWID
 40
0.05
  9
$TEXTSTYLE
  7
BIG
  9
$CLAYER
  8
0
  9
$CELTYPE
  6
BYLAYER
  9
$CECOLOR
 62
   256
  9
$DIMSCALE
 40
1.0
  9
$DIMASZ
 40
3.0
  9
$DIMEXO
 40
1.0
  9
$DIMDLI
 40
0.0
  9
$DIMRND
 40
0.0
  9
$DIMDLE
 40
0.0
  9
$DIMEXE
 40
1.0
  9
$DIMTP
 40
0.0
  9
$DIMTM
 40
0.0
  9
$DIMTXT
 40
3.0
  9
$DIMCEN
 40
0.0
  9
$DIMTSZ
 40
0.0
  9
$DIMTOL
 70
     0
  9
$DIMLIM
 70
     0
  9
$DIMTIH
 70
     0
  9
$DIMTOH
 70
     0
  9
$DIMSE1
 70
     0
  9
$DIMSE2
 70
     0
  9
$DIMTAD
 70
     1
  9
$DIMZIN
 70
     8
  9
$DIMBLK
  1

  9
$DIMASO
 70
     1
  9
$DIMSHO
 70
     1
  9
$DIMPOST
  1

  9
$DIMAPOST
  1

  9
$DIMALT
 70
     0
  9
$DIMALTD
 70
     2
  9
$DIMALTF
 40
25.399999999999999
  9
$DIMLFAC
 40
1.0
  9
$DIMTOFL
 70
     1
  9
$DIMTVP
 40
0.0
  9
$DIMTIX
 70
     1
  9
$DIMSOXD
 70
     0
  9
$DIMSAH
 70
     0
  9
$DIMBLK1
  1

  9
$DIMBLK2
  1

  9
$DIMSTYLE
  2
DUKITEC
  9
$DIMCLRD
 70
     5
  9
$DIMCLRE
 70
     5
  9
$DIMCLRT
 70
     0
  9
$DIMTFAC
 40
1.0
  9
$DIMGAP
 40
1.0
  9
$LUNITS
 70
     2
  9
$LUPREC
 70
     4
  9
$SKETCHINC
 40
0.1
  9
$FILLETRAD
 40
0.2
  9
$AUNITS
 70
     0
  9
$AUPREC
 70
     0
  9
$MENU
  1
.
  9
$ELEVATION
 40
0.0
  9
$PELEVATION
 40
0.0
  9
$THICKNESS
 40
0.0
  9
$LIMCHECK
 70
     0
  9
$BLIPMODE
 70
     0
  9
$CHAMFERA
 40
0.5
  9
$CHAMFERB
 40
0.5
  9
$SKPOLY
 70
     0
  9
$TDCREATE
 40
2454396.740895174
  9
$TDUPDATE
 40
2454396.7409997112
  9
$TDINDWG
 40
0.0001065162
  9
$TDUSRTIMER
 40
0.0001065162
  9
$USRTIMER
 70
     1
  9
$ANGBASE
 50
0.0
  9
$ANGDIR
 70
     0
  9
$PDMODE
 70
     0
  9
$PDSIZE
 40
0.0
  9
$PLINEWID
 40
0.0
  9
$COORDS
 70
     1
  9
$SPLFRAME
 70
     0
  9
$SPLINETYPE
 70
     6
  9
$SPLINESEGS
 70
     8
  9
$ATTDIA
 70
     0
  9
$ATTREQ
 70
     1
  9
$HANDLING
 70
     1
  9
$HANDSEED
  5
13FC6
  9
$SURFTAB1
 70
     6
  9
$SURFTAB2
 70
     6
  9
$SURFTYPE
 70
     6
  9
$SURFU
 70
     6
  9
$SURFV
 70
     6
  9
$UCSNAME
  2

  9
$UCSORG
 10
0.0
 20
0.0
 30
0.0
  9
$UCSXDIR
 10
1.0
 20
0.0
 30
0.0
  9
$UCSYDIR
 10
0.0
 20
1.0
 30
0.0
  9
$PUCSNAME
  2

  9
$PUCSORG
 10
0.0
 20
0.0
 30
0.0
  9
$PUCSXDIR
 10
1.0
 20
0.0
 30
0.0
  9
$PUCSYDIR
 10
0.0
 20
1.0
 30
0.0
  9
$USERI1
 70
     0
  9
$USERI2
 70
     0
  9
$USERI3
 70
     0
  9
$USERI4
 70
     0
  9
$USERI5
 70
     0
  9
$USERR1
 40
0.0
  9
$USERR2
 40
0.0
  9
$USERR3
 40
0.0
  9
$USERR4
 40
0.0
  9
$USERR5
 40
0.0
  9
$WORLDVIEW
 70
     1
  9
$SHADEDGE
 70
     3
  9
$SHADEDIF
 70
    70
  9
$TILEMODE
 70
     1
  9
$MAXACTVP
 70
    64
  9
$PLIMCHECK
 70
     0
  9
$PEXTMIN
 10
0.0
 20
0.0
 30
0.0
  9
$PEXTMAX
 10
0.0
 20
0.0
 30
0.0
  9
$PLIMMIN
 10
0.0
 20
0.0
  9
$PLIMMAX
 10
12.0
 20
9.0
  9
$UNITMODE
 70
     0
  9
$VISRETAIN
 70
     1
  9
$PLINEGEN
 70
     0
  9
$PSLTSCALE
 70
     1
  0
ENDSEC
  0
SECTION
  2
TABLES
  0
TABLE
  2
VPORT
 70
     1
  0
VPORT
  2
*ACTIVE
 70
     0
 10
0.0
 20
0.0
 11
1.0
 21
1.0
 12
2147.7057035928219
 22
1593.099571458808
 13
0.0
 23
0.0
 14
0.5
 24
0.5
 15
0.5
 25
0.5
 16
0.0
 26
0.0
 36
1.0
 17
0.0
 27
0.0
 37
0.0
 40
507.30145886130231
 41
1.617936117936118
 42
50.0
 43
0.0
 44
0.0
 50
0.0
 51
0.0
 71
     0
 72
  2000
 73
     1
 74
     3
 75
     0
 76
     0
 77
     0
 78
     0
  0
ENDTAB
  0
TABLE
  2
LTYPE
 70
     3
  0
LTYPE
  2
CONTINUOUS
 70
     0
  3
Solid line
 72
    65
 73
     0
 40
0.0
  0
LTYPE
  2
CENTER
 70
     0
  3
___ _ ___ _ ___ _ ___ _ ___ _ ___ _ ___ _ ___ _
 72
    65
 73
     4
 40
0.95
 49
0.625
 49
-0.125
 49
0.075
 49
-0.125
  0
LTYPE
  2
DASHED2
 70
     0
  3
Dashed (.5x) _ _ _ _ _ _ _ _ _ _ _ _ _ _ _ _ _
 72
    65
 73
     2
 40
0.375
 49
0.25
 49
-0.125
  0
ENDTAB
  0
TABLE
  2
LAYER
 70
     4
  0
LAYER
  2
0
 70
     0
 62
     7
  6
CONTINUOUS
  0
LAYER
  2
DEFPOINTS
 70
     0
 62
     7
  6
CONTINUOUS
  0
LAYER
  2
HIDE
 70
     0
 62
     1
  6
DASHED2
  0
LAYER
  2
CENTER
 70
     0
 62
     3
  6
CENTER
  0
ENDTAB
  0
TABLE
  2
STYLE
 70
     2
  0
STYLE
  2
STANDARD
 70
     0
 40
5.0
 41
1.0
 50
0.0
 71
     0
 42
5.0
  3
txt.shx
  4
whgtxt.shx
  0
STYLE
  2
BIG
 70
     0
 40
20.0
 41
1.0
 50
0.0
 71
     0
 42
2.5
  3
txt
  4

  0
ENDTAB
  0
TABLE
  2
VIEW
 70
     0
  0
ENDTAB
  0
TABLE
  2
UCS
 70
     0
  0
ENDTAB
  0
TABLE
  2
APPID
 70
     7
  0
APPID
  2
ACAD
 70
     0
  0
APPID
  2
ACAD_EXEMPT_FROM_CAD_STANDARDS
 70
     0
  0
APPID
  2
ACAD_DSTYLE_DIMJOGGED_JOGA
 70
     0
  0
APPID
  2
ACAD_PSEXT
 70
     0
  0
APPID
  2
ACAECLAYERSTANDARD
 70
     0
  0
APPID
  2
DCO15
 70
     0
  0
APPID
  2
CONTENTBLOCKICON
 70
     0
  0
ENDTAB
  0
TABLE
  2
DIMSTYLE
 70
     2
  0
DIMSTYLE
  2
DUKITEC
 70
     0
  3

  4

  5

  6

  7

 40
1.0
 41
3.0
 42
1.0
 43
0.0
 44
1.0
 45
0.0
 46
0.0
 47
0.0
 48
0.0
140
3.0
141
0.0
142
0.0
143
25.399999999999999
144
1.0
145
0.0
146
1.0
147
1.0
 71
     0
 72
     0
 73
     0
 74
     0
 75
     0
 76
     0
 77
     1
 78
     8
170
     0
171
     2
172
     1
173
     0
174
     1
175
     0
176
     5
177
     5
178
     0
  0
DIMSTYLE
  2
STANDARD
 70
     0
  3

  4

  5

  6

  7

 40
1.0
 41
0.18
 42
0.0625
 43
0.38
 44
0.18
 45
0.0
 46
0.0
 47
0.0
 48
0.0
140
0.18
141
0.09
142
0.0
143
25.399999999999999
144
1.0
145
0.0
146
1.0
147
0.09
 71
     0
 72
     0
 73
     1
 74
     1
 75
     0
 76
     0
 77
     0
 78
     0
170
     0
171
     2
172
     0
173
     0
174
     0
175
     0
176
     0
177
     0
178
     0
  0
ENDTAB
  0
ENDSEC
  0
SECTION
  2
BLOCKS
  0
BLOCK
  8
0
  2
$MODEL_SPACE
 70
     0
 10
0.0
 20
0.0
 30
0.0
  3
$MODEL_SPACE
  1

  0
ENDBLK
  5
21
  8
0
  0
BLOCK
 67
     1
  8
0
  2
$PAPER_SPACE
 70
     0
 10
0.0
 20
0.0
 30
0.0
  3
$PAPER_SPACE
  1

  0
ENDBLK
  5
5B
 67
     1
  8
0
  0
BLOCK
  8
0
  2
FF12F
 70
     0
 10
0.0
 20
0.0
 30
0.0
  3
FF12F
  1

  0
CIRCLE
  5
13F24
  8
HIDE
 10
0.0
 20
0.0
 30
0.0
 40
17.099996999999998
  0
ARC
  5
13F25
  8
CENTER
 10
0.0
 20
0.0
 30
0.0
 40
21.0
 50
71.989473000016062
 51
104.86023499999951
  0
ARC
  5
13F26
  8
CENTER
 10
0.0
 20
0.0
 30
0.0
 40
21.0
 50
342.43800999998729
 51
18.58157100000907
  0
ARC
  5
13F27
  8
CENTER
 10
0.0
 20
0.0
 30
0.0
 40
21.0
 50
254.31268399999431
 51
286.73282499998288
  0
CIRCLE
  5
13F28
  8
0
 10
21.0
 20
0.0
 30
0.0
 40
2.25
  0
CIRCLE
  5
13F29
  8
0
 10
21.0
 20
0.0
 30
0.0
 40
4.0
  0
CIRCLE
  5
13F2A
  8
0
 10
0.0
 20
-21.0
 30
0.0
 40
2.25
  0
CIRCLE
  5
13F2B
  8
0
 10
0.0
 20
-21.0
 30
0.0
 40
4.0
  0
CIRCLE
  5
13F2C
  8
0
 10
-21.0
 20
0.0
 30
0.0
 40
2.25
  0
CIRCLE
  5
13F2D
  8
0
 10
-21.0
 20
0.0
 30
0.0
 40
4.0
  0
CIRCLE
  5
13F2E
  8
0
 10
0.0
 20
0.0000610000001871
 30
0.0
 40
13.500054
  0
CIRCLE
  5
13F2F
  8
0
 10
0.0
 20
0.0
 30
0.0
 40
5.0
  0
CIRCLE
  5
13F30
  8
0
 10
0.0
 20
21.0
 30
0.0
 40
4.0
  0
CIRCLE
  5
13F31
  8
0
 10
0.0
 20
21.0
 30
0.0
 40
2.25
  0
ARC
  5
13F32
  8
0
 10
0.0
 20
0.0
 30
0.0
 40
26.0
 50
351.12892999999349
 51
8.8710700000065454
  0
ARC
  5
13F33
  8
0
 10
0.0
 20
0.0
 30
0.0
 40
26.0
 50
171.1289700000041
 51
188.87107000000651
  0
ARC
  5
13F34
  8
0
 10
0.0
 20
0.0
 30
0.0
 40
26.0
 50
261.1289099999841
 51
278.87107000001049
  0
ARC
  5
13F35
  8
CENTER
 10
0.0
 20
0.0
 30
0.0
 40
21.0
 50
163.84524100001039
 51
196.91081200001781
  0
LINE
  5
13F36
  8
0
 10
4.0094960000005813
 20
-25.68897800000013
 30
0.0
 11
25.688981999999669
 21
-4.0094920000001357
 31
0.0
  0
LINE
  5
13F37
  8
0
 10
-25.688967000000051
 20
4.0094850000000397
 30
0.0
 11
-4.0094810000009602
 21
25.688971000000041
 31
0.0
  0
LINE
  5
13F38
  8
0
 10
-25.688881000000041
 20
-4.0095989999999802
 30
0.0
 11
-4.0095020000007926
 21
-25.68897800000013
 31
0.0
  0
LINE
  5
13F39
  8
0
 10
4.009604999999282
 20
25.688886999999799
 30
0.0
 11
25.688981999999669
 21
4.0095070000002124
 31
0.0
  0
LINE
  5
13F3A
  8
CENTER
 10
-29.0
 20
0.0
 30
0.0
 11
29.0
 21
0.0
 31
0.0
  0
LINE
  5
13F3B
  8
CENTER
 10
0.0
 20
28.999953999999889
 30
0.0
 11
0.0
 21
-29.0
 31
0.0
  0
ARC
  5
13F3C
  8
0
 10
0.0
 20
0.0
 30
0.0
 40
26.0
 50
81.128932000039129
 51
98.871031999994045
  0
ENDBLK
  5
13F3D
  8
0
  0
BLOCK
  8
0
  2
FF12S
 70
     0
 10
0.0
 20
0.0
 30
0.0
  3
FF12S
  1

  0
LINE
  5
13F40
  8
HIDE
 10
0.0
 20
-17.0
 30
0.0
 11
4.0
 21
-17.0
 31
0.0
  0
LINE
  5
13F41
  8
HIDE
 10
4.0
 20
-18.75
 30
0.0
 11
7.0
 21
-18.75
 31
0.0
  0
LINE
  5
13F42
  8
HIDE
 10
4.0
 20
-23.25
 30
0.0
 11
7.0
 21
-23.25
 31
0.0
  0
LINE
  5
13F43
  8
HIDE
 10
0.0
 20
-25.0
 30
0.0
 11
4.0
 21
-25.0
 31
0.0
  0
LINE
  5
13F44
  8
HIDE
 10
4.0
 20
-25.0
 30
0.0
 11
4.0
 21
-17.0
 31
0.0
  0
LINE
  5
13F45
  8
0
 10
0.0
 20
-26.0
 30
0.0
 11
7.0
 21
-26.0
 31
0.0
  0
LINE
  5
13F46
  8
0
 10
0.0
 20
26.0
 30
0.0
 11
7.0
 21
26.0
 31
0.0
  0
LINE
  5
13F47
  8
HIDE
 10
4.0
 20
17.0
 30
0.0
 11
4.0
 21
25.0
 31
0.0
  0
LINE
  5
13F48
  8
CENTER
 10
-2.0
 20
-21.0
 30
0.0
 11
9.0
 21
-21.0
 31
0.0
  0
LINE
  5
13F49
  8
HIDE
 10
0.0
 20
17.0
 30
0.0
 11
4.0
 21
17.0
 31
0.0
  0
LINE
  5
13F4A
  8
HIDE
 10
4.0
 20
18.75
 30
0.0
 11
7.0
 21
18.75
 31
0.0
  0
LINE
  5
13F4B
  8
CENTER
 10
-2.0
 20
21.0
 30
0.0
 11
9.0
 21
21.0
 31
0.0
  0
LINE
  5
13F4C
  8
HIDE
 10
4.0
 20
23.25
 30
0.0
 11
7.0
 21
23.25
 31
0.0
  0
LINE
  5
13F4D
  8
HIDE
 10
0.0
 20
25.0
 30
0.0
 11
4.0
 21
25.0
 31
0.0
  0
LINE
  5
13F4E
  8
0
 10
15.0
 20
17.099996999999799
 30
0.0
 11
7.0
 21
17.099996999999799
 31
0.0
  0
LINE
  5
13F4F
  8
0
 10
7.0
 20
4.009505999999873
 30
0.0
 11
0.0
 21
4.009505999999873
 31
0.0
  0
LINE
  5
13F50
  8
CENTER
 10
17.5
 20
0.0
 30
0.0
 11
-2.5
 21
0.0
 31
0.0
  0
LINE
  5
13F51
  8
0
 10
15.0
 20
-16.900000000000091
 30
0.0
 11
15.0
 21
17.099996999999799
 31
0.0
  0
LINE
  5
13F52
  8
0
 10
0.0
 20
-26.0
 30
0.0
 11
0.0
 21
26.0
 31
0.0
  0
LINE
  5
13F53
  8
0
 10
7.0
 20
-26.0
 30
0.0
 11
7.0
 21
26.0
 31
0.0
  0
LINE
  5
13F54
  8
0
 10
15.0
 20
-16.900000000000091
 30
0.0
 11
7.0
 21
-16.900000000000091
 31
0.0
  0
LINE
  5
13F55
  8
0
 10
7.0
 20
-4.0094909999997981
 30
0.0
 11
0.0
 21
-4.0094909999997981
 31
0.0
  0
CIRCLE
  5
13F56
  8
HIDE
 10
4.0
 20
9.0
 30
0.0
 40
2.3999999999999999
  0
CIRCLE
  5
13F57
  8
HIDE
 10
4.0
 20
-9.0
 30
0.0
 40
2.3999999999999999
  0
LINE
  5
13F58
  8
HIDE
 10
7.9200000000000719
 20
11.30000000000018
 30
0.0
 11
7.9200000000000719
 21
6.3999999999996362
 31
0.0
  0
LINE
  5
13F59
  8
HIDE
 10
7.9200000000000719
 20
6.3999999999996362
 30
0.0
 11
7.680000000000291
 21
11.30000000000018
 31
0.0
  0
LINE
  5
13F5A
  8
HIDE
 10
8.0
 20
6.3999999999996362
 30
0.0
 11
8.0
 21
11.30000000000018
 31
0.0
  0
LINE
  5
13F5B
  8
HIDE
 10
7.680000000000291
 20
11.30000000000018
 30
0.0
 11
7.680000000000291
 21
6.3999999999996362
 31
0.0
  0
LINE
  5
13F5C
  8
HIDE
 10
7.680000000000291
 20
6.3999999999996362
 30
0.0
 11
7.9200000000000719
 21
11.30000000000018
 31
0.0
  0
LINE
  5
13F5D
  8
HIDE
 10
0.0
 20
6.3999999999996362
 30
0.0
 11
0.0
 21
11.30000000000018
 31
0.0
  0
LINE
  5
13F5E
  8
HIDE
 10
0.319999999999709
 20
11.30000000000018
 30
0.0
 11
0.319999999999709
 21
6.3999999999996362
 31
0.0
  0
LINE
  5
13F5F
  8
HIDE
 10
0.0799999999999273
 20
11.30000000000018
 30
0.0
 11
0.0799999999999273
 21
6.3999999999996362
 31
0.0
  0
LINE
  5
13F60
  8
HIDE
 10
0.0799999999999273
 20
11.30000000000018
 30
0.0
 11
0.319999999999709
 21
6.3999999999996362
 31
0.0
  0
LINE
  5
13F61
  8
HIDE
 10
0.0799999999999273
 20
6.3999999999996362
 30
0.0
 11
0.319999999999709
 21
11.30000000000018
 31
0.0
  0
LINE
  5
13F62
  8
HIDE
 10
7.680000000000291
 20
6.3999999999996362
 30
0.0
 11
8.0
 21
6.3999999999996362
 31
0.0
  0
LINE
  5
13F63
  8
HIDE
 10
7.680000000000291
 20
-6.3999999999996362
 30
0.0
 11
8.0
 21
-6.3999999999996362
 31
0.0
  0
LINE
  5
13F64
  8
HIDE
 10
8.0
 20
-11.30000000000018
 30
0.0
 11
7.680000000000291
 21
-11.30000000000018
 31
0.0
  0
LINE
  5
13F65
  8
HIDE
 10
7.9200000000000719
 20
-11.299999999999271
 30
0.0
 11
7.9200000000000719
 21
-6.3999999999996362
 31
0.0
  0
LINE
  5
13F66
  8
HIDE
 10
7.680000000000291
 20
-11.30000000000018
 30
0.0
 11
7.680000000000291
 21
-6.3999999999996362
 31
0.0
  0
LINE
  5
13F67
  8
HIDE
 10
7.680000000000291
 20
-6.3999999999996362
 30
0.0
 11
7.9200000000000719
 21
-11.299999999999271
 31
0.0
  0
LINE
  5
13F68
  8
HIDE
 10
7.9200000000000719
 20
-6.3999999999996362
 30
0.0
 11
7.680000000000291
 21
-11.30000000000018
 31
0.0
  0
LINE
  5
13F69
  8
HIDE
 10
0.0799999999999273
 20
-11.30000000000018
 30
0.0
 11
0.0799999999999273
 21
-6.4000000000005448
 31
0.0
  0
LINE
  5
13F6A
  8
HIDE
 10
0.0799999999999273
 20
-11.30000000000018
 30
0.0
 11
0.319999999999709
 21
-6.3999999999996362
 31
0.0
  0
LINE
  5
13F6B
  8
HIDE
 10
0.0799999999999273
 20
-6.4000000000005448
 30
0.0
 11
0.319999999999709
 21
-11.30000000000018
 31
0.0
  0
LINE
  5
13F6C
  8
HIDE
 10
0.0
 20
-6.3999999999996362
 30
0.0
 11
0.0
 21
-11.30000000000018
 31
0.0
  0
LINE
  5
13F6D
  8
HIDE
 10
0.319999999999709
 20
-11.30000000000018
 30
0.0
 11
0.319999999999709
 21
-6.3999999999996362
 31
0.0
  0
LINE
  5
13F6E
  8
HIDE
 10
0.0
 20
-11.30000000000018
 30
0.0
 11
0.319999999999709
 21
-11.30000000000018
 31
0.0
  0
LINE
  5
13F6F
  8
HIDE
 10
0.319999999999709
 20
-6.3999999999996362
 30
0.0
 11
0.0
 21
-6.3999999999996362
 31
0.0
  0
LINE
  5
13F70
  8
HIDE
 10
0.319999999999709
 20
6.3999999999996362
 30
0.0
 11
0.0
 21
6.3999999999996362
 31
0.0
  0
LINE
  5
13F71
  8
HIDE
 10
8.0
 20
-6.3999999999996362
 30
0.0
 11
8.0
 21
-11.30000000000018
 31
0.0
  0
LINE
  5
13F72
  8
HIDE
 10
8.0
 20
11.30000000000018
 30
0.0
 11
7.680000000000291
 21
11.30000000000018
 31
0.0
  0
LINE
  5
13F73
  8
HIDE
 10
0.0
 20
11.30000000000018
 30
0.0
 11
0.319999999999709
 21
11.30000000000018
 31
0.0
  0
LINE
  5
13F74
  8
HIDE
 10
0.319999999999709
 20
-10.72500000000036
 30
0.0
 11
2.331355340402296
 21
-10.72500000000036
 31
0.0
  0
LINE
  5
13F75
  8
HIDE
 10
5.6686446595958841
 20
-10.72500000000036
 30
0.0
 11
7.680000000000291
 21
-10.72500000000036
 31
0.0
  0
ARC
  5
13F76
  8
HIDE
 10
0.2999999999992724
 20
-12.69999999999982
 30
0.0
 40
0.3
 50
180.0
 51
270.0
  0
LINE
  5
13F77
  8
HIDE
 10
0.0
 20
-11.30000000000018
 30
0.0
 11
0.0
 21
-12.69999999999982
 31
0.0
  0
ARC
  5
13F78
  8
HIDE
 10
7.6999999999989077
 20
-12.69999999999982
 30
0.0
 40
0.3000000000000007
 50
270.0
 51
0.0
  0
LINE
  5
13F79
  8
HIDE
 10
8.0
 20
-12.69999999999982
 30
0.0
 11
8.0
 21
-11.30000000000018
 31
0.0
  0
ARC
  5
13F7A
  8
HIDE
 10
0.2999999999992724
 20
5.300000000000181
 30
0.0
 40
0.3
 50
180.0
 51
270.0
  0
ARC
  5
13F7B
  8
HIDE
 10
7.6999999999989077
 20
5.300000000000181
 30
0.0
 40
0.2999999999999998
 50
270.0
 51
0.0
  0
LINE
  5
13F7C
  8
HIDE
 10
8.0
 20
5.300000000000181
 30
0.0
 11
8.0
 21
0.0
 31
0.0
  0
LINE
  5
13F7D
  8
HIDE
 10
0.0
 20
0.0
 30
0.0
 11
0.0
 21
5.300000000000181
 31
0.0
  0
LINE
  5
13F7E
  8
HIDE
 10
0.319999999999709
 20
-7.2849999999998536
 30
0.0
 11
2.3210792156860398
 21
-7.2849999999998536
 31
0.0
  0
LINE
  5
13F7F
  8
HIDE
 10
5.6789207843139593
 20
-7.2849999999998536
 30
0.0
 11
7.680000000000291
 21
-7.2849999999998536
 31
0.0
  0
LINE
  5
13F80
  8
HIDE
 10
0.2999999999992724
 20
-5.0
 30
0.0
 11
7.6999999999989077
 21
-5.0
 31
0.0
  0
LINE
  5
13F81
  8
HIDE
 10
0.0
 20
0.0
 30
0.0
 11
0.0
 21
-5.300000000000181
 31
0.0
  0
ARC
  5
13F82
  8
HIDE
 10
0.2999999999992724
 20
-5.300000000000181
 30
0.0
 40
0.2999999999999998
 50
90.0
 51
180.0
  0
LINE
  5
13F83
  8
HIDE
 10
0.0
 20
-5.300000000000181
 30
0.0
 11
0.0
 21
-6.3999999999996362
 31
0.0
  0
LINE
  5
13F84
  8
HIDE
 10
8.0
 20
-5.300000000000181
 30
0.0
 11
8.0
 21
0.0
 31
0.0
  0
ARC
  5
13F85
  8
HIDE
 10
7.6999999999989077
 20
-5.300000000000181
 30
0.0
 40
0.2999999999999998
 50
0.0
 51
90.0
  0
LINE
  5
13F86
  8
HIDE
 10
8.0
 20
-6.3999999999996362
 30
0.0
 11
8.0
 21
-5.300000000000181
 31
0.0
  0
LINE
  5
13F87
  8
HIDE
 10
0.2999999999992724
 20
5.0
 30
0.0
 11
7.6999999999989077
 21
5.0
 31
0.0
  0
LINE
  5
13F88
  8
HIDE
 10
0.319999999999709
 20
7.2849999999998536
 30
0.0
 11
2.3210792156860398
 21
7.2849999999998536
 31
0.0
  0
LINE
  5
13F89
  8
HIDE
 10
5.6789207843139593
 20
7.2849999999998536
 30
0.0
 11
7.680000000000291
 21
7.2849999999998536
 31
0.0
  0
LINE
  5
13F8A
  8
HIDE
 10
0.319999999999709
 20
10.72500000000036
 30
0.0
 11
2.331355340402296
 21
10.72500000000036
 31
0.0
  0
LINE
  5
13F8B
  8
HIDE
 10
5.6686446595958841
 20
10.72500000000036
 30
0.0
 11
7.680000000000291
 21
10.72500000000036
 31
0.0
  0
LINE
  5
13F8C
  8
HIDE
 10
0.2999999999992724
 20
13.0
 30
0.0
 11
7.6999999999989077
 21
13.0
 31
0.0
  0
ARC
  5
13F8D
  8
HIDE
 10
0.2999999999992724
 20
12.69999999999982
 30
0.0
 40
0.3000000000000007
 50
90.0
 51
180.0
  0
LINE
  5
13F8E
  8
HIDE
 10
0.0
 20
5.300000000000181
 30
0.0
 11
0.0
 21
6.3999999999996362
 31
0.0
  0
LINE
  5
13F8F
  8
HIDE
 10
0.0
 20
11.30000000000018
 30
0.0
 11
0.0
 21
12.69999999999982
 31
0.0
  0
ARC
  5
13F90
  8
HIDE
 10
7.6999999999989077
 20
12.69999999999982
 30
0.0
 40
0.2999999999999998
 50
0.0
 51
90.0
  0
LINE
  5
13F91
  8
HIDE
 10
8.0
 20
6.3999999999996362
 30
0.0
 11
8.0
 21
5.300000000000181
 31
0.0
  0
LINE
  5
13F92
  8
HIDE
 10
8.0
 20
12.69999999999982
 30
0.0
 11
8.0
 21
11.30000000000018
 31
0.0
  0
LINE
  5
13F93
  8
HIDE
 10
0.319999999999709
 20
-10.78050506338877
 30
0.0
 11
0.3755050633881183
 21
-10.72500000000036
 31
0.0
  0
LINE
  5
13F94
  8
HIDE
 10
0.2999999999992724
 20
-13.0
 30
0.0
 11
7.6999999999989077
 21
-13.0
 31
0.0
  0
LINE
  5
13F95
  8
HIDE
 10
7.0
 20
13.0
 30
0.0
 11
15.0
 21
13.0
 31
0.0
  0
LINE
  5
13F96
  8
HIDE
 10
7.6999999999989077
 20
-13.0
 30
0.0
 11
15.0
 21
-13.0
 31
0.0
  0
ENDBLK
  5
13F97
  8
0
  0
ENDSEC
  0
SECTION
  2
ENTITIES
  0
POLYLINE
  5
13E1C
  8
0
 66
     1
 10
0.0
 20
0.0
 30
0.0
 70
     1
  0
VERTEX
  5
13FBE
  8
0
 10
1903.0405749290021
 20
1433.173578249188
 30
0.0
  0
VERTEX
  5
13FBF
  8
0
 10
1903.0405749290021
 20
1748.173578249188
 30
0.0
  0
VERTEX
  5
13FC0
  8
0
 10
2348.540574929003
 20
1748.173578249188
 30
0.0
  0
VERTEX
  5
13FC1
  8
0
 10
2348.540574929003
 20
1433.173578249188
 30
0.0
  0
VERTEX
  5
13FC2
  8
0
 10
1903.0405749290021
 20
1433.173578249188
 30
0.0
  0
SEQEND
  5
13FC3
  8
0
  0
TEXT
  5
13FA5
  8
0
 10
2073.2172619709172
 20
1507.5395455634541
 30
0.0
 40
20.0
  1
FF 12
  7
BIG
  0
INSERT
  5
13FA6
  8
0
  2
FF12F
 10
2087.3414083321109
 20
1619.957801263899
 30
0.0
  0
INSERT
  5
13FA7
  8
0
  2
FF12S
 10
2131.4086896151098
 20
1619.957801263899
 30
0.0
  0
ENDSEC
  0
EOF
