  0
SECTION
  2
HEADER
  9
$ACADVER
  1
AC1009
  9
$INSBASE
 10
0.0
 20
0.0
 30
0.0
  9
$EXTMIN
 10
1903.0405749290021
 20
1433.173578249188
 30
0.0
  9
$EXTMAX
 10
2348.540574929003
 20
1748.173578249188
 30
0.0
  9
$LIMMIN
 10
0.0
 20
0.0
  9
$LIMMAX
 10
12.0
 20
9.0
  9
$ORTHOMODE
 70
     0
  9
$REGENMODE
 70
     1
  9
$FILLMODE
 70
     1
  9
$QTEXTMODE
 70
     0
  9
$MIRRTEXT
 70
     0
  9
$DRAGMODE
 70
     2
  9
$LTSCALE
 40
5.0
  9
$OSMODE
 70
  2477
  9
$ATTMODE
 70
     1
  9
$TEXTSIZE
 40
2.5
  9
$TRACEWID
 40
0.05
  9
$TEXTSTYLE
  7
BIG
  9
$CLAYER
  8
0
  9
$CELTYPE
  6
BYLAYER
  9
$CECOLOR
 62
   256
  9
$DIMSCALE
 40
1.0
  9
$DIMASZ
 40
3.0
  9
$DIMEXO
 40
1.0
  9
$DIMDLI
 40
0.0
  9
$DIMRND
 40
0.0
  9
$DIMDLE
 40
0.0
  9
$DIMEXE
 40
1.0
  9
$DIMTP
 40
0.0
  9
$DIMTM
 40
0.0
  9
$DIMTXT
 40
3.0
  9
$DIMCEN
 40
0.0
  9
$DIMTSZ
 40
0.0
  9
$DIMTOL
 70
     0
  9
$DIMLIM
 70
     0
  9
$DIMTIH
 70
     0
  9
$DIMTOH
 70
     0
  9
$DIMSE1
 70
     0
  9
$DIMSE2
 70
     0
  9
$DIMTAD
 70
     1
  9
$DIMZIN
 70
     8
  9
$DIMBLK
  1

  9
$DIMASO
 70
     1
  9
$DIMSHO
 70
     1
  9
$DIMPOST
  1

  9
$DIMAPOST
  1

  9
$DIMALT
 70
     0
  9
$DIMALTD
 70
     2
  9
$DIMALTF
 40
25.399999999999999
  9
$DIMLFAC
 40
1.0
  9
$DIMTOFL
 70
     1
  9
$DIMTVP
 40
0.0
  9
$DIMTIX
 70
     1
  9
$DIMSOXD
 70
     0
  9
$DIMSAH
 70
     0
  9
$DIMBLK1
  1

  9
$DIMBLK2
  1

  9
$DIMSTYLE
  2
DUKITEC
  9
$DIMCLRD
 70
     5
  9
$DIMCLRE
 70
     5
  9
$DIMCLRT
 70
     0
  9
$DIMTFAC
 40
1.0
  9
$DIMGAP
 40
1.0
  9
$LUNITS
 70
     2
  9
$LUPREC
 70
     4
  9
$SKETCHINC
 40
0.1
  9
$FILLETRAD
 40
0.2
  9
$AUNITS
 70
     0
  9
$AUPREC
 70
     0
  9
$MENU
  1
.
  9
$ELEVATION
 40
0.0
  9
$PELEVATION
 40
0.0
  9
$THICKNESS
 40
0.0
  9
$LIMCHECK
 70
     0
  9
$BLIPMODE
 70
     0
  9
$CHAMFERA
 40
0.5
  9
$CHAMFERB
 40
0.5
  9
$SKPOLY
 70
     0
  9
$TDCREATE
 40
2454396.7426397922
  9
$TDUPDATE
 40
2454396.7427678239
  9
$TDINDWG
 40
0.0001293056
  9
$TDUSRTIMER
 40
0.0001291204
  9
$USRTIMER
 70
     1
  9
$ANGBASE
 50
0.0
  9
$ANGDIR
 70
     0
  9
$PDMODE
 70
     0
  9
$PDSIZE
 40
0.0
  9
$PLINEWID
 40
0.0
  9
$COORDS
 70
     1
  9
$SPLFRAME
 70
     0
  9
$SPLINETYPE
 70
     6
  9
$SPLINESEGS
 70
     8
  9
$ATTDIA
 70
     0
  9
$ATTREQ
 70
     1
  9
$HANDLING
 70
     1
  9
$HANDSEED
  5
13FD8
  9
$SURFTAB1
 70
     6
  9
$SURFTAB2
 70
     6
  9
$SURFTYPE
 70
     6
  9
$SURFU
 70
     6
  9
$SURFV
 70
     6
  9
$UCSNAME
  2

  9
$UCSORG
 10
0.0
 20
0.0
 30
0.0
  9
$UCSXDIR
 10
1.0
 20
0.0
 30
0.0
  9
$UCSYDIR
 10
0.0
 20
1.0
 30
0.0
  9
$PUCSNAME
  2

  9
$PUCSORG
 10
0.0
 20
0.0
 30
0.0
  9
$PUCSXDIR
 10
1.0
 20
0.0
 30
0.0
  9
$PUCSYDIR
 10
0.0
 20
1.0
 30
0.0
  9
$USERI1
 70
     0
  9
$USERI2
 70
     0
  9
$USERI3
 70
     0
  9
$USERI4
 70
     0
  9
$USERI5
 70
     0
  9
$USERR1
 40
0.0
  9
$USERR2
 40
0.0
  9
$USERR3
 40
0.0
  9
$USERR4
 40
0.0
  9
$USERR5
 40
0.0
  9
$WORLDVIEW
 70
     1
  9
$SHADEDGE
 70
     3
  9
$SHADEDIF
 70
    70
  9
$TILEMODE
 70
     1
  9
$MAXACTVP
 70
    64
  9
$PLIMCHECK
 70
     0
  9
$PEXTMIN
 10
0.0
 20
0.0
 30
0.0
  9
$PEXTMAX
 10
0.0
 20
0.0
 30
0.0
  9
$PLIMMIN
 10
0.0
 20
0.0
  9
$PLIMMAX
 10
12.0
 20
9.0
  9
$UNITMODE
 70
     0
  9
$VISRETAIN
 70
     1
  9
$PLINEGEN
 70
     0
  9
$PSLTSCALE
 70
     1
  0
ENDSEC
  0
SECTION
  2
TABLES
  0
TABLE
  2
VPORT
 70
     1
  0
VPORT
  2
*ACTIVE
 70
     0
 10
0.0
 20
0.0
 11
1.0
 21
1.0
 12
2112.2770934246
 22
1590.724979237714
 13
0.0
 23
0.0
 14
0.5
 24
0.5
 15
0.5
 25
0.5
 16
0.0
 26
0.0
 36
1.0
 17
0.0
 27
0.0
 37
0.0
 40
355.53473163805972
 41
1.617936117936118
 42
50.0
 43
0.0
 44
0.0
 50
0.0
 51
0.0
 71
     0
 72
  2000
 73
     1
 74
     3
 75
     0
 76
     0
 77
     0
 78
     0
  0
ENDTAB
  0
TABLE
  2
LTYPE
 70
     3
  0
LTYPE
  2
CONTINUOUS
 70
     0
  3
Solid line
 72
    65
 73
     0
 40
0.0
  0
LTYPE
  2
CENTER
 70
     0
  3
___ _ ___ _ ___ _ ___ _ ___ _ ___ _ ___ _ ___ _
 72
    65
 73
     4
 40
0.95
 49
0.625
 49
-0.125
 49
0.075
 49
-0.125
  0
LTYPE
  2
DASHED2
 70
     0
  3
Dashed (.5x) _ _ _ _ _ _ _ _ _ _ _ _ _ _ _ _ _
 72
    65
 73
     2
 40
0.375
 49
0.25
 49
-0.125
  0
ENDTAB
  0
TABLE
  2
LAYER
 70
     4
  0
LAYER
  2
0
 70
     0
 62
     7
  6
CONTINUOUS
  0
LAYER
  2
DEFPOINTS
 70
     0
 62
     7
  6
CONTINUOUS
  0
LAYER
  2
HIDE
 70
     0
 62
     1
  6
DASHED2
  0
LAYER
  2
CENTER
 70
     0
 62
     3
  6
CENTER
  0
ENDTAB
  0
TABLE
  2
STYLE
 70
     2
  0
STYLE
  2
STANDARD
 70
     0
 40
5.0
 41
1.0
 50
0.0
 71
     0
 42
5.0
  3
txt.shx
  4
whgtxt.shx
  0
STYLE
  2
BIG
 70
     0
 40
20.0
 41
1.0
 50
0.0
 71
     0
 42
2.5
  3
txt
  4

  0
ENDTAB
  0
TABLE
  2
VIEW
 70
     0
  0
ENDTAB
  0
TABLE
  2
UCS
 70
     0
  0
ENDTAB
  0
TABLE
  2
APPID
 70
     7
  0
APPID
  2
ACAD
 70
     0
  0
APPID
  2
ACAD_EXEMPT_FROM_CAD_STANDARDS
 70
     0
  0
APPID
  2
ACAD_DSTYLE_DIMJOGGED_JOGA
 70
     0
  0
APPID
  2
ACAD_PSEXT
 70
     0
  0
APPID
  2
ACAECLAYERSTANDARD
 70
     0
  0
APPID
  2
DCO15
 70
     0
  0
APPID
  2
CONTENTBLOCKICON
 70
     0
  0
ENDTAB
  0
TABLE
  2
DIMSTYLE
 70
     2
  0
DIMSTYLE
  2
DUKITEC
 70
     0
  3

  4

  5

  6

  7

 40
1.0
 41
3.0
 42
1.0
 43
0.0
 44
1.0
 45
0.0
 46
0.0
 47
0.0
 48
0.0
140
3.0
141
0.0
142
0.0
143
25.399999999999999
144
1.0
145
0.0
146
1.0
147
1.0
 71
     0
 72
     0
 73
     0
 74
     0
 75
     0
 76
     0
 77
     1
 78
     8
170
     0
171
     2
172
     1
173
     0
174
     1
175
     0
176
     5
177
     5
178
     0
  0
DIMSTYLE
  2
STANDARD
 70
     0
  3

  4

  5

  6

  7

 40
1.0
 41
0.18
 42
0.0625
 43
0.38
 44
0.18
 45
0.0
 46
0.0
 47
0.0
 48
0.0
140
0.18
141
0.09
142
0.0
143
25.399999999999999
144
1.0
145
0.0
146
1.0
147
0.09
 71
     0
 72
     0
 73
     1
 74
     1
 75
     0
 76
     0
 77
     0
 78
     0
170
     0
171
     2
172
     0
173
     0
174
     0
175
     0
176
     0
177
     0
178
     0
  0
ENDTAB
  0
ENDSEC
  0
SECTION
  2
BLOCKS
  0
BLOCK
  8
0
  2
$MODEL_SPACE
 70
     0
 10
0.0
 20
0.0
 30
0.0
  3
$MODEL_SPACE
  1

  0
ENDBLK
  5
21
  8
0
  0
BLOCK
 67
     1
  8
0
  2
$PAPER_SPACE
 70
     0
 10
0.0
 20
0.0
 30
0.0
  3
$PAPER_SPACE
  1

  0
ENDBLK
  5
5B
 67
     1
  8
0
  0
BLOCK
  8
0
  2
FF40F
 70
     0
 10
0.0
 20
0.0
 30
0.0
  3
FF40F
  1

  0
CIRCLE
  5
13F24
  8
HIDE
 10
0.0
 20
0.0
 30
0.0
 40
60.0
  0
CIRCLE
  5
13F25
  8
0
 10
0.0
 20
0.0
 30
0.0
 40
20.0
  0
CIRCLE
  5
13F26
  8
0
 10
19.411427999999429
 20
-72.444437000000107
 30
0.0
 40
7.0
  0
ARC
  5
13F27
  8
0
 10
0.0
 20
0.0
 30
0.0
 40
75.0
 50
324.42138499997071
 51
324.48628199998677
  0
CIRCLE
  5
13F28
  8
0
 10
53.033008999998863
 20
-53.033008999999758
 30
0.0
 40
7.0
  0
ARC
  5
13F29
  8
CENTER
 10
0.0
 20
0.0
 30
0.0
 40
75.0
 50
305.45916899996712
 51
324.42138499997071
  0
LINE
  5
13F2A
  8
CENTER
 10
16.105199999999972
 20
-60.105425000000203
 30
0.0
 11
23.37412200000108
 21
-87.233412000000044
 31
0.0
  0
LINE
  5
13F2B
  8
CENTER
 10
44.130035999998647
 20
-44.130036000000018
 30
0.0
 11
63.141396999999408
 21
-63.14139699999987
 31
0.0
  0
CIRCLE
  5
13F2C
  8
0
 10
53.033008999998863
 20
-53.033008999999758
 30
0.0
 40
10.0
  0
CIRCLE
  5
13F2D
  8
0
 10
19.411427999999429
 20
-72.444437000000107
 30
0.0
 40
10.0
  0
CIRCLE
  5
13F2E
  8
0
 10
-19.411427999999429
 20
-72.444437000000107
 30
0.0
 40
7.0
  0
ARC
  5
13F2F
  8
CENTER
 10
0.0
 20
0.0
 30
0.0
 40
75.0
 50
245.08781599997559
 51
264.63772999999168
  0
CIRCLE
  5
13F30
  8
0
 10
-53.033008999998863
 20
-53.033008999999758
 30
0.0
 40
7.0
  0
ARC
  5
13F31
  8
CENTER
 10
0.0
 20
0.0
 30
0.0
 40
75.0
 50
216.10468599997711
 51
235.48657899998739
  0
LINE
  5
13F32
  8
CENTER
 10
-15.677094999999101
 20
-58.507715000000189
 30
0.0
 11
-23.469710000001221
 21
-87.590150999999878
 31
0.0
  0
LINE
  5
13F33
  8
CENTER
 10
-43.064884999999776
 20
-43.064884999999776
 30
0.0
 11
-64.452594999998837
 21
-64.452595000000201
 31
0.0
  0
CIRCLE
  5
13F34
  8
0
 10
-19.411427999999429
 20
-72.444437000000107
 30
0.0
 40
10.0
  0
CIRCLE
  5
13F35
  8
0
 10
-53.033008999998863
 20
-53.033008999999758
 30
0.0
 40
10.0
  0
ARC
  5
13F36
  8
0
 10
0.0
 20
0.0
 30
0.0
 40
88.0
 50
223.3417580000384
 51
316.65824199996149
  0
ARC
  5
13F37
  8
CENTER
 10
0.0
 20
0.0
 30
0.0
 40
75.0
 50
275.5125999999949
 51
294.77074600000151
  0
LINE
  5
13F38
  8
0
 10
-64.0
 20
-60.398674999999912
 30
0.0
 11
-64.0
 21
0.0
 31
0.0
  0
LINE
  5
13F39
  8
0
 10
64.0
 20
-60.398674999999912
 30
0.0
 11
64.0
 21
0.0
 31
0.0
  0
ARC
  5
13F3A
  8
0
 10
0.0
 20
0.0
 30
0.0
 40
75.0
 50
35.513718000013192
 51
35.578615000029266
  0
ARC
  5
13F3B
  8
CENTER
 10
0.0
 20
0.0
 30
0.0
 40
75.0
 50
35.578615000029266
 51
54.540831000032888
  0
ARC
  5
13F3C
  8
CENTER
 10
0.0
 20
0.0
 30
0.0
 40
75.0
 50
65.229253999998463
 51
84.487400000005167
  0
ARC
  5
13F3D
  8
CENTER
 10
0.0
 20
0.0
 30
0.0
 40
75.0
 50
95.362270000008309
 51
114.9121840000244
  0
ARC
  5
13F3E
  8
CENTER
 10
0.0
 20
0.0
 30
0.0
 40
75.0
 50
124.5134210000126
 51
143.89531400002289
  0
CIRCLE
  5
13F3F
  8
0
 10
-53.033008999998863
 20
53.033008999999758
 30
0.0
 40
7.0
  0
CIRCLE
  5
13F40
  8
0
 10
-53.033008999998863
 20
53.033008999999758
 30
0.0
 40
10.0
  0
CIRCLE
  5
13F41
  8
0
 10
-19.411427999999429
 20
72.444437000000107
 30
0.0
 40
7.0
  0
CIRCLE
  5
13F42
  8
0
 10
-19.411427999999429
 20
72.444437000000107
 30
0.0
 40
10.0
  0
CIRCLE
  5
13F43
  8
0
 10
19.411427999999429
 20
72.444437000000107
 30
0.0
 40
7.0
  0
CIRCLE
  5
13F44
  8
0
 10
19.411427999999429
 20
72.444437000000107
 30
0.0
 40
10.0
  0
CIRCLE
  5
13F45
  8
0
 10
53.033008999998863
 20
53.033008999999758
 30
0.0
 40
10.0
  0
CIRCLE
  5
13F46
  8
0
 10
53.033008999998863
 20
53.033008999999758
 30
0.0
 40
7.0
  0
LINE
  5
13F47
  8
CENTER
 10
44.130035999998647
 20
44.130035999999564
 30
0.0
 11
63.141396999999408
 21
63.141396999999408
 31
0.0
  0
LINE
  5
13F48
  8
CENTER
 10
16.105199999999972
 20
60.105424999999741
 30
0.0
 11
23.37412200000108
 21
87.233411999999589
 31
0.0
  0
LINE
  5
13F49
  8
CENTER
 10
-43.064884999999776
 20
43.064884999999776
 30
0.0
 11
-64.452594999998837
 21
64.452594999999747
 31
0.0
  0
LINE
  5
13F4A
  8
CENTER
 10
-15.677094999999101
 20
58.507714999999727
 30
0.0
 11
-23.469710000001221
 21
87.590150999999423
 31
0.0
  0
ARC
  5
13F4B
  8
0
 10
0.0
 20
0.0
 30
0.0
 40
88.0
 50
43.34175800003846
 51
136.65824199996149
  0
LINE
  5
13F4C
  8
0
 10
64.0
 20
60.398674999999457
 30
0.0
 11
64.0
 21
0.0
 31
0.0
  0
LINE
  5
13F4D
  8
0
 10
-64.0
 20
60.398674999999457
 30
0.0
 11
-64.0
 21
0.0
 31
0.0
  0
LINE
  5
13F4E
  8
CENTER
 10
-74.0
 20
0.0
 30
0.0
 11
74.0
 21
0.0
 31
0.0
  0
LINE
  5
13F4F
  8
CENTER
 10
0.0
 20
-98.0
 30
0.0
 11
0.0
 21
98.0
 31
0.0
  0
CIRCLE
  5
13F50
  8
0
 10
0.0
 20
0.0
 30
0.0
 40
39.999999999999773
  0
ENDBLK
  5
13F51
  8
0
  0
BLOCK
  8
0
  2
FF40S
 70
     0
 10
0.0
 20
0.0
 30
0.0
  3
FF40S
  1

  0
LINE
  5
13F54
  8
0
 10
0.0
 20
88.0
 30
0.0
 11
18.0
 21
88.0
 31
0.0
  0
LINE
  5
13F55
  8
0
 10
0.0
 20
-88.0
 30
0.0
 11
18.0
 21
-88.0
 31
0.0
  0
LINE
  5
13F56
  8
HIDE
 10
13.0
 20
82.0
 30
0.0
 11
18.0
 21
82.0
 31
0.0
1001
ACAD
1000
ASC_BOUNDS
1002
{
1070
    19
1005
0
1002
}
  0
LINE
  5
13F57
  8
HIDE
 10
13.0
 20
85.0
 30
0.0
 11
13.0
 21
65.0
 31
0.0
1001
ACAD
1000
ASC_BOUNDS
1002
{
1070
    19
1005
0
1005
0
1002
}
  0
LINE
  5
13F58
  8
HIDE
 10
0.0
 20
65.0
 30
0.0
 11
13.0
 21
65.0
 31
0.0
1001
ACAD
1000
ASC_BOUNDS
1002
{
1070
    19
1005
0
1002
}
  0
LINE
  5
13F59
  8
HIDE
 10
0.0
 20
85.0
 30
0.0
 11
13.0
 21
85.0
 31
0.0
1001
ACAD
1000
ASC_BOUNDS
1002
{
1070
    19
1005
0
1002
}
  0
LINE
  5
13F5A
  8
HIDE
 10
13.0
 20
68.0
 30
0.0
 11
18.0
 21
68.0
 31
0.0
1001
ACAD
1000
ASC_BOUNDS
1002
{
1070
    19
1005
0
1002
}
  0
LINE
  5
13F5B
  8
CENTER
 10
-6.9221170000000711
 20
-75.0
 30
0.0
 11
24.498331999999209
 21
-75.0
 31
0.0
  0
LINE
  5
13F5C
  8
CENTER
 10
-6.9221170000000711
 20
75.0
 30
0.0
 11
24.498331999999209
 21
75.0
 31
0.0
  0
LINE
  5
13F5D
  8
0
 10
36.0
 20
-60.0
 30
0.0
 11
18.0
 21
-60.0
 31
0.0
  0
LINE
  5
13F5E
  8
0
 10
36.0
 20
60.0
 30
0.0
 11
18.0
 21
60.0
 31
0.0
  0
LINE
  5
13F5F
  8
0
 10
36.0
 20
60.0
 30
0.0
 11
36.0
 21
-60.0
 31
0.0
  0
LINE
  5
13F60
  8
0
 10
18.0
 20
88.0
 30
0.0
 11
18.0
 21
-88.0
 31
0.0
1001
ACAD
1000
ASC_BOUNDS
1002
{
1070
    19
1005
0
1005
0
1002
}
  0
LINE
  5
13F61
  8
0
 10
0.0
 20
88.0
 30
0.0
 11
0.0
 21
-88.0
 31
0.0
1001
ACAD
1000
ASC_BOUNDS
1002
{
1070
    19
1005
0
1005
0
1002
}
  0
LINE
  5
13F62
  8
CENTER
 10
-6.9221170000000711
 20
0.0
 30
0.0
 11
41.694899000000078
 21
0.0
 31
0.0
  0
LINE
  5
13F63
  8
HIDE
 10
13.0
 20
-82.0
 30
0.0
 11
18.0
 21
-82.0
 31
0.0
1001
ACAD
1000
ASC_BOUNDS
1002
{
1070
    19
1005
0
1002
}
  0
LINE
  5
13F64
  8
HIDE
 10
13.0
 20
-85.0
 30
0.0
 11
13.0
 21
-65.0
 31
0.0
1001
ACAD
1000
ASC_BOUNDS
1002
{
1070
    19
1005
0
1005
0
1002
}
  0
LINE
  5
13F65
  8
HIDE
 10
0.0
 20
-65.0
 30
0.0
 11
13.0
 21
-65.0
 31
0.0
1001
ACAD
1000
ASC_BOUNDS
1002
{
1070
    19
1005
0
1002
}
  0
LINE
  5
13F66
  8
HIDE
 10
0.0
 20
-85.0
 30
0.0
 11
13.0
 21
-85.0
 31
0.0
1001
ACAD
1000
ASC_BOUNDS
1002
{
1070
    19
1005
0
1002
}
  0
LINE
  5
13F67
  8
HIDE
 10
13.0
 20
-68.0
 30
0.0
 11
18.0
 21
-68.0
 31
0.0
1001
ACAD
1000
ASC_BOUNDS
1002
{
1070
    19
1005
0
1002
}
  0
CIRCLE
  5
13F68
  8
HIDE
 10
9.0
 20
30.0
 30
0.0
 40
6.0
  0
CIRCLE
  5
13F69
  8
HIDE
 10
9.0
 20
-30.0
 30
0.0
 40
6.0
  0
LINE
  5
13F6A
  8
HIDE
 10
17.85000000000036
 20
34.824999999999818
 30
0.0
 11
17.85000000000036
 21
25.300000000000178
 31
0.0
  0
LINE
  5
13F6B
  8
HIDE
 10
17.85000000000036
 20
25.300000000000178
 30
0.0
 11
17.399999999999629
 21
34.824999999999818
 31
0.0
  0
LINE
  5
13F6C
  8
HIDE
 10
18.0
 20
25.300000000000178
 30
0.0
 11
18.0
 21
34.824999999999818
 31
0.0
  0
LINE
  5
13F6D
  8
HIDE
 10
17.399999999999629
 20
34.824999999999818
 30
0.0
 11
17.399999999999629
 21
25.300000000000178
 31
0.0
  0
LINE
  5
13F6E
  8
HIDE
 10
17.399999999999629
 20
25.300000000000178
 30
0.0
 11
17.85000000000036
 21
34.824999999999818
 31
0.0
  0
LINE
  5
13F6F
  8
HIDE
 10
0.0
 20
25.300000000000178
 30
0.0
 11
0.0
 21
34.824999999999818
 31
0.0
  0
LINE
  5
13F70
  8
HIDE
 10
0.6000000000003638
 20
34.824999999999818
 30
0.0
 11
0.6000000000003638
 21
25.300000000000178
 31
0.0
  0
LINE
  5
13F71
  8
HIDE
 10
0.1500000000014552
 20
34.824999999999818
 30
0.0
 11
0.1500000000014552
 21
25.300000000000178
 31
0.0
  0
LINE
  5
13F72
  8
HIDE
 10
0.1500000000014552
 20
34.824999999999818
 30
0.0
 11
0.6000000000003638
 21
25.300000000000178
 31
0.0
  0
LINE
  5
13F73
  8
HIDE
 10
0.1500000000014552
 20
25.300000000000178
 30
0.0
 11
0.6000000000003638
 21
34.824999999999818
 31
0.0
  0
LINE
  5
13F74
  8
HIDE
 10
17.399999999999629
 20
25.300000000000178
 30
0.0
 11
18.0
 21
25.300000000000178
 31
0.0
  0
LINE
  5
13F75
  8
HIDE
 10
17.399999999999629
 20
-25.300000000000178
 30
0.0
 11
18.0
 21
-25.300000000000178
 31
0.0
  0
LINE
  5
13F76
  8
HIDE
 10
18.0
 20
-34.824999999999818
 30
0.0
 11
17.399999999999629
 21
-34.824999999999818
 31
0.0
  0
LINE
  5
13F77
  8
HIDE
 10
17.85000000000036
 20
-34.824999999999818
 30
0.0
 11
17.85000000000036
 21
-25.300000000000178
 31
0.0
  0
LINE
  5
13F78
  8
HIDE
 10
17.399999999999629
 20
-34.824999999999818
 30
0.0
 11
17.399999999999629
 21
-25.300000000000178
 31
0.0
  0
LINE
  5
13F79
  8
HIDE
 10
17.399999999999629
 20
-25.300000000000178
 30
0.0
 11
17.85000000000036
 21
-34.824999999999818
 31
0.0
  0
LINE
  5
13F7A
  8
HIDE
 10
17.85000000000036
 20
-25.300000000000178
 30
0.0
 11
17.399999999999629
 21
-34.824999999999818
 31
0.0
  0
LINE
  5
13F7B
  8
HIDE
 10
0.1500000000014552
 20
-34.825000000000728
 30
0.0
 11
0.1500000000014552
 21
-25.300000000000178
 31
0.0
  0
LINE
  5
13F7C
  8
HIDE
 10
0.1500000000014552
 20
-34.825000000000728
 30
0.0
 11
0.6000000000003638
 21
-25.300000000000178
 31
0.0
  0
LINE
  5
13F7D
  8
HIDE
 10
0.1500000000014552
 20
-25.300000000000178
 30
0.0
 11
0.6000000000003638
 21
-34.824999999999818
 31
0.0
  0
LINE
  5
13F7E
  8
HIDE
 10
0.0
 20
-25.300000000000178
 30
0.0
 11
0.0
 21
-34.824999999999818
 31
0.0
  0
LINE
  5
13F7F
  8
HIDE
 10
0.6000000000003638
 20
-34.824999999999818
 30
0.0
 11
0.6000000000003638
 21
-25.300000000000178
 31
0.0
  0
LINE
  5
13F80
  8
HIDE
 10
0.0
 20
-34.824999999999818
 30
0.0
 11
0.6000000000003638
 21
-34.824999999999818
 31
0.0
  0
LINE
  5
13F81
  8
HIDE
 10
0.6000000000003638
 20
-25.300000000000178
 30
0.0
 11
0.0
 21
-25.300000000000178
 31
0.0
  0
LINE
  5
13F82
  8
HIDE
 10
0.6000000000003638
 20
25.300000000000178
 30
0.0
 11
0.0
 21
25.300000000000178
 31
0.0
  0
LINE
  5
13F83
  8
HIDE
 10
18.0
 20
-25.300000000000178
 30
0.0
 11
18.0
 21
-34.824999999999818
 31
0.0
  0
LINE
  5
13F84
  8
HIDE
 10
18.0
 20
34.824999999999818
 30
0.0
 11
17.399999999999629
 21
34.824999999999818
 31
0.0
  0
LINE
  5
13F85
  8
HIDE
 10
0.0
 20
34.824999999999818
 30
0.0
 11
0.6000000000003638
 21
34.824999999999818
 31
0.0
  0
LINE
  5
13F86
  8
HIDE
 10
0.6000000000003638
 20
-33.649999999999643
 30
0.0
 11
4.2379101226470084
 21
-33.649999999999643
 31
0.0
  0
LINE
  5
13F87
  8
HIDE
 10
13.762089877354811
 20
-33.649999999999643
 30
0.0
 11
17.399999999999629
 21
-33.649999999999643
 31
0.0
  0
LINE
  5
13F88
  8
HIDE
 10
1.1000000000003629
 20
-40.0
 30
0.0
 11
16.900000000001452
 21
-40.0
 31
0.0
  0
ARC
  5
13F89
  8
HIDE
 10
1.1000000000003629
 20
-38.899999999999643
 30
0.0
 40
1.1000000000000001
 50
180.0
 51
270.0
  0
LINE
  5
13F8A
  8
HIDE
 10
0.0
 20
-34.824999999999818
 30
0.0
 11
0.0
 21
-38.899999999999643
 31
0.0
  0
ARC
  5
13F8B
  8
HIDE
 10
16.900000000001452
 20
-38.899999999999643
 30
0.0
 40
1.100000000000001
 50
270.0
 51
0.0
  0
LINE
  5
13F8C
  8
HIDE
 10
18.0
 20
-38.899999999999643
 30
0.0
 11
18.0
 21
-34.824999999999818
 31
0.0
  0
ARC
  5
13F8D
  8
HIDE
 10
1.1000000000003629
 20
21.10000000000036
 30
0.0
 40
1.1000000000000001
 50
180.0
 51
270.0
  0
ARC
  5
13F8E
  8
HIDE
 10
16.900000000001452
 20
21.10000000000036
 30
0.0
 40
1.100000000000001
 50
270.0
 51
0.0
  0
LINE
  5
13F8F
  8
HIDE
 10
18.0
 20
21.10000000000036
 30
0.0
 11
18.0
 21
0.0
 31
0.0
  0
LINE
  5
13F90
  8
HIDE
 10
0.0
 20
0.0
 30
0.0
 11
0.0
 21
21.10000000000036
 31
0.0
  0
LINE
  5
13F91
  8
HIDE
 10
0.6000000000003638
 20
-26.39999999999964
 30
0.0
 11
4.2000000000007267
 21
-26.39999999999964
 31
0.0
  0
LINE
  5
13F92
  8
HIDE
 10
13.799999999999271
 20
-26.39999999999964
 30
0.0
 11
17.399999999999629
 21
-26.39999999999964
 31
0.0
  0
LINE
  5
13F93
  8
HIDE
 10
1.1000000000003629
 20
-20.0
 30
0.0
 11
16.900000000001452
 21
-20.0
 31
0.0
  0
LINE
  5
13F94
  8
HIDE
 10
0.0
 20
0.0
 30
0.0
 11
0.0
 21
-21.10000000000036
 31
0.0
  0
ARC
  5
13F95
  8
HIDE
 10
1.1000000000003629
 20
-21.10000000000036
 30
0.0
 40
1.100000000000001
 50
90.0
 51
180.0
  0
LINE
  5
13F96
  8
HIDE
 10
0.0
 20
-21.10000000000036
 30
0.0
 11
0.0
 21
-25.300000000000178
 31
0.0
  0
LINE
  5
13F97
  8
HIDE
 10
18.0
 20
-21.10000000000036
 30
0.0
 11
18.0
 21
0.0
 31
0.0
  0
ARC
  5
13F98
  8
HIDE
 10
16.900000000001452
 20
-21.10000000000036
 30
0.0
 40
1.100000000000001
 50
0.0
 51
90.0
  0
LINE
  5
13F99
  8
HIDE
 10
18.0
 20
-25.300000000000178
 30
0.0
 11
18.0
 21
-21.10000000000036
 31
0.0
  0
LINE
  5
13F9A
  8
HIDE
 10
1.1000000000003629
 20
20.0
 30
0.0
 11
16.900000000001452
 21
20.0
 31
0.0
  0
LINE
  5
13F9B
  8
HIDE
 10
0.6000000000003638
 20
26.39999999999964
 30
0.0
 11
4.2000000000007267
 21
26.39999999999964
 31
0.0
  0
LINE
  5
13F9C
  8
HIDE
 10
13.799999999999271
 20
26.39999999999964
 30
0.0
 11
17.399999999999629
 21
26.39999999999964
 31
0.0
  0
LINE
  5
13F9D
  8
HIDE
 10
0.6000000000003638
 20
33.649999999999643
 30
0.0
 11
4.2379101226470084
 21
33.649999999999643
 31
0.0
  0
LINE
  5
13F9E
  8
HIDE
 10
13.762089877354811
 20
33.649999999999643
 30
0.0
 11
17.399999999999629
 21
33.649999999999643
 31
0.0
  0
LINE
  5
13F9F
  8
HIDE
 10
1.1000000000003629
 20
40.0
 30
0.0
 11
16.900000000001452
 21
40.0
 31
0.0
  0
ARC
  5
13FA0
  8
HIDE
 10
1.1000000000003629
 20
38.899999999999643
 30
0.0
 40
1.100000000000001
 50
90.0
 51
180.0
  0
LINE
  5
13FA1
  8
HIDE
 10
0.0
 20
21.10000000000036
 30
0.0
 11
0.0
 21
25.300000000000178
 31
0.0
  0
LINE
  5
13FA2
  8
HIDE
 10
0.0
 20
34.824999999999818
 30
0.0
 11
0.0
 21
38.899999999999643
 31
0.0
  0
ARC
  5
13FA3
  8
HIDE
 10
16.900000000001452
 20
38.899999999999643
 30
0.0
 40
1.100000000000001
 50
0.0
 51
90.0
  0
LINE
  5
13FA4
  8
HIDE
 10
18.0
 20
25.300000000000178
 30
0.0
 11
18.0
 21
21.10000000000036
 31
0.0
  0
LINE
  5
13FA5
  8
HIDE
 10
18.0
 20
38.899999999999643
 30
0.0
 11
18.0
 21
34.824999999999818
 31
0.0
  0
LINE
  5
13FA6
  8
HIDE
 10
0.7964286625319801
 20
-26.39999999999964
 30
0.0
 11
0.6000000000003638
 21
-26.20357133746802
 31
0.0
  0
LINE
  5
13FA7
  8
HIDE
 10
0.0000000000009095
 20
40.0
 30
0.0
 11
36.0
 21
40.0
 31
0.0
  0
LINE
  5
13FA8
  8
HIDE
 10
0.0000000000009095
 20
-39.999999999999773
 30
0.0
 11
36.0
 21
-40.0
 31
0.0
  0
ENDBLK
  5
13FA9
  8
0
  0
ENDSEC
  0
SECTION
  2
ENTITIES
  0
POLYLINE
  5
13E1C
  8
0
 66
     1
 10
0.0
 20
0.0
 30
0.0
 70
     1
  0
VERTEX
  5
13FD0
  8
0
 10
1903.0405749290021
 20
1433.173578249188
 30
0.0
  0
VERTEX
  5
13FD1
  8
0
 10
1903.0405749290021
 20
1748.173578249188
 30
0.0
  0
VERTEX
  5
13FD2
  8
0
 10
2348.540574929003
 20
1748.173578249188
 30
0.0
  0
VERTEX
  5
13FD3
  8
0
 10
2348.540574929003
 20
1433.173578249188
 30
0.0
  0
VERTEX
  5
13FD4
  8
0
 10
1903.0405749290021
 20
1433.173578249188
 30
0.0
  0
SEQEND
  5
13FD5
  8
0
  0
TEXT
  5
13FB7
  8
0
 10
2095.1595716961151
 20
1481.1264308335819
 30
0.0
 40
20.0
  1
FF 40
  7
BIG
  0
INSERT
  5
13FB8
  8
0
  2
FF40F
 10
2059.0538119906528
 20
1636.9568018876521
 30
0.0
  0
INSERT
  5
13FB9
  8
0
  2
FF40S
 10
2204.45607263595
 20
1636.9568018876521
 30
0.0
  0
ENDSEC
  0
EOF
