  0
SECTION
  2
HEADER
  9
$ACADVER
  1
AC1009
  9
$INSBASE
 10
0.0
 20
0.0
 30
0.0
  9
$EXTMIN
 10
1903.0405749290021
 20
1433.173578249188
 30
0.0
  9
$EXTMAX
 10
2348.540574929003
 20
1748.173578249188
 30
0.0
  9
$LIMMIN
 10
0.0
 20
0.0
  9
$LIMMAX
 10
12.0
 20
9.0
  9
$ORTHOMODE
 70
     0
  9
$REGENMODE
 70
     1
  9
$FILLMODE
 70
     1
  9
$QTEXTMODE
 70
     0
  9
$MIRRTEXT
 70
     0
  9
$DRAGMODE
 70
     2
  9
$LTSCALE
 40
5.0
  9
$OSMODE
 70
  2239
  9
$ATTMODE
 70
     1
  9
$TEXTSIZE
 40
2.5
  9
$TRACEWID
 40
0.05
  9
$TEXTSTYLE
  7
BIG
  9
$CLAYER
  8
0
  9
$CELTYPE
  6
BYLAYER
  9
$CECOLOR
 62
   256
  9
$DIMSCALE
 40
1.0
  9
$DIMASZ
 40
3.0
  9
$DIMEXO
 40
1.0
  9
$DIMDLI
 40
0.0
  9
$DIMRND
 40
0.0
  9
$DIMDLE
 40
0.0
  9
$DIMEXE
 40
1.0
  9
$DIMTP
 40
0.0
  9
$DIMTM
 40
0.0
  9
$DIMTXT
 40
3.0
  9
$DIMCEN
 40
0.0
  9
$DIMTSZ
 40
0.0
  9
$DIMTOL
 70
     0
  9
$DIMLIM
 70
     0
  9
$DIMTIH
 70
     0
  9
$DIMTOH
 70
     0
  9
$DIMSE1
 70
     0
  9
$DIMSE2
 70
     0
  9
$DIMTAD
 70
     1
  9
$DIMZIN
 70
     8
  9
$DIMBLK
  1

  9
$DIMASO
 70
     1
  9
$DIMSHO
 70
     1
  9
$DIMPOST
  1

  9
$DIMAPOST
  1

  9
$DIMALT
 70
     0
  9
$DIMALTD
 70
     2
  9
$DIMALTF
 40
25.399999999999999
  9
$DIMLFAC
 40
1.0
  9
$DIMTOFL
 70
     1
  9
$DIMTVP
 40
0.0
  9
$DIMTIX
 70
     1
  9
$DIMSOXD
 70
     0
  9
$DIMSAH
 70
     0
  9
$DIMBLK1
  1

  9
$DIMBLK2
  1

  9
$DIMSTYLE
  2
DUKITEC
  9
$DIMCLRD
 70
     5
  9
$DIMCLRE
 70
     5
  9
$DIMCLRT
 70
     0
  9
$DIMTFAC
 40
1.0
  9
$DIMGAP
 40
1.0
  9
$LUNITS
 70
     2
  9
$LUPREC
 70
     4
  9
$SKETCHINC
 40
0.1
  9
$FILLETRAD
 40
0.2
  9
$AUNITS
 70
     0
  9
$AUPREC
 70
     0
  9
$MENU
  1
.
  9
$ELEVATION
 40
0.0
  9
$PELEVATION
 40
0.0
  9
$THICKNESS
 40
0.0
  9
$LIMCHECK
 70
     0
  9
$BLIPMODE
 70
     0
  9
$CHAMFERA
 40
0.5
  9
$CHAMFERB
 40
0.5
  9
$SKPOLY
 70
     0
  9
$TDCREATE
 40
2454396.7188959369
  9
$TDUPDATE
 40
2456630.7771182992
  9
$TDINDWG
 40
0.0012973495
  9
$TDUSRTIMER
 40
0.0012972801
  9
$USRTIMER
 70
     1
  9
$ANGBASE
 50
0.0
  9
$ANGDIR
 70
     0
  9
$PDMODE
 70
     0
  9
$PDSIZE
 40
0.0
  9
$PLINEWID
 40
0.0
  9
$COORDS
 70
     1
  9
$SPLFRAME
 70
     0
  9
$SPLINETYPE
 70
     6
  9
$SPLINESEGS
 70
     8
  9
$ATTDIA
 70
     0
  9
$ATTREQ
 70
     1
  9
$HANDLING
 70
     1
  9
$HANDSEED
  5
142CE
  9
$SURFTAB1
 70
     6
  9
$SURFTAB2
 70
     6
  9
$SURFTYPE
 70
     6
  9
$SURFU
 70
     6
  9
$SURFV
 70
     6
  9
$UCSNAME
  2

  9
$UCSORG
 10
0.0
 20
0.0
 30
0.0
  9
$UCSXDIR
 10
1.0
 20
0.0
 30
0.0
  9
$UCSYDIR
 10
0.0
 20
1.0
 30
0.0
  9
$PUCSNAME
  2

  9
$PUCSORG
 10
0.0
 20
0.0
 30
0.0
  9
$PUCSXDIR
 10
1.0
 20
0.0
 30
0.0
  9
$PUCSYDIR
 10
0.0
 20
1.0
 30
0.0
  9
$USERI1
 70
     0
  9
$USERI2
 70
     0
  9
$USERI3
 70
     0
  9
$USERI4
 70
     0
  9
$USERI5
 70
     0
  9
$USERR1
 40
0.0
  9
$USERR2
 40
0.0
  9
$USERR3
 40
0.0
  9
$USERR4
 40
0.0
  9
$USERR5
 40
0.0
  9
$WORLDVIEW
 70
     1
  9
$SHADEDGE
 70
     3
  9
$SHADEDIF
 70
    70
  9
$TILEMODE
 70
     1
  9
$MAXACTVP
 70
    64
  9
$PLIMCHECK
 70
     0
  9
$PEXTMIN
 10
0.0
 20
0.0
 30
0.0
  9
$PEXTMAX
 10
0.0
 20
0.0
 30
0.0
  9
$PLIMMIN
 10
0.0
 20
0.0
  9
$PLIMMAX
 10
12.0
 20
9.0
  9
$UNITMODE
 70
     0
  9
$VISRETAIN
 70
     1
  9
$PLINEGEN
 70
     0
  9
$PSLTSCALE
 70
     1
  0
ENDSEC
  0
SECTION
  2
TABLES
  0
TABLE
  2
VPORT
 70
     1
  0
VPORT
  2
*ACTIVE
 70
     0
 10
0.0
 20
0.0
 11
1.0
 21
1.0
 12
2143.045088162608
 22
1583.8033272877319
 13
0.0
 23
0.0
 14
0.5
 24
0.5
 15
0.5
 25
0.5
 16
0.0
 26
0.0
 36
1.0
 17
0.0
 27
0.0
 37
0.0
 40
142.56834193825171
 41
2.1408934707903771
 42
50.0
 43
0.0
 44
0.0
 50
0.0
 51
0.0
 71
     0
 72
  2000
 73
     1
 74
     3
 75
     0
 76
     0
 77
     0
 78
     0
  0
ENDTAB
  0
TABLE
  2
LTYPE
 70
     4
  0
LTYPE
  2
CONTINUOUS
 70
     0
  3
Solid line
 72
    65
 73
     0
 40
0.0
  0
LTYPE
  2
PHANTOM2
 70
     0
  3
Phantom (.5x) ___ _ _ ___ _ _ ___ _ _ ___ _ _
 72
    65
 73
     6
 40
1.25
 49
0.625
 49
-0.125
 49
0.125
 49
-0.125
 49
0.125
 49
-0.125
  0
LTYPE
  2
CENTER
 70
     0
  3
___ _ ___ _ ___ _ ___ _ ___ _ ___ _ ___ _ ___ _
 72
    65
 73
     4
 40
0.95
 49
0.625
 49
-0.125
 49
0.075
 49
-0.125
  0
LTYPE
  2
DASHED2
 70
     0
  3
Dashed (.5x) _ _ _ _ _ _ _ _ _ _ _ _ _ _ _ _ _
 72
    65
 73
     2
 40
0.375
 49
0.25
 49
-0.125
  0
ENDTAB
  0
TABLE
  2
LAYER
 70
     4
  0
LAYER
  2
0
 70
     0
 62
     7
  6
CONTINUOUS
  0
LAYER
  2
HIDE
 70
     0
 62
     1
  6
DASHED2
  0
LAYER
  2
CENTER
 70
     0
 62
     3
  6
CENTER
  0
ENDTAB
  0
TABLE
  2
STYLE
 70
     3
  0
STYLE
  2
STANDARD
 70
     0
 40
5.0
 41
1.0
 50
0.0
 71
     0
 42
5.0
  3
txt.shx
  4
whgtxt.shx
  0
STYLE
  2
BIG
 70
     0
 40
20.0
 41
1.0
 50
0.0
 71
     0
 42
2.5
  3
txt
  4

  0
ENDTAB
  0
TABLE
  2
VIEW
 70
     0
  0
ENDTAB
  0
TABLE
  2
UCS
 70
     0
  0
ENDTAB
  0
TABLE
  2
APPID
 70
    11
  0
APPID
  2
ACAD
 70
     0
  0
APPID
  2
ACADANNOTATIVE
 70
     0
  0
APPID
  2
ACAD_EXEMPT_FROM_CAD_STANDARDS
 70
     0
  0
APPID
  2
ACAD_DSTYLE_DIMJOGGED_JOGA
 70
     0
  0
APPID
  2
ACAD_PSEXT
 70
     0
  0
APPID
  2
ACAECLAYERSTANDARD
 70
     0
  0
APPID
  2
DCO15
 70
     0
  0
APPID
  2
CONTENTBLOCKICON
 70
     0
  0
APPID
  2
ACAD_DSTYLE_DIMRADIAL_EXTENSION
 70
     0
  0
APPID
  2
ACAD_NAV_VCDISPLAY
 70
     0
  0
APPID
  2
ACAD_MLEADERVER
 70
     0
  0
ENDTAB
  0
TABLE
  2
DIMSTYLE
 70
     3
  0
DIMSTYLE
  2
DUKITEC
 70
     0
  3

  4

  5

  6

  7

 40
1.0
 41
3.0
 42
1.0
 43
0.0
 44
1.0
 45
0.0
 46
0.0
 47
0.0
 48
0.0
140
3.0
141
0.0
142
0.0
143
25.399999999999999
144
1.0
145
0.0
146
1.0
147
1.0
 71
     0
 72
     0
 73
     0
 74
     0
 75
     0
 76
     0
 77
     1
 78
     8
170
     0
171
     2
172
     1
173
     0
174
     1
175
     0
176
     5
177
     5
178
     0
  0
ENDTAB
  0
ENDSEC
  0
SECTION
  2
BLOCKS
  0
BLOCK
  8
0
  2
$MODEL_SPACE
 70
     0
 10
0.0
 20
0.0
 30
0.0
  3
$MODEL_SPACE
  1

  0
ENDBLK
  5
140D3
  8
0
  0
BLOCK
 67
     1
  8
0
  2
$PAPER_SPACE
 70
     0
 10
0.0
 20
0.0
 30
0.0
  3
$PAPER_SPACE
  1

  0
ENDBLK
  5
140CF
 67
     1
  8
0
  0
ENDSEC
  0
SECTION
  2
ENTITIES
  0
TEXT
  5
13FFF
  8
0
 10
2097.771909235672
 20
1528.3351931192849
 30
0.0
 40
20.0
  1
FK 15
  7
BIG
  0
ARC
  5
140F0
  8
CENTER
 10
2105.1412220353568
 20
1608.51859371354
 30
0.0
 40
20.0
 50
100.448154000001
 51
127.89057700000591
  0
ARC
  5
140F1
  8
CENTER
 10
2105.1412220353568
 20
1608.51859371354
 30
0.0
 40
20.0
 50
10.93137999999796
 51
39.010680999995657
  0
ARC
  5
140F2
  8
CENTER
 10
2105.1412220353568
 20
1608.51859371354
 30
0.0
 40
20.0
 50
280.10997100000179
 51
310.55040999999801
  0
ARC
  5
140F3
  8
CENTER
 10
2105.1412220353568
 20
1608.51859371354
 30
0.0
 40
25.0
 50
74.923494000004155
 51
104.3427930000088
  0
ARC
  5
140F4
  8
CENTER
 10
2105.1412220353568
 20
1608.51859371354
 30
0.0
 40
25.0
 50
345.37384300000048
 51
14.276023999988499
  0
ARC
  5
140F5
  8
CENTER
 10
2105.1412220353568
 20
1608.51859371354
 30
0.0
 40
25.0
 50
254.33864100001429
 51
285.08963000000972
  0
CIRCLE
  5
140F6
  8
0
 10
2087.015097035357
 20
1600.0661627135389
 30
0.0
 40
3.5
  0
CIRCLE
  5
140F7
  8
0
 10
2113.5936180353569
 20
1590.3924517135399
 30
0.0
 40
3.5
  0
CIRCLE
  5
140F8
  8
0
 10
2123.2674080353572
 20
1616.97089271354
 30
0.0
 40
3.5
  0
CIRCLE
  5
140F9
  8
0
 10
2096.6888600353568
 20
1626.6447507135399
 30
0.0
 40
3.5
  0
CIRCLE
  5
140FA
  8
0
 10
2105.1412220353568
 20
1608.51859371354
 30
0.0
 40
14.5
  0
ARC
  5
140FB
  8
CENTER
 10
2105.1412220353568
 20
1608.51859371354
 30
0.0
 40
20.0
 50
190.40226699998891
 51
219.0632670000027
  0
CIRCLE
  5
140FC
  8
0
 10
2130.1412220353568
 20
1608.51859371354
 30
0.0
 40
4.75
  0
CIRCLE
  5
140FD
  8
0
 10
2105.1412220353568
 20
1583.51859371354
 30
0.0
 40
4.75
  0
CIRCLE
  5
140FE
  8
0
 10
2080.1412220353568
 20
1608.51859371354
 30
0.0
 40
4.75
  0
CIRCLE
  5
140FF
  8
0
 10
2105.1412220353568
 20
1633.51859371354
 30
0.0
 40
4.75
  0
CIRCLE
  5
14100
  8
0
 10
2130.1412220353568
 20
1608.51859371354
 30
0.0
 40
2.75
  0
CIRCLE
  5
14101
  8
0
 10
2105.1412220353568
 20
1583.51859371354
 30
0.0
 40
2.75
  0
CIRCLE
  5
14102
  8
0
 10
2105.1412220353568
 20
1633.51859371354
 30
0.0
 40
2.75
  0
CIRCLE
  5
14103
  8
0
 10
2080.1412220353568
 20
1608.51859371354
 30
0.0
 40
2.75
  0
ARC
  5
14104
  8
CENTER
 10
2105.1412220353568
 20
1608.51859371354
 30
0.0
 40
25.0
 50
164.61012300000121
 51
195.10900100001041
  0
ARC
  5
14105
  8
0
 10
2105.1412220353568
 20
1608.51859371354
 30
0.0
 40
31.5
 50
169.37262999999459
 51
190.62882999999729
  0
ARC
  5
14106
  8
0
 10
2105.1412220353568
 20
1608.51859371354
 30
0.0
 40
31.5
 50
259.37114999999932
 51
280.63014000001289
  0
ARC
  5
14107
  8
0
 10
2105.1412220353568
 20
1608.51859371354
 30
0.0
 40
31.5
 50
349.36987999999542
 51
10.62863199999458
  0
ARC
  5
14108
  8
0
 10
2105.1412220353568
 20
1608.51859371354
 30
0.0
 40
31.5
 50
79.371333000006516
 51
100.6273700000053
  0
LINE
  5
14109
  8
0
 10
2121.3756600353572
 20
1618.29536871354
 30
0.0
 11
2121.1743890353569
 21
1615.9948307135401
 31
0.0
  0
LINE
  5
1410A
  8
0
 10
2125.3604390353571
 20
1617.9467457135399
 30
0.0
 11
2125.1591680353572
 21
1615.64620771354
 31
0.0
  0
LINE
  5
1410B
  8
0
 10
2123.4687210353568
 20
1619.2714027135401
 30
0.0
 11
2125.3603610353562
 21
1617.9468617135401
 31
0.0
  0
LINE
  5
1410C
  8
0
 10
2121.1744160353569
 20
1615.9947947135399
 30
0.0
 11
2123.0660550353568
 21
1614.6702547135401
 31
0.0
  0
LINE
  5
1410D
  8
0
 10
2123.468739035357
 20
1619.27153071354
 30
0.0
 11
2121.3757080353571
 21
1618.2955347135401
 31
0.0
  0
LINE
  5
1410E
  8
0
 10
2125.1592100353569
 20
1615.64629971354
 30
0.0
 11
2123.0661810353572
 21
1614.6703037135401
 31
0.0
  0
LINE
  5
1410F
  8
CENTER
 10
2118.8964430353572
 20
1614.9326787135401
 30
0.0
 11
2127.653570035357
 21
1619.0161937135399
 31
0.0
  0
LINE
  5
14110
  8
0
 10
2114.918013035357
 20
1592.2841427135399
 30
0.0
 11
2112.6174740353572
 21
1592.4854137135401
 31
0.0
  0
LINE
  5
14111
  8
0
 10
2114.5693890353568
 20
1588.2993627135399
 30
0.0
 11
2112.2688510353569
 21
1588.5006337135401
 31
0.0
  0
LINE
  5
14112
  8
0
 10
2115.8940320353572
 20
1590.19106371354
 30
0.0
 11
2114.5695030353568
 21
1588.2994397135401
 31
0.0
  0
LINE
  5
14113
  8
0
 10
2112.6174240353571
 20
1592.48536971354
 30
0.0
 11
2111.2928950353571
 21
1590.59374471354
 31
0.0
  0
LINE
  5
14114
  8
0
 10
2115.8942720353562
 20
1590.19108871354
 30
0.0
 11
2114.9182690353568
 21
1592.28413071354
 31
0.0
  0
LINE
  5
14115
  8
0
 10
2112.2690400353572
 20
1588.50061471354
 30
0.0
 11
2111.2930380353569
 21
1590.5936597135401
 31
0.0
  0
LINE
  5
14116
  8
CENTER
 10
2111.4801680353562
 20
1594.9247607135401
 30
0.0
 11
2115.607043035357
 21
1586.0746477135399
 31
0.0
  0
LINE
  5
14117
  8
0
 10
2088.9067860353571
 20
1598.7417897135399
 30
0.0
 11
2089.108057035357
 21
1601.04232871354
 31
0.0
  0
LINE
  5
14118
  8
0
 10
2084.9220070353572
 20
1599.09041271354
 30
0.0
 11
2085.1232780353571
 21
1601.3909517135401
 31
0.0
  0
LINE
  5
14119
  8
0
 10
2086.8137050353571
 20
1597.7657897135391
 30
0.0
 11
2084.9220660353571
 21
1599.0903297135401
 31
0.0
  0
LINE
  5
1411A
  8
0
 10
2089.1080130353571
 20
1601.04240071354
 30
0.0
 11
2087.216375035357
 21
1602.36694171354
 31
0.0
  0
LINE
  5
1411B
  8
0
 10
2086.8137740353568
 20
1597.7655287135401
 30
0.0
 11
2088.9068160353572
 21
1598.74153071354
 31
0.0
  0
LINE
  5
1411C
  8
0
 10
2085.1233010353571
 20
1601.3907597135401
 30
0.0
 11
2087.2163430353571
 21
1602.36676171354
 31
0.0
  0
LINE
  5
1411D
  8
CENTER
 10
2091.3382970353568
 20
1602.0821037135399
 30
0.0
 11
2082.7341610353569
 21
1598.06992971354
 31
0.0
  0
LINE
  5
1411E
  8
0
 10
2095.3644360353569
 20
1624.75304671354
 30
0.0
 11
2097.6649750353572
 21
1624.5517757135401
 31
0.0
  0
LINE
  5
1411F
  8
0
 10
2095.7130590353572
 20
1628.73782471354
 30
0.0
 11
2098.0135980353571
 21
1628.5365537135399
 31
0.0
  0
LINE
  5
14120
  8
0
 10
2094.3884080353569
 20
1626.84604171354
 30
0.0
 11
2095.7130160353572
 21
1628.7377767135399
 31
0.0
  0
LINE
  5
14121
  8
0
 10
2097.665016035357
 20
1624.55173571354
 30
0.0
 11
2098.989623035357
 21
1626.4434707135399
 31
0.0
  0
LINE
  5
14122
  8
0
 10
2094.3882420353571
 20
1626.84603971354
 30
0.0
 11
2095.3642310353571
 21
1624.75302371354
 31
0.0
  0
LINE
  5
14123
  8
0
 10
2098.013473035357
 20
1628.5365137135391
 30
0.0
 11
2098.9894620353571
 21
1626.44349771354
 31
0.0
  0
LINE
  5
14124
  8
CENTER
 10
2098.609994035357
 20
1622.5248657135401
 30
0.0
 11
2094.6711460353572
 21
1630.9717527135399
 31
0.0
  0
LINE
  5
14125
  8
0
 10
2074.1816220353571
 20
1602.7085927135399
 30
0.0
 11
2099.3311710353569
 21
1577.5590427135401
 31
0.0
  0
LINE
  5
14126
  8
0
 10
2110.9511750353572
 20
1639.4781467135399
 30
0.0
 11
2136.1008110353569
 21
1614.3285117135399
 31
0.0
  0
LINE
  5
14127
  8
0
 10
2074.1815300353569
 20
1614.3278567135401
 30
0.0
 11
2099.3319630353571
 21
1639.4782917135401
 31
0.0
  0
LINE
  5
14128
  8
0
 10
2110.9519620353572
 20
1577.5591837135401
 30
0.0
 11
2136.1006320353572
 21
1602.70785271354
 31
0.0
  0
ARC
  5
14129
  8
0
 10
2105.1412220353568
 20
1608.51859371354
 30
0.0
 40
12.5
 50
73.357636576280512
 51
106.6423634237195
  0
ARC
  5
1412A
  8
0
 10
2105.1412220353568
 20
1608.51859371354
 30
0.0
 40
12.5
 50
163.3576365763341
 51
196.64236342366581
  0
ARC
  5
1412B
  8
0
 10
2105.1412220353568
 20
1608.51859371354
 30
0.0
 40
12.5
 50
253.3576365762805
 51
286.64236342371947
  0
ARC
  5
1412C
  8
0
 10
2105.1412220353568
 20
1608.51859371354
 30
0.0
 40
12.5
 50
343.35763657633407
 51
16.642363423665831
  0
POLYLINE
  5
1412D
  8
0
 66
     1
 10
0.0
 20
0.0
 30
0.0
  0
VERTEX
  5
142BB
  8
0
 10
2101.5612613482422
 20
1620.49498221253
 30
0.0
  0
VERTEX
  5
142BC
  8
0
 10
2093.1648335363689
 20
1612.0985544006569
 30
0.0
  0
SEQEND
  5
142BD
  8
0
  0
POLYLINE
  5
1412E
  8
0
 66
     1
 10
0.0
 20
0.0
 30
0.0
  0
VERTEX
  5
142BE
  8
0
 10
2093.1648335363689
 20
1604.938633026426
 30
0.0
  0
VERTEX
  5
142BF
  8
0
 10
2101.5612613482422
 20
1596.542205214552
 30
0.0
  0
SEQEND
  5
142C0
  8
0
  0
POLYLINE
  5
1412F
  8
0
 66
     1
 10
0.0
 20
0.0
 30
0.0
  0
VERTEX
  5
142C1
  8
0
 10
2108.7211827224719
 20
1596.542205214552
 30
0.0
  0
VERTEX
  5
142C2
  8
0
 10
2117.1176105343452
 20
1604.938633026426
 30
0.0
  0
SEQEND
  5
142C3
  8
0
  0
POLYLINE
  5
14130
  8
0
 66
     1
 10
0.0
 20
0.0
 30
0.0
  0
VERTEX
  5
142C4
  8
0
 10
2117.1176105343452
 20
1612.0985544006569
 30
0.0
  0
VERTEX
  5
142C5
  8
0
 10
2108.7211827224719
 20
1620.49498221253
 30
0.0
  0
SEQEND
  5
142C6
  8
0
  0
ARC
  5
14131
  8
HIDE
 10
2105.1412220353568
 20
1608.51859371354
 30
0.0
 40
7.5
 50
270.0
 51
180.0
  0
CIRCLE
  5
14132
  8
0
 10
2105.1412220353568
 20
1608.51859371354
 30
0.0
 40
7.0
  0
LINE
  5
14133
  8
HIDE
 10
2107.1412220353591
 20
1620.857556392792
 30
0.0
 11
2107.1412220353568
 21
1615.2267976460389
 31
0.0
  0
LINE
  5
14134
  8
HIDE
 10
2106.7912220353542
 20
1620.909215166881
 30
0.0
 11
2106.7912220353542
 21
1615.321350507664
 31
0.0
  0
LINE
  5
14135
  8
HIDE
 10
2103.1412220353568
 20
1620.857556392793
 30
0.0
 11
2103.1412220353568
 21
1615.2267976460389
 31
0.0
  0
LINE
  5
14136
  8
HIDE
 10
2103.4912220353572
 20
1620.909215166881
 30
0.0
 11
2103.4912220353572
 21
1615.321350507664
 31
0.0
  0
LINE
  5
14137
  8
HIDE
 10
2103.1412220353568
 20
1620.4811169758909
 30
0.0
 11
2107.1412220353591
 21
1620.48111697589
 31
0.0
  0
LINE
  5
14138
  8
HIDE
 10
2103.1412220353568
 20
1616.4811169758909
 30
0.0
 11
2107.1412220353591
 21
1616.48111697589
 31
0.0
  0
LINE
  5
14139
  8
HIDE
 10
2106.7912220353569
 20
1616.2790443816741
 30
0.0
 11
2107.1412220353568
 21
1616.48111697589
 31
0.0
  0
LINE
  5
1413A
  8
HIDE
 10
2106.7912220353569
 20
1616.2790443816741
 30
0.0
 11
2103.4912220353572
 21
1616.2790443816741
 31
0.0
  0
LINE
  5
1413B
  8
HIDE
 10
2103.4912220353572
 20
1616.2790443816741
 30
0.0
 11
2103.1412220353568
 21
1616.48111697589
 31
0.0
  0
LINE
  5
1413C
  8
HIDE
 10
2117.480184714605
 20
1606.5185937135341
 30
0.0
 11
2111.8494259678532
 21
1606.5185937135359
 31
0.0
  0
LINE
  5
1413D
  8
HIDE
 10
2117.5318434886949
 20
1606.8685937135381
 30
0.0
 11
2111.9439788294781
 21
1606.8685937135381
 31
0.0
  0
LINE
  5
1413E
  8
HIDE
 10
2117.480184714605
 20
1610.5185937135359
 30
0.0
 11
2111.8494259678532
 21
1610.5185937135359
 31
0.0
  0
LINE
  5
1413F
  8
HIDE
 10
2117.5318434886949
 20
1610.168593713536
 30
0.0
 11
2111.9439788294781
 21
1610.168593713536
 31
0.0
  0
LINE
  5
14140
  8
HIDE
 10
2117.1037452977039
 20
1610.5185937135359
 30
0.0
 11
2117.1037452977039
 21
1606.5185937135341
 31
0.0
  0
LINE
  5
14141
  8
HIDE
 10
2113.1037452977048
 20
1610.5185937135359
 30
0.0
 11
2113.1037452977048
 21
1606.5185937135341
 31
0.0
  0
LINE
  5
14142
  8
HIDE
 10
2112.9016727034882
 20
1606.868593713536
 30
0.0
 11
2113.1037452977048
 21
1606.5185937135359
 31
0.0
  0
LINE
  5
14143
  8
HIDE
 10
2112.9016727034882
 20
1606.868593713536
 30
0.0
 11
2112.9016727034882
 21
1610.168593713536
 31
0.0
  0
LINE
  5
14144
  8
HIDE
 10
2112.9016727034882
 20
1610.168593713536
 30
0.0
 11
2113.1037452977048
 21
1610.5185937135359
 31
0.0
  0
LINE
  5
14145
  8
CENTER
 10
2065.1412220353568
 20
1608.51859371354
 30
0.0
 11
2145.1412220353568
 21
1608.51859371354
 31
0.0
  0
LINE
  5
14146
  8
CENTER
 10
2105.1412220353568
 20
1568.51859371354
 30
0.0
 11
2105.1412220353568
 21
1648.51859371354
 31
0.0
  0
LINE
  5
14149
  8
HIDE
 10
2177.8295123788321
 20
1586.26859371354
 30
0.0
 11
2186.829509378832
 21
1586.26859371354
 31
0.0
  0
LINE
  5
1414A
  8
HIDE
 10
2171.8295123788321
 20
1588.26859371354
 30
0.0
 11
2177.8295123788321
 21
1588.26859371354
 31
0.0
  0
LINE
  5
1414B
  8
HIDE
 10
2171.8295123788321
 20
1578.76859371354
 30
0.0
 11
2177.8295123788321
 21
1578.76859371354
 31
0.0
  0
LINE
  5
1414C
  8
HIDE
 10
2177.8295123788321
 20
1580.76859371354
 30
0.0
 11
2186.829509378832
 21
1580.76859371354
 31
0.0
  0
LINE
  5
1414D
  8
HIDE
 10
2171.8295123788321
 20
1628.76859371354
 30
0.0
 11
2177.8295123788321
 21
1628.76859371354
 31
0.0
  0
LINE
  5
1414E
  8
HIDE
 10
2177.8295123788321
 20
1630.76859371354
 30
0.0
 11
2186.829509378832
 21
1630.76859371354
 31
0.0
  0
LINE
  5
1414F
  8
HIDE
 10
2177.8295123788321
 20
1636.26859371354
 30
0.0
 11
2186.829509378832
 21
1636.26859371354
 31
0.0
  0
LINE
  5
14150
  8
HIDE
 10
2171.8295123788321
 20
1638.26859371354
 30
0.0
 11
2177.8295123788321
 21
1638.26859371354
 31
0.0
  0
LINE
  5
14151
  8
CENTER
 10
2188.713635123866
 20
1583.51859371354
 30
0.0
 11
2169.4123333348571
 21
1583.51859371354
 31
0.0
  0
LINE
  5
14152
  8
CENTER
 10
2188.713635123866
 20
1633.51859371354
 30
0.0
 11
2169.4123333348571
 21
1633.51859371354
 31
0.0
  0
LINE
  5
14153
  8
0
 10
2177.8295123788321
 20
1577.01859371354
 30
0.0
 11
2186.829509378832
 21
1577.01859371354
 31
0.0
  0
LINE
  5
14154
  8
0
 10
2171.8295123788321
 20
1577.01859371354
 30
0.0
 11
2177.8295123788321
 21
1577.01859371354
 31
0.0
  0
LINE
  5
14155
  8
0
 10
2177.8295123788321
 20
1640.01859371354
 30
0.0
 11
2186.829509378832
 21
1640.01859371354
 31
0.0
  0
LINE
  5
14156
  8
0
 10
2171.8295123788321
 20
1640.01859371354
 30
0.0
 11
2177.8295123788321
 21
1640.01859371354
 31
0.0
  0
LINE
  5
14157
  8
0
 10
2177.8295123788321
 20
1602.70783271354
 30
0.0
 11
2186.829509378832
 21
1602.70783271354
 31
0.0
  0
LINE
  5
14158
  8
0
 10
2177.8295123788321
 20
1614.3285297135401
 30
0.0
 11
2186.829509378832
 21
1614.3285297135401
 31
0.0
  0
LINE
  5
14159
  8
CENTER
 10
2209.9058666319638
 20
1608.51859371354
 30
0.0
 11
2161.0110255743052
 21
1608.51859371354
 31
0.0
  0
LINE
  5
1415A
  8
HIDE
 10
2203.829509378832
 20
1601.0185937135391
 30
0.0
 11
2197.829509378832
 21
1601.01859371354
 31
0.0
  0
LINE
  5
1415B
  8
HIDE
 10
2179.829509378832
 20
1601.01859371354
 30
0.0
 11
2169.829509378832
 21
1601.0185937135391
 31
0.0
  0
LINE
  5
1415C
  8
HIDE
 10
2203.829509378832
 20
1616.01859371354
 30
0.0
 11
2197.829509378832
 21
1616.01859371354
 31
0.0
  0
LINE
  5
1415D
  8
HIDE
 10
2179.829509378832
 20
1616.01859371354
 30
0.0
 11
2169.829509378832
 21
1616.01859371354
 31
0.0
  0
LINE
  5
1415E
  8
HIDE
 10
2203.829509378832
 20
1598.7685937135391
 30
0.0
 11
2197.829509378832
 21
1598.76859371354
 31
0.0
  0
LINE
  5
1415F
  8
HIDE
 10
2179.829509378832
 20
1598.76859371354
 30
0.0
 11
2171.8295123788321
 21
1598.7685937135391
 31
0.0
  0
LINE
  5
14160
  8
HIDE
 10
2203.829509378832
 20
1618.26859371354
 30
0.0
 11
2197.829509378832
 21
1618.26859371354
 31
0.0
  0
LINE
  5
14161
  8
HIDE
 10
2179.829509378832
 20
1618.26859371354
 30
0.0
 11
2171.8295123788321
 21
1618.26859371354
 31
0.0
  0
LINE
  5
14162
  8
0
 10
2171.8295123788321
 20
1614.3285297135401
 30
0.0
 11
2177.8295123788321
 21
1614.3285297135401
 31
0.0
  0
LINE
  5
14163
  8
0
 10
2171.8295123788321
 20
1602.70783271354
 30
0.0
 11
2177.8295123788321
 21
1602.70783271354
 31
0.0
  0
LINE
  5
14164
  8
0
 10
2177.8295123788321
 20
1640.01859371354
 30
0.0
 11
2177.8295123788321
 21
1577.01859371354
 31
0.0
  0
LINE
  5
14165
  8
0
 10
2171.8295123788321
 20
1640.01859371354
 30
0.0
 11
2171.8295123788321
 21
1577.01859371354
 31
0.0
  0
LINE
  5
14166
  8
0
 10
2186.829509378832
 20
1640.01859371354
 30
0.0
 11
2186.829509378832
 21
1577.01859371354
 31
0.0
  0
LINE
  5
14167
  8
0
 10
2203.829509378832
 20
1628.51859371354
 30
0.0
 11
2203.829509378832
 21
1588.51859371354
 31
0.0
  0
LINE
  5
14168
  8
0
 10
2203.829509378832
 20
1628.51859371354
 30
0.0
 11
2186.829509378832
 21
1628.51859371354
 31
0.0
  0
LINE
  5
14169
  8
0
 10
2203.829509378832
 20
1588.51859371354
 30
0.0
 11
2186.829509378832
 21
1588.51859371354
 31
0.0
  0
CIRCLE
  5
1416A
  8
HIDE
 10
2193.329509378832
 20
1596.3523885616901
 30
0.0
 40
2.549999999999998
  0
CIRCLE
  5
1416B
  8
HIDE
 10
2193.329509378832
 20
1619.8523885616901
 30
0.0
 40
2.549999999999998
  0
CIRCLE
  5
1416C
  8
HIDE
 10
2184.329509378832
 20
1596.3523885616901
 30
0.0
 40
2.5499999999999989
  0
CIRCLE
  5
1416D
  8
HIDE
 10
2184.329509378832
 20
1619.8523885616901
 30
0.0
 40
2.5499999999999989
  0
ARC
  5
1416E
  8
HIDE
 10
2188.6795093788319
 20
1623.9523885616909
 30
0.0
 40
0.1500000000000003
 50
0.0
 51
90.0
  0
ARC
  5
1416F
  8
HIDE
 10
2180.1295093788322
 20
1623.8023885616899
 30
0.0
 40
0.3000000000000007
 50
90.0
 51
180.0
  0
ARC
  5
14170
  8
HIDE
 10
2188.5295093788318
 20
1615.90238856169
 30
0.0
 40
0.2999999999999998
 50
270.0
 51
0.0
  0
ARC
  5
14171
  8
HIDE
 10
2188.5295093788318
 20
1600.3023885616899
 30
0.0
 40
0.3000000000000007
 50
0.0
 51
90.0
  0
ARC
  5
14172
  8
HIDE
 10
2179.9795093788321
 20
1615.7523885616899
 30
0.0
 40
0.1499999999999986
 50
180.0
 51
270.0
  0
ARC
  5
14173
  8
HIDE
 10
2179.9795093788321
 20
1600.4523885616909
 30
0.0
 40
0.1500000000000003
 50
90.0
 51
180.0
  0
ARC
  5
14174
  8
HIDE
 10
2188.6795093788319
 20
1592.2523885616899
 30
0.0
 40
0.1499999999999986
 50
270.0
 51
0.0
  0
ARC
  5
14175
  8
HIDE
 10
2180.1295093788322
 20
1592.40238856169
 30
0.0
 40
0.3000000000000007
 50
180.0
 51
270.0
  0
LINE
  5
14176
  8
HIDE
 10
2179.829509378832
 20
1621.15238856169
 30
0.0
 11
2182.1357682819839
 21
1621.15238856169
 31
0.0
  0
LINE
  5
14177
  8
HIDE
 10
2180.1295093788322
 20
1624.1023885616901
 30
0.0
 11
2188.6795093788319
 21
1624.1023885616901
 31
0.0
  0
LINE
  5
14178
  8
HIDE
 10
2188.829509378832
 20
1618.5523885616899
 30
0.0
 11
2186.52325047568
 21
1618.5523885616899
 31
0.0
  0
LINE
  5
14179
  8
HIDE
 10
2185.3171604610552
 20
1622.2033554563491
 30
0.0
 11
2188.829509378832
 21
1622.40238856169
 31
0.0
  0
LINE
  5
1417A
  8
HIDE
 10
2179.829509378832
 20
1618.5523885616899
 30
0.0
 11
2182.1357682819839
 21
1618.5523885616899
 31
0.0
  0
LINE
  5
1417B
  8
HIDE
 10
2179.829509378832
 20
1597.65238856169
 30
0.0
 11
2182.1357682819839
 21
1597.65238856169
 31
0.0
  0
LINE
  5
1417C
  8
HIDE
 10
2179.9795093788321
 20
1615.6023885616901
 30
0.0
 11
2188.5295093788318
 21
1615.6023885616901
 31
0.0
  0
LINE
  5
1417D
  8
HIDE
 10
2179.9795093788321
 20
1600.6023885616901
 30
0.0
 11
2188.5295093788318
 21
1600.6023885616901
 31
0.0
  0
LINE
  5
1417E
  8
HIDE
 10
2188.829509378832
 20
1597.65238856169
 30
0.0
 11
2186.52325047568
 21
1597.65238856169
 31
0.0
  0
LINE
  5
1417F
  8
HIDE
 10
2179.829509378832
 20
1595.0523885616899
 30
0.0
 11
2182.1357682819839
 21
1595.0523885616899
 31
0.0
  0
LINE
  5
14180
  8
HIDE
 10
2188.6795093788319
 20
1592.1023885616901
 30
0.0
 11
2180.1295093788322
 21
1592.1023885616901
 31
0.0
  0
LINE
  5
14181
  8
HIDE
 10
2185.3171604610552
 20
1594.0014216670311
 30
0.0
 11
2188.829509378832
 21
1593.8023885616899
 31
0.0
  0
LINE
  5
14182
  8
HIDE
 10
2179.829509378832
 20
1592.40238856169
 30
0.0
 11
2179.829509378832
 21
1623.8023885616899
 31
0.0
  0
LINE
  5
14183
  8
HIDE
 10
2188.829509378832
 20
1623.9523885616909
 30
0.0
 11
2188.829509378832
 21
1592.2523885616899
 31
0.0
  0
ARC
  5
14184
  8
HIDE
 10
2188.9795093788321
 20
1592.2523885616899
 30
0.0
 40
0.1500000000000003
 50
180.0
 51
270.0
  0
ARC
  5
14185
  8
HIDE
 10
2197.5295093788318
 20
1592.40238856169
 30
0.0
 40
0.2999999999999989
 50
270.0
 51
0.0
  0
ARC
  5
14186
  8
HIDE
 10
2189.1295093788322
 20
1600.3023885616899
 30
0.0
 40
0.2999999999999998
 50
90.0
 51
180.0
  0
ARC
  5
14187
  8
HIDE
 10
2189.1295093788322
 20
1615.90238856169
 30
0.0
 40
0.3000000000000007
 50
180.0
 51
270.0
  0
ARC
  5
14188
  8
HIDE
 10
2197.6795093788319
 20
1600.4523885616909
 30
0.0
 40
0.15
 50
0.0
 51
90.0
  0
ARC
  5
14189
  8
HIDE
 10
2197.6795093788319
 20
1615.7523885616899
 30
0.0
 40
0.1500000000000003
 50
270.0
 51
0.0
  0
ARC
  5
1418A
  8
HIDE
 10
2188.9795093788321
 20
1623.9523885616909
 30
0.0
 40
0.1500000000000003
 50
90.0
 51
180.0
  0
ARC
  5
1418B
  8
HIDE
 10
2197.5295093788318
 20
1623.8023885616899
 30
0.0
 40
0.3
 50
0.0
 51
90.0
  0
LINE
  5
1418C
  8
HIDE
 10
2197.829509378832
 20
1595.0523885616899
 30
0.0
 11
2195.52325047568
 21
1595.0523885616899
 31
0.0
  0
LINE
  5
1418D
  8
HIDE
 10
2197.5295093788318
 20
1592.1023885616901
 30
0.0
 11
2188.9795093788321
 21
1592.1023885616901
 31
0.0
  0
LINE
  5
1418E
  8
HIDE
 10
2188.829509378832
 20
1597.65238856169
 30
0.0
 11
2191.1357682819839
 21
1597.65238856169
 31
0.0
  0
LINE
  5
1418F
  8
HIDE
 10
2192.3418582966092
 20
1594.0014216670311
 30
0.0
 11
2188.829509378832
 21
1593.8023885616899
 31
0.0
  0
LINE
  5
14190
  8
HIDE
 10
2197.829509378832
 20
1597.65238856169
 30
0.0
 11
2195.52325047568
 21
1597.65238856169
 31
0.0
  0
LINE
  5
14191
  8
HIDE
 10
2197.829509378832
 20
1618.5523885616899
 30
0.0
 11
2195.52325047568
 21
1618.5523885616899
 31
0.0
  0
LINE
  5
14192
  8
HIDE
 10
2197.6795093788319
 20
1600.6023885616901
 30
0.0
 11
2189.1295093788322
 21
1600.6023885616901
 31
0.0
  0
LINE
  5
14193
  8
HIDE
 10
2197.6795093788319
 20
1615.6023885616901
 30
0.0
 11
2189.1295093788322
 21
1615.6023885616901
 31
0.0
  0
LINE
  5
14194
  8
HIDE
 10
2188.829509378832
 20
1618.5523885616899
 30
0.0
 11
2191.1357682819839
 21
1618.5523885616899
 31
0.0
  0
LINE
  5
14195
  8
HIDE
 10
2197.829509378832
 20
1621.15238856169
 30
0.0
 11
2195.52325047568
 21
1621.15238856169
 31
0.0
  0
LINE
  5
14196
  8
HIDE
 10
2188.9795093788321
 20
1624.1023885616901
 30
0.0
 11
2197.5295093788318
 21
1624.1023885616901
 31
0.0
  0
LINE
  5
14197
  8
HIDE
 10
2192.3418582966092
 20
1622.2033554563491
 30
0.0
 11
2188.829509378832
 21
1622.40238856169
 31
0.0
  0
LINE
  5
14198
  8
HIDE
 10
2197.829509378832
 20
1623.8023885616899
 30
0.0
 11
2197.829509378832
 21
1592.40238856169
 31
0.0
  0
LINE
  5
14199
  8
0
 10
2169.829509378832
 20
1619.0221372463591
 30
0.0
 11
2169.829509378832
 21
1598.0150501807209
 31
0.0
  0
LINE
  5
1419A
  8
CENTER
 10
2165.329509378832
 20
1621.7548191257599
 30
0.0
 11
2165.329509378832
 21
1605.7278832878189
 31
0.0
  0
LINE
  5
1419B
  8
0
 10
2169.329509378832
 20
1621.01859371354
 30
0.0
 11
2169.329509378832
 21
1596.01859371354
 31
0.0
  0
LINE
  5
1419C
  8
0
 10
2161.829509378832
 20
1621.01859371354
 30
0.0
 11
2161.829509378832
 21
1596.01859371354
 31
0.0
  0
LINE
  5
1419D
  8
0
 10
2169.329509378832
 20
1621.01859371354
 30
0.0
 11
2161.829509378832
 21
1621.01859371354
 31
0.0
  0
LINE
  5
1419E
  8
CENTER
 10
2171.0712902812661
 20
1608.51859371354
 30
0.0
 11
2159.6204788638338
 21
1608.51859371354
 31
0.0
  0
LINE
  5
1419F
  8
0
 10
2169.829509378832
 20
1619.0221372463591
 30
0.0
 11
2169.329509378832
 21
1619.310812380952
 31
0.0
  0
LINE
  5
141A0
  8
HIDE
 10
2169.8295093788338
 20
1615.51859371354
 30
0.0
 11
2161.829509378832
 21
1615.51859371354
 31
0.0
  0
LINE
  5
141A1
  8
HIDE
 10
2169.8295093788338
 20
1616.01859371354
 30
0.0
 11
2161.829509378832
 21
1616.01859371354
 31
0.0
  0
LINE
  5
141A2
  8
0
 10
2169.329509378832
 20
1612.098554400656
 30
0.0
 11
2161.829509378832
 21
1612.0985544006569
 31
0.0
  0
LINE
  5
141A3
  8
0
 10
2169.329509378832
 20
1596.01859371354
 30
0.0
 11
2161.829509378832
 21
1596.01859371354
 31
0.0
  0
LINE
  5
141A4
  8
0
 10
2169.829509378832
 20
1598.0150501807209
 30
0.0
 11
2169.329509378832
 21
1597.7263750461279
 31
0.0
  0
LINE
  5
141A5
  8
HIDE
 10
2169.8295093788338
 20
1601.51859371354
 30
0.0
 11
2161.829509378832
 21
1601.51859371354
 31
0.0
  0
LINE
  5
141A6
  8
HIDE
 10
2169.8295093788338
 20
1601.01859371354
 30
0.0
 11
2161.829509378832
 21
1601.01859371354
 31
0.0
  0
LINE
  5
141A7
  8
0
 10
2169.329509378832
 20
1604.938633026424
 30
0.0
 11
2161.829509378832
 21
1604.9386330264231
 31
0.0
  0
LINE
  5
141A8
  8
HIDE
 10
2163.3295093788302
 20
1621.01859371354
 30
0.0
 11
2163.329509378832
 21
1615.5185937135409
 31
0.0
  0
LINE
  5
141A9
  8
HIDE
 10
2163.6795093788319
 20
1621.01859371354
 30
0.0
 11
2163.6795093788319
 21
1615.5185937135409
 31
0.0
  0
LINE
  5
141AA
  8
HIDE
 10
2167.329509378832
 20
1621.01859371354
 30
0.0
 11
2167.329509378832
 21
1615.5185937135409
 31
0.0
  0
LINE
  5
141AB
  8
HIDE
 10
2166.9795093788312
 20
1621.01859371354
 30
0.0
 11
2166.9795093788312
 21
1615.5185937135409
 31
0.0
  0
LINE
  5
141AC
  8
HIDE
 10
2167.329509378832
 20
1620.4811169758909
 30
0.0
 11
2163.3295093788302
 21
1620.48111697589
 31
0.0
  0
LINE
  5
141AD
  8
HIDE
 10
2167.329509378832
 20
1616.4811169758909
 30
0.0
 11
2163.3295093788302
 21
1616.48111697589
 31
0.0
  0
LINE
  5
141AE
  8
HIDE
 10
2163.6795093788319
 20
1616.2790443816741
 30
0.0
 11
2163.329509378832
 21
1616.48111697589
 31
0.0
  0
LINE
  5
141AF
  8
HIDE
 10
2163.6795093788319
 20
1616.2790443816741
 30
0.0
 11
2166.9795093788312
 21
1616.2790443816741
 31
0.0
  0
LINE
  5
141B0
  8
HIDE
 10
2166.9795093788312
 20
1616.2790443816741
 30
0.0
 11
2167.329509378832
 21
1616.48111697589
 31
0.0
  0
CIRCLE
  5
141B1
  8
0
 10
2165.329509378832
 20
1608.51859371354
 30
0.0
 40
2.0
  0
CIRCLE
  5
141B2
  8
0
 10
2165.329509378832
 20
1608.51859371354
 30
0.0
 40
1.649999999995998
  0
POLYLINE
  5
141B3
  8
0
 66
     1
 10
0.0
 20
0.0
 30
0.0
 70
     1
  0
VERTEX
  5
142C7
  8
0
 10
2165.329509378832
 20
1609.596508901127
 30
0.0
  0
VERTEX
  5
142C8
  8
0
 10
2166.2630113144069
 20
1609.0575513073329
 30
0.0
  0
VERTEX
  5
142C9
  8
0
 10
2166.2630113144069
 20
1607.9796361197459
 30
0.0
  0
VERTEX
  5
142CA
  8
0
 10
2165.329509378832
 20
1607.440678525953
 30
0.0
  0
VERTEX
  5
142CB
  8
0
 10
2164.3960074432571
 20
1607.9796361197459
 30
0.0
  0
VERTEX
  5
142CC
  8
0
 10
2164.3960074432571
 20
1609.0575513073329
 30
0.0
  0
SEQEND
  5
142CD
  8
0
  0
LINE
  5
141B4
  8
0
 10
2203.829509378832
 20
1618.26859371354
 30
0.0
 11
2207.829509378832
 21
1618.26859371354
 31
0.0
  0
LINE
  5
141B5
  8
HIDE
 10
2203.829509378832
 20
1616.01859371354
 30
0.0
 11
2207.829509378832
 21
1616.01859371354
 31
0.0
  0
LINE
  5
141B6
  8
HIDE
 10
2203.829509378832
 20
1601.0185937135391
 30
0.0
 11
2207.829509378832
 21
1601.0185937135391
 31
0.0
  0
LINE
  5
141B7
  8
0
 10
2203.829509378832
 20
1598.7685937135391
 30
0.0
 11
2207.829509378832
 21
1598.7685937135391
 31
0.0
  0
LINE
  5
141B8
  8
0
 10
2207.829509378832
 20
1618.26859371354
 30
0.0
 11
2207.829509378832
 21
1598.7685937135391
 31
0.0
  0
LINE
  5
141B9
  8
0
 10
2171.8295123788321
 20
1618.26859371354
 30
0.0
 11
2169.829509378832
 21
1618.2685937135391
 31
0.0
  0
LINE
  5
141BA
  8
0
 10
2171.8295123788321
 20
1598.7685937135391
 30
0.0
 11
2169.829509378832
 21
1598.7685937135391
 31
0.0
  0
ENDSEC
  0
EOF
