  0
SECTION
  2
HEADER
  9
$ACADVER
  1
AC1009
  9
$INSBASE
 10
0.0
 20
0.0
 30
0.0
  9
$EXTMIN
 10
1903.0405749290021
 20
1433.173578249188
 30
0.0
  9
$EXTMAX
 10
2348.540574929003
 20
1748.173578249188
 30
0.0
  9
$LIMMIN
 10
0.0
 20
0.0
  9
$LIMMAX
 10
12.0
 20
9.0
  9
$ORTHOMODE
 70
     0
  9
$REGENMODE
 70
     1
  9
$FILLMODE
 70
     1
  9
$QTEXTMODE
 70
     0
  9
$MIRRTEXT
 70
     0
  9
$DRAGMODE
 70
     2
  9
$LTSCALE
 40
5.0
  9
$OSMODE
 70
  2239
  9
$ATTMODE
 70
     1
  9
$TEXTSIZE
 40
2.5
  9
$TRACEWID
 40
0.05
  9
$TEXTSTYLE
  7
BIG
  9
$CLAYER
  8
0
  9
$CELTYPE
  6
BYLAYER
  9
$CECOLOR
 62
   256
  9
$DIMSCALE
 40
1.0
  9
$DIMASZ
 40
3.0
  9
$DIMEXO
 40
1.0
  9
$DIMDLI
 40
0.0
  9
$DIMRND
 40
0.0
  9
$DIMDLE
 40
0.0
  9
$DIMEXE
 40
1.0
  9
$DIMTP
 40
0.0
  9
$DIMTM
 40
0.0
  9
$DIMTXT
 40
3.0
  9
$DIMCEN
 40
0.0
  9
$DIMTSZ
 40
0.0
  9
$DIMTOL
 70
     0
  9
$DIMLIM
 70
     0
  9
$DIMTIH
 70
     0
  9
$DIMTOH
 70
     0
  9
$DIMSE1
 70
     0
  9
$DIMSE2
 70
     0
  9
$DIMTAD
 70
     1
  9
$DIMZIN
 70
     8
  9
$DIMBLK
  1

  9
$DIMASO
 70
     1
  9
$DIMSHO
 70
     1
  9
$DIMPOST
  1

  9
$DIMAPOST
  1

  9
$DIMALT
 70
     0
  9
$DIMALTD
 70
     2
  9
$DIMALTF
 40
25.399999999999999
  9
$DIMLFAC
 40
1.0
  9
$DIMTOFL
 70
     1
  9
$DIMTVP
 40
0.0
  9
$DIMTIX
 70
     1
  9
$DIMSOXD
 70
     0
  9
$DIMSAH
 70
     0
  9
$DIMBLK1
  1

  9
$DIMBLK2
  1

  9
$DIMSTYLE
  2
DUKITEC
  9
$DIMCLRD
 70
     5
  9
$DIMCLRE
 70
     5
  9
$DIMCLRT
 70
     0
  9
$DIMTFAC
 40
1.0
  9
$DIMGAP
 40
1.0
  9
$LUNITS
 70
     2
  9
$LUPREC
 70
     4
  9
$SKETCHINC
 40
0.1
  9
$FILLETRAD
 40
0.2
  9
$AUNITS
 70
     0
  9
$AUPREC
 70
     0
  9
$MENU
  1
.
  9
$ELEVATION
 40
0.0
  9
$PELEVATION
 40
0.0
  9
$THICKNESS
 40
0.0
  9
$LIMCHECK
 70
     0
  9
$BLIPMODE
 70
     0
  9
$CHAMFERA
 40
0.5
  9
$CHAMFERB
 40
0.5
  9
$SKPOLY
 70
     0
  9
$TDCREATE
 40
2454396.7307790741
  9
$TDUPDATE
 40
2456631.4217050578
  9
$TDINDWG
 40
0.0061001157
  9
$TDUSRTIMER
 40
0.0060999537
  9
$USRTIMER
 70
     1
  9
$ANGBASE
 50
0.0
  9
$ANGDIR
 70
     0
  9
$PDMODE
 70
     0
  9
$PDSIZE
 40
0.0
  9
$PLINEWID
 40
0.0
  9
$COORDS
 70
     1
  9
$SPLFRAME
 70
     0
  9
$SPLINETYPE
 70
     6
  9
$SPLINESEGS
 70
     8
  9
$ATTDIA
 70
     0
  9
$ATTREQ
 70
     1
  9
$HANDLING
 70
     1
  9
$HANDSEED
  5
14428
  9
$SURFTAB1
 70
     6
  9
$SURFTAB2
 70
     6
  9
$SURFTYPE
 70
     6
  9
$SURFU
 70
     6
  9
$SURFV
 70
     6
  9
$UCSNAME
  2

  9
$UCSORG
 10
0.0
 20
0.0
 30
0.0
  9
$UCSXDIR
 10
1.0
 20
0.0
 30
0.0
  9
$UCSYDIR
 10
0.0
 20
1.0
 30
0.0
  9
$PUCSNAME
  2

  9
$PUCSORG
 10
0.0
 20
0.0
 30
0.0
  9
$PUCSXDIR
 10
1.0
 20
0.0
 30
0.0
  9
$PUCSYDIR
 10
0.0
 20
1.0
 30
0.0
  9
$USERI1
 70
     0
  9
$USERI2
 70
     0
  9
$USERI3
 70
     0
  9
$USERI4
 70
     0
  9
$USERI5
 70
     0
  9
$USERR1
 40
0.0
  9
$USERR2
 40
0.0
  9
$USERR3
 40
0.0
  9
$USERR4
 40
0.0
  9
$USERR5
 40
0.0
  9
$WORLDVIEW
 70
     1
  9
$SHADEDGE
 70
     3
  9
$SHADEDIF
 70
    70
  9
$TILEMODE
 70
     1
  9
$MAXACTVP
 70
    64
  9
$PLIMCHECK
 70
     0
  9
$PEXTMIN
 10
0.0
 20
0.0
 30
0.0
  9
$PEXTMAX
 10
0.0
 20
0.0
 30
0.0
  9
$PLIMMIN
 10
0.0
 20
0.0
  9
$PLIMMAX
 10
12.0
 20
9.0
  9
$UNITMODE
 70
     0
  9
$VISRETAIN
 70
     1
  9
$PLINEGEN
 70
     0
  9
$PSLTSCALE
 70
     1
  0
ENDSEC
  0
SECTION
  2
TABLES
  0
TABLE
  2
VPORT
 70
     1
  0
VPORT
  2
*ACTIVE
 70
     0
 10
0.0
 20
0.0
 11
1.0
 21
1.0
 12
2139.9260689526859
 22
1595.152356366043
 13
0.0
 23
0.0
 14
0.5
 24
0.5
 15
0.5
 25
0.5
 16
0.0
 26
0.0
 36
1.0
 17
0.0
 27
0.0
 37
0.0
 40
232.6327810036737
 41
2.1408934707903771
 42
50.0
 43
0.0
 44
0.0
 50
0.0
 51
0.0
 71
     0
 72
  2000
 73
     1
 74
     3
 75
     0
 76
     0
 77
     0
 78
     0
  0
ENDTAB
  0
TABLE
  2
LTYPE
 70
     4
  0
LTYPE
  2
CONTINUOUS
 70
     0
  3
Solid line
 72
    65
 73
     0
 40
0.0
  0
LTYPE
  2
PHANTOM2
 70
     0
  3
Phantom (.5x) ___ _ _ ___ _ _ ___ _ _ ___ _ _
 72
    65
 73
     6
 40
1.25
 49
0.625
 49
-0.125
 49
0.125
 49
-0.125
 49
0.125
 49
-0.125
  0
LTYPE
  2
CENTER
 70
     0
  3
___ _ ___ _ ___ _ ___ _ ___ _ ___ _ ___ _ ___ _
 72
    65
 73
     4
 40
0.95
 49
0.625
 49
-0.125
 49
0.075
 49
-0.125
  0
LTYPE
  2
DASHED2
 70
     0
  3
Dashed (.5x) _ _ _ _ _ _ _ _ _ _ _ _ _ _ _ _ _
 72
    65
 73
     2
 40
0.375
 49
0.25
 49
-0.125
  0
ENDTAB
  0
TABLE
  2
LAYER
 70
     3
  0
LAYER
  2
0
 70
     0
 62
     7
  6
CONTINUOUS
  0
LAYER
  2
HIDE
 70
     0
 62
     1
  6
DASHED2
  0
LAYER
  2
CENTER
 70
     0
 62
     3
  6
CENTER
  0
ENDTAB
  0
TABLE
  2
STYLE
 70
     3
  0
STYLE
  2
STANDARD
 70
     0
 40
5.0
 41
1.0
 50
0.0
 71
     0
 42
5.0
  3
txt.shx
  4
whgtxt.shx
  0
STYLE
  2
BIG
 70
     0
 40
20.0
 41
1.0
 50
0.0
 71
     0
 42
2.5
  3
txt
  4

  0
ENDTAB
  0
TABLE
  2
VIEW
 70
     0
  0
ENDTAB
  0
TABLE
  2
UCS
 70
     0
  0
ENDTAB
  0
TABLE
  2
APPID
 70
    11
  0
APPID
  2
ACAD
 70
     0
  0
APPID
  2
ACADANNOTATIVE
 70
     0
  0
APPID
  2
ACAD_EXEMPT_FROM_CAD_STANDARDS
 70
     0
  0
APPID
  2
ACAD_DSTYLE_DIMJOGGED_JOGA
 70
     0
  0
APPID
  2
ACAD_PSEXT
 70
     0
  0
APPID
  2
ACAECLAYERSTANDARD
 70
     0
  0
APPID
  2
DCO15
 70
     0
  0
APPID
  2
CONTENTBLOCKICON
 70
     0
  0
APPID
  2
ACAD_DSTYLE_DIMRADIAL_EXTENSION
 70
     0
  0
APPID
  2
ACAD_NAV_VCDISPLAY
 70
     0
  0
APPID
  2
ACAD_MLEADERVER
 70
     0
  0
ENDTAB
  0
TABLE
  2
DIMSTYLE
 70
     3
  0
DIMSTYLE
  2
DUKITEC
 70
     0
  3

  4

  5

  6

  7

 40
1.0
 41
3.0
 42
1.0
 43
0.0
 44
1.0
 45
0.0
 46
0.0
 47
0.0
 48
0.0
140
3.0
141
0.0
142
0.0
143
25.399999999999999
144
1.0
145
0.0
146
1.0
147
1.0
 71
     0
 72
     0
 73
     0
 74
     0
 75
     0
 76
     0
 77
     1
 78
     8
170
     0
171
     2
172
     1
173
     0
174
     1
175
     0
176
     5
177
     5
178
     0
  0
ENDTAB
  0
ENDSEC
  0
SECTION
  2
BLOCKS
  0
BLOCK
  8
0
  2
$MODEL_SPACE
 70
     0
 10
0.0
 20
0.0
 30
0.0
  3
$MODEL_SPACE
  1

  0
ENDBLK
  5
14366
  8
0
  0
BLOCK
 67
     1
  8
0
  2
$PAPER_SPACE
 70
     0
 10
0.0
 20
0.0
 30
0.0
  3
$PAPER_SPACE
  1

  0
ENDBLK
  5
14362
 67
     1
  8
0
  0
ENDSEC
  0
SECTION
  2
ENTITIES
  0
TEXT
  5
1401A
  8
0
 10
2085.0820212394701
 20
1507.9350330240591
 30
0.0
 40
20.0
  1
FK 25
  7
BIG
  0
LINE
  5
14156
  8
HIDE
 10
2181.4384967983469
 20
1580.3589538408121
 30
0.0
 11
2192.4384967983469
 21
1580.3589538408121
 31
0.0
  0
LINE
  5
14157
  8
HIDE
 10
2192.4384967983469
 20
1577.1089538408121
 30
0.0
 11
2196.4384967983469
 21
1577.1089538408121
 31
0.0
  0
LINE
  5
14158
  8
HIDE
 10
2192.4384967983469
 20
1566.1089538408121
 30
0.0
 11
2196.4384967983469
 21
1566.1089538408121
 31
0.0
  0
LINE
  5
14159
  8
HIDE
 10
2181.4384967983469
 20
1562.8589538408121
 30
0.0
 11
2192.4384967983469
 21
1562.8589538408121
 31
0.0
  0
LINE
  5
1415A
  8
HIDE
 10
2192.4384967983469
 20
1580.3589538408121
 30
0.0
 11
2192.4384967983469
 21
1562.8589538408121
 31
0.0
  0
LINE
  5
1415B
  8
HIDE
 10
2192.4384967983469
 20
1680.3589538408121
 30
0.0
 11
2192.4384967983469
 21
1662.8589538408121
 31
0.0
  0
LINE
  5
1415C
  8
HIDE
 10
2181.4384967983469
 20
1662.8589538408121
 30
0.0
 11
2192.4384967983469
 21
1662.8589538408121
 31
0.0
  0
LINE
  5
1415D
  8
HIDE
 10
2192.4384967983469
 20
1666.1089538408121
 30
0.0
 11
2196.4384967983469
 21
1666.1089538408121
 31
0.0
  0
LINE
  5
1415E
  8
HIDE
 10
2192.4384967983469
 20
1677.1089538408121
 30
0.0
 11
2196.4384967983469
 21
1677.1089538408121
 31
0.0
  0
LINE
  5
1415F
  8
HIDE
 10
2181.4384967983469
 20
1680.3589538408121
 30
0.0
 11
2192.4384967983469
 21
1680.3589538408121
 31
0.0
  0
LINE
  5
14160
  8
CENTER
 10
2178.192140674736
 20
1571.6089538408121
 30
0.0
 11
2200.2258357896212
 21
1571.6089538408121
 31
0.0
  0
LINE
  5
14161
  8
CENTER
 10
2178.192140674736
 20
1671.6089538408121
 30
0.0
 11
2200.2258357896212
 21
1671.6089538408121
 31
0.0
  0
LINE
  5
14162
  8
0
 10
2181.4384967983469
 20
1560.6089538408121
 30
0.0
 11
2196.4384967983469
 21
1560.6089538408121
 31
0.0
  0
LINE
  5
14163
  8
0
 10
2181.4384967983469
 20
1682.6089538408121
 30
0.0
 11
2196.4384967983469
 21
1682.6089538408121
 31
0.0
  0
LINE
  5
14164
  8
0
 10
2169.4384967983469
 20
1661.6089538408121
 30
0.0
 11
2181.4384967983469
 21
1661.6089538408121
 31
0.0
  0
LINE
  5
14165
  8
0
 10
2169.4384967983469
 20
1581.6089538408121
 30
0.0
 11
2181.4384967983469
 21
1581.6089538408121
 31
0.0
  0
LINE
  5
14166
  8
0
 10
2196.4384967983469
 20
1682.6089538408121
 30
0.0
 11
2196.4384967983469
 21
1560.6089538408121
 31
0.0
  0
LINE
  5
14167
  8
0
 10
2181.4384967983469
 20
1682.6089538408121
 30
0.0
 11
2181.4384967983469
 21
1560.6089538408121
 31
0.0
  0
LINE
  5
14168
  8
0
 10
2169.4384967983469
 20
1661.6089538408121
 30
0.0
 11
2169.4384967983469
 21
1581.6089538408121
 31
0.0
  0
LINE
  5
14169
  8
CENTER
 10
2155.4067666101141
 20
1621.6089538408121
 30
0.0
 11
2229.0650004451199
 21
1621.6089538408121
 31
0.0
  0
LINE
  5
1416A
  8
HIDE
 10
2173.4384967983492
 20
1609.1089538408121
 30
0.0
 11
2183.4384967983469
 21
1609.108953840811
 31
0.0
  0
LINE
  5
1416B
  8
HIDE
 10
2213.4384967983469
 20
1609.108953840811
 30
0.0
 11
2223.4384967983469
 21
1609.108953840811
 31
0.0
  0
LINE
  5
1416C
  8
HIDE
 10
2173.4384967983492
 20
1634.1089538408121
 30
0.0
 11
2183.4384967983469
 21
1634.108953840813
 31
0.0
  0
LINE
  5
1416D
  8
HIDE
 10
2213.4384967983469
 20
1634.108953840813
 30
0.0
 11
2223.4384967983469
 21
1634.1089538408121
 31
0.0
  0
LINE
  5
1416E
  8
HIDE
 10
2173.4384967983492
 20
1606.3589538408121
 30
0.0
 11
2183.4384967983469
 21
1606.3589538408121
 31
0.0
  0
LINE
  5
1416F
  8
HIDE
 10
2213.4384967983469
 20
1606.3589538408121
 30
0.0
 11
2223.4384967983469
 21
1606.3589538408121
 31
0.0
  0
LINE
  5
14170
  8
HIDE
 10
2173.4384967983492
 20
1636.8589538408121
 30
0.0
 11
2183.4384967983469
 21
1636.858953840813
 31
0.0
  0
LINE
  5
14171
  8
HIDE
 10
2213.4384967983469
 20
1636.858953840813
 30
0.0
 11
2223.4384967983469
 21
1636.8589538408121
 31
0.0
  0
LINE
  5
14172
  8
0
 10
2223.4384967983469
 20
1581.6089538408121
 30
0.0
 11
2196.4384967983469
 21
1581.6089538408121
 31
0.0
  0
LINE
  5
14173
  8
0
 10
2223.4384967983469
 20
1661.6089538408121
 30
0.0
 11
2196.4384967983469
 21
1661.6089538408121
 31
0.0
  0
LINE
  5
14174
  8
0
 10
2223.4384967983469
 20
1581.6089538408121
 30
0.0
 11
2223.4384967983469
 21
1661.6089538408121
 31
0.0
  0
CIRCLE
  5
14175
  8
HIDE
 10
2205.9384967983469
 20
1602.3589538408121
 30
0.0
 40
4.049999999999998
  0
CIRCLE
  5
14176
  8
HIDE
 10
2205.9384967983469
 20
1640.8589538408121
 30
0.0
 40
4.049999999999998
  0
CIRCLE
  5
14177
  8
HIDE
 10
2190.9384967983469
 20
1602.3589538408121
 30
0.0
 40
4.049999999999998
  0
CIRCLE
  5
14178
  8
HIDE
 10
2190.9384967983469
 20
1640.8589538408121
 30
0.0
 40
4.049999999999998
  0
ARC
  5
14179
  8
HIDE
 10
2197.8384967983479
 20
1647.008953840812
 30
0.0
 40
0.5999999999999996
 50
0.0
 51
90.0
  0
ARC
  5
1417A
  8
HIDE
 10
2184.4384967983469
 20
1646.6089538408121
 30
0.0
 40
1.0
 50
90.0
 51
180.0
  0
ARC
  5
1417B
  8
HIDE
 10
2197.4384967983469
 20
1635.1089538408121
 30
0.0
 40
1.0
 50
270.0
 51
0.0
  0
ARC
  5
1417C
  8
HIDE
 10
2197.4384967983469
 20
1608.1089538408121
 30
0.0
 40
1.0
 50
0.0
 51
90.0
  0
ARC
  5
1417D
  8
HIDE
 10
2184.0384967983468
 20
1634.708953840812
 30
0.0
 40
0.6000000000000015
 50
180.0
 51
270.0
  0
ARC
  5
1417E
  8
HIDE
 10
2184.0384967983468
 20
1608.508953840811
 30
0.0
 40
0.5999999999999996
 50
90.0
 51
180.0
  0
ARC
  5
1417F
  8
HIDE
 10
2197.8384967983479
 20
1596.208953840812
 30
0.0
 40
0.6000000000000015
 50
270.0
 51
0.0
  0
ARC
  5
14180
  8
HIDE
 10
2184.4384967983469
 20
1596.6089538408121
 30
0.0
 40
1.0
 50
180.0
 51
270.0
  0
LINE
  5
14181
  8
HIDE
 10
2183.4384967983469
 20
1642.5589538408119
 30
0.0
 11
2187.2625615432039
 21
1642.5589538408119
 31
0.0
  0
LINE
  5
14182
  8
HIDE
 10
2184.4384967983469
 20
1647.6089538408121
 30
0.0
 11
2197.8384967983479
 21
1647.6089538408121
 31
0.0
  0
LINE
  5
14183
  8
HIDE
 10
2198.4384967983469
 20
1639.0589538408119
 30
0.0
 11
2194.5665127850812
 21
1639.0589538408119
 31
0.0
  0
LINE
  5
14184
  8
HIDE
 10
2192.43009029929
 20
1644.6242757165539
 30
0.0
 11
2198.4384967983469
 21
1645.1089538408121
 31
0.0
  0
LINE
  5
14185
  8
HIDE
 10
2183.4384967983469
 20
1639.0589538408119
 30
0.0
 11
2187.3104808116132
 21
1639.0589538408119
 31
0.0
  0
LINE
  5
14186
  8
HIDE
 10
2183.4384967983469
 20
1604.158953840812
 30
0.0
 11
2187.3104808116132
 21
1604.158953840812
 31
0.0
  0
LINE
  5
14187
  8
HIDE
 10
2184.0384967983468
 20
1634.1089538408121
 30
0.0
 11
2197.4384967983469
 21
1634.1089538408121
 31
0.0
  0
LINE
  5
14188
  8
HIDE
 10
2184.0384967983468
 20
1609.1089538408121
 30
0.0
 11
2197.4384967983469
 21
1609.1089538408121
 31
0.0
  0
LINE
  5
14189
  8
HIDE
 10
2198.4384967983469
 20
1604.158953840812
 30
0.0
 11
2194.5665127850812
 21
1604.158953840812
 31
0.0
  0
LINE
  5
1418A
  8
HIDE
 10
2183.4384967983469
 20
1600.658953840812
 30
0.0
 11
2187.2625615432039
 21
1600.658953840812
 31
0.0
  0
LINE
  5
1418B
  8
HIDE
 10
2197.8384967983479
 20
1595.6089538408121
 30
0.0
 11
2184.4384967983469
 21
1595.6089538408121
 31
0.0
  0
LINE
  5
1418C
  8
HIDE
 10
2192.43009029929
 20
1598.5936319650691
 30
0.0
 11
2198.4384967983469
 21
1598.1089538408121
 31
0.0
  0
LINE
  5
1418D
  8
HIDE
 10
2183.4384967983469
 20
1596.6089538408121
 30
0.0
 11
2183.4384967983469
 21
1646.6089538408121
 31
0.0
  0
LINE
  5
1418E
  8
HIDE
 10
2198.4384967983469
 20
1647.008953840812
 30
0.0
 11
2198.4384967983469
 21
1596.208953840812
 31
0.0
  0
LINE
  5
1418F
  8
HIDE
 10
2187.0521873504572
 20
1642.5589538408119
 30
0.0
 11
2187.5132529287089
 21
1643.020019419062
 31
0.0
  0
ARC
  5
14190
  8
HIDE
 10
2199.0384967983482
 20
1596.208953840812
 30
0.0
 40
0.5999999999999996
 50
180.0
 51
270.0
  0
ARC
  5
14191
  8
HIDE
 10
2212.4384967983469
 20
1596.6089538408121
 30
0.0
 40
1.0
 50
270.0
 51
0.0
  0
ARC
  5
14192
  8
HIDE
 10
2199.4384967983469
 20
1608.1089538408121
 30
0.0
 40
1.0
 50
90.0
 51
180.0
  0
ARC
  5
14193
  8
HIDE
 10
2199.4384967983469
 20
1635.1089538408121
 30
0.0
 40
1.0
 50
180.0
 51
270.0
  0
ARC
  5
14194
  8
HIDE
 10
2212.838496798347
 20
1608.508953840811
 30
0.0
 40
0.6
 50
0.0
 51
90.0
  0
ARC
  5
14195
  8
HIDE
 10
2212.838496798347
 20
1634.708953840812
 30
0.0
 40
0.5999999999999996
 50
270.0
 51
0.0
  0
ARC
  5
14196
  8
HIDE
 10
2199.0384967983482
 20
1647.008953840812
 30
0.0
 40
0.6000000000000015
 50
90.0
 51
180.0
  0
ARC
  5
14197
  8
HIDE
 10
2212.4384967983469
 20
1646.6089538408121
 30
0.0
 40
1.0
 50
0.0
 51
90.0
  0
LINE
  5
14198
  8
HIDE
 10
2213.4384967983469
 20
1600.658953840812
 30
0.0
 11
2209.61443205349
 21
1600.658953840812
 31
0.0
  0
LINE
  5
14199
  8
HIDE
 10
2212.4384967983469
 20
1595.6089538408121
 30
0.0
 11
2199.0384967983482
 21
1595.6089538408121
 31
0.0
  0
LINE
  5
1419A
  8
HIDE
 10
2198.4384967983469
 20
1604.158953840812
 30
0.0
 11
2202.3104808116132
 21
1604.158953840812
 31
0.0
  0
LINE
  5
1419B
  8
HIDE
 10
2204.4469032974048
 20
1598.5936319650691
 30
0.0
 11
2198.4384967983469
 21
1598.1089538408121
 31
0.0
  0
LINE
  5
1419C
  8
HIDE
 10
2213.4384967983469
 20
1604.158953840812
 30
0.0
 11
2209.5665127850821
 21
1604.158953840812
 31
0.0
  0
LINE
  5
1419D
  8
HIDE
 10
2213.4384967983469
 20
1639.0589538408119
 30
0.0
 11
2209.5665127850821
 21
1639.0589538408119
 31
0.0
  0
LINE
  5
1419E
  8
HIDE
 10
2212.838496798347
 20
1609.1089538408121
 30
0.0
 11
2199.4384967983469
 21
1609.1089538408121
 31
0.0
  0
LINE
  5
1419F
  8
HIDE
 10
2212.838496798347
 20
1634.1089538408121
 30
0.0
 11
2199.4384967983469
 21
1634.1089538408121
 31
0.0
  0
LINE
  5
141A0
  8
HIDE
 10
2198.4384967983469
 20
1639.0589538408119
 30
0.0
 11
2202.3104808116132
 21
1639.0589538408119
 31
0.0
  0
LINE
  5
141A1
  8
HIDE
 10
2213.4384967983469
 20
1642.5589538408119
 30
0.0
 11
2209.61443205349
 21
1642.5589538408119
 31
0.0
  0
LINE
  5
141A2
  8
HIDE
 10
2199.0384967983482
 20
1647.6089538408121
 30
0.0
 11
2212.4384967983478
 21
1647.6089538408121
 31
0.0
  0
LINE
  5
141A3
  8
HIDE
 10
2204.4469032974048
 20
1644.6242757165551
 30
0.0
 11
2198.4384967983492
 21
1645.1089538408121
 31
0.0
  0
LINE
  5
141A4
  8
HIDE
 10
2213.4384967983469
 20
1646.6089538408121
 30
0.0
 11
2213.4384967983469
 21
1596.6089538408121
 31
0.0
  0
LINE
  5
141A5
  8
HIDE
 10
2209.363740667985
 20
1643.0200194190641
 30
0.0
 11
2209.8248062462371
 21
1642.5589538408119
 31
0.0
  0
LINE
  5
141A6
  8
HIDE
 10
2173.4384967983469
 20
1638.1089538408121
 30
0.0
 11
2173.4384967983469
 21
1605.1089538408121
 31
0.0
  0
LINE
  5
141A7
  8
CENTER
 10
2167.4384967983469
 20
1642.1154980265851
 30
0.0
 11
2167.4384967983469
 21
1631.584315512129
 31
0.0
  0
LINE
  5
141A8
  8
HIDE
 10
2170.4384967983469
 20
1640.6089538408121
 30
0.0
 11
2170.4384967983469
 21
1633.358953840813
 31
0.0
  0
LINE
  5
141A9
  8
HIDE
 10
2169.9384967983469
 20
1640.6089538408121
 30
0.0
 11
2169.9384967983469
 21
1633.358953840813
 31
0.0
  0
LINE
  5
141AA
  8
HIDE
 10
2164.4384967983469
 20
1640.6089538408121
 30
0.0
 11
2164.4384967983469
 21
1633.3589538408121
 31
0.0
  0
LINE
  5
141AB
  8
HIDE
 10
2164.9384967983469
 20
1640.6089538408121
 30
0.0
 11
2164.9384967983469
 21
1633.3589538408121
 31
0.0
  0
LINE
  5
141AC
  8
HIDE
 10
2172.9384967983469
 20
1640.6089538408121
 30
0.0
 11
2172.9384967983469
 21
1602.6089538408121
 31
0.0
  0
LINE
  5
141AD
  8
0
 10
2161.4384967983469
 20
1640.6089538408121
 30
0.0
 11
2161.4384967983469
 21
1602.6089538408121
 31
0.0
  0
LINE
  5
141AE
  8
0
 10
2169.4384967983469
 20
1640.6089538408121
 30
0.0
 11
2161.4384967983469
 21
1640.6089538408121
 31
0.0
  0
LINE
  5
141AF
  8
CENTER
 10
2176.631733259293
 20
1621.6089538408121
 30
0.0
 11
2159.6103232017308
 21
1621.6089538408121
 31
0.0
  0
LINE
  5
141B0
  8
HIDE
 10
2173.4384967983469
 20
1638.1089538408121
 30
0.0
 11
2172.9384967983469
 21
1638.397628975405
 31
0.0
  0
LINE
  5
141B1
  8
HIDE
 10
2173.4384967983469
 20
1633.358953840813
 30
0.0
 11
2161.4384967983469
 21
1633.3589538408121
 31
0.0
  0
LINE
  5
141B2
  8
HIDE
 10
2173.4384967983469
 20
1634.1089538408121
 30
0.0
 11
2161.4384967983469
 21
1634.1089538408121
 31
0.0
  0
LINE
  5
141B3
  8
0
 10
2169.4384967983469
 20
1627.6297691209841
 30
0.0
 11
2161.4384967983469
 21
1627.6297691209841
 31
0.0
  0
LINE
  5
141B4
  8
HIDE
 10
2170.4384967983469
 20
1640.313708147004
 30
0.0
 11
2164.4384967983469
 21
1640.313708147004
 31
0.0
  0
LINE
  5
141B5
  8
HIDE
 10
2170.4384967983469
 20
1635.3137081470049
 30
0.0
 11
2164.4384967983469
 21
1635.3137081470049
 31
0.0
  0
LINE
  5
141B6
  8
HIDE
 10
2170.4384967983469
 20
1635.3137081470049
 30
0.0
 11
2169.9384967983469
 21
1635.0250330124099
 31
0.0
  0
LINE
  5
141B7
  8
HIDE
 10
2164.4384967983469
 20
1635.3137081470049
 30
0.0
 11
2164.9384967983469
 21
1635.0250330124099
 31
0.0
  0
LINE
  5
141B8
  8
HIDE
 10
2164.9384967983469
 20
1635.0250330124099
 30
0.0
 11
2169.9384967983469
 21
1635.0250330124099
 31
0.0
  0
LINE
  5
141B9
  8
CENTER
 10
2167.4384967983469
 20
1601.1024096550391
 30
0.0
 11
2167.4384967983469
 21
1611.6335921694949
 31
0.0
  0
LINE
  5
141BA
  8
HIDE
 10
2170.4384967983469
 20
1602.6089538408121
 30
0.0
 11
2170.4384967983469
 21
1609.858953840811
 31
0.0
  0
LINE
  5
141BB
  8
HIDE
 10
2169.9384967983469
 20
1602.6089538408121
 30
0.0
 11
2169.9384967983469
 21
1609.858953840811
 31
0.0
  0
LINE
  5
141BC
  8
HIDE
 10
2164.4384967983469
 20
1602.6089538408121
 30
0.0
 11
2164.4384967983469
 21
1609.8589538408121
 31
0.0
  0
LINE
  5
141BD
  8
HIDE
 10
2164.9384967983469
 20
1602.6089538408121
 30
0.0
 11
2164.9384967983469
 21
1609.8589538408121
 31
0.0
  0
LINE
  5
141BE
  8
0
 10
2169.4384967983469
 20
1602.6089538408121
 30
0.0
 11
2161.4384967983469
 21
1602.6089538408121
 31
0.0
  0
LINE
  5
141BF
  8
HIDE
 10
2173.4384967983469
 20
1605.1089538408121
 30
0.0
 11
2172.9384967983469
 21
1604.8202787062189
 31
0.0
  0
LINE
  5
141C0
  8
HIDE
 10
2173.4384967983469
 20
1609.858953840811
 30
0.0
 11
2161.4384967983469
 21
1609.8589538408121
 31
0.0
  0
LINE
  5
141C1
  8
HIDE
 10
2173.4384967983469
 20
1609.1089538408121
 30
0.0
 11
2161.4384967983469
 21
1609.1089538408121
 31
0.0
  0
LINE
  5
141C2
  8
0
 10
2169.4384967983469
 20
1615.5881385606399
 30
0.0
 11
2161.4384967983469
 21
1615.5881385606399
 31
0.0
  0
LINE
  5
141C3
  8
HIDE
 10
2170.4384967983469
 20
1602.904199534619
 30
0.0
 11
2164.4384967983469
 21
1602.904199534619
 31
0.0
  0
LINE
  5
141C4
  8
HIDE
 10
2170.4384967983469
 20
1607.904199534619
 30
0.0
 11
2164.4384967983469
 21
1607.904199534619
 31
0.0
  0
LINE
  5
141C5
  8
HIDE
 10
2170.4384967983469
 20
1607.904199534619
 30
0.0
 11
2169.9384967983469
 21
1608.1928746692131
 31
0.0
  0
LINE
  5
141C6
  8
HIDE
 10
2164.4384967983469
 20
1607.904199534619
 30
0.0
 11
2164.9384967983469
 21
1608.1928746692131
 31
0.0
  0
LINE
  5
141C7
  8
HIDE
 10
2164.9384967983469
 20
1608.1928746692131
 30
0.0
 11
2169.9384967983469
 21
1608.1928746692131
 31
0.0
  0
LINE
  5
141C8
  8
HIDE
 10
2169.4384967983469
 20
1615.5881385606399
 30
0.0
 11
2172.9384967983469
 21
1615.5881385606399
 31
0.0
  0
LINE
  5
141C9
  8
HIDE
 10
2169.4384967983469
 20
1602.6089538408121
 30
0.0
 11
2172.9384967983469
 21
1602.6089538408121
 31
0.0
  0
LINE
  5
141CA
  8
HIDE
 10
2169.4384967983469
 20
1627.6297691209841
 30
0.0
 11
2172.9384967983469
 21
1627.6297691209841
 31
0.0
  0
LINE
  5
141CB
  8
HIDE
 10
2169.4384967983469
 20
1640.6089538408121
 30
0.0
 11
2172.9384967983469
 21
1640.6089538408121
 31
0.0
  0
LINE
  5
141CE
  8
0
 10
2102.0717043182049
 20
1642.038999840812
 30
0.0
 11
2102.0895633182049
 21
1642.0493098408119
 31
0.0
  0
ARC
  5
141CF
  8
CENTER
 10
2066.6858273182052
 20
1621.6089538408121
 30
0.0
 40
33.0
 50
75.580268000018037
 51
103.93967100000459
  0
ARC
  5
141D0
  8
CENTER
 10
2066.6858273182052
 20
1621.6089538408121
 30
0.0
 40
33.0
 50
15.6977680000006
 51
43.837381999973047
  0
ARC
  5
141D1
  8
CENTER
 10
2066.6858273182052
 20
1621.6089538408121
 30
0.0
 40
33.0
 50
315.74692800000798
 51
344.76496799999092
  0
ARC
  5
141D2
  8
CENTER
 10
2066.6858273182052
 20
1621.6089538408121
 30
0.0
 40
33.0
 50
255.96394699998859
 51
285.26651499998951
  0
ARC
  5
141D3
  8
CENTER
 10
2066.6858273182052
 20
1621.6089538408121
 30
0.0
 40
33.0
 50
195.485983999985
 51
223.24701299998009
  0
CIRCLE
  5
141D4
  8
0
 10
2066.6858273182052
 20
1654.6089538408121
 30
0.0
 40
6.0
  0
CIRCLE
  5
141D5
  8
0
 10
2095.2646653182051
 20
1638.1089538408121
 30
0.0
 40
6.0
  0
CIRCLE
  5
141D6
  8
0
 10
2095.2646653182051
 20
1605.1089538408121
 30
0.0
 40
6.0
  0
CIRCLE
  5
141D7
  8
0
 10
2066.6858273182052
 20
1588.6089538408121
 30
0.0
 40
6.0
  0
CIRCLE
  5
141D8
  8
0
 10
2038.106989318205
 20
1605.1089538408121
 30
0.0
 40
6.0
  0
CIRCLE
  5
141D9
  8
0
 10
2038.106989318205
 20
1638.1089538408121
 30
0.0
 40
6.0
  0
LINE
  5
141DA
  8
0
 10
2091.7263813182049
 20
1602.1399978408119
 30
0.0
 11
2096.066667318205
 21
1600.5602628408119
 31
0.0
  0
LINE
  5
141DB
  8
0
 10
2090.9244743182048
 20
1606.688133840812
 30
0.0
 11
2091.726536318205
 21
1602.139409840812
 31
0.0
  0
LINE
  5
141DC
  8
0
 10
2098.8029353182051
 20
1608.077316840812
 30
0.0
 11
2099.6049973182048
 21
1603.5285918408119
 31
0.0
  0
LINE
  5
141DD
  8
0
 10
2096.0671123182051
 20
1600.559655840812
 30
0.0
 11
2099.6053233182051
 21
1603.528567840812
 31
0.0
  0
LINE
  5
141DE
  8
0
 10
2090.924809318205
 20
1606.688012840812
 30
0.0
 11
2094.4630083182051
 21
1609.6569148408121
 31
0.0
  0
LINE
  5
141DF
  8
0
 10
2094.4625423182051
 20
1609.6575408408121
 30
0.0
 11
2098.8028283182039
 21
1608.0778068408119
 31
0.0
  0
LINE
  5
141E0
  8
0
 10
2063.1475423182051
 20
1585.6399978408119
 30
0.0
 11
2067.4878293182051
 21
1584.0602628408119
 31
0.0
  0
LINE
  5
141E1
  8
0
 10
2062.345635318205
 20
1590.188133840812
 30
0.0
 11
2063.1476973182048
 21
1585.639409840812
 31
0.0
  0
LINE
  5
141E2
  8
0
 10
2070.2240963182048
 20
1591.577316840812
 30
0.0
 11
2071.026158318205
 21
1587.0285918408119
 31
0.0
  0
LINE
  5
141E3
  8
0
 10
2067.4882743182052
 20
1584.059655840812
 30
0.0
 11
2071.026484318204
 21
1587.028567840812
 31
0.0
  0
LINE
  5
141E4
  8
0
 10
2062.3459703182039
 20
1590.188012840812
 30
0.0
 11
2065.8841693182039
 21
1593.1569148408121
 31
0.0
  0
LINE
  5
141E5
  8
0
 10
2065.883703318204
 20
1593.1575408408121
 30
0.0
 11
2070.2239903182049
 21
1591.5778068408119
 31
0.0
  0
LINE
  5
141E6
  8
0
 10
2034.5687043182049
 20
1602.1399978408119
 30
0.0
 11
2038.9089903182039
 21
1600.5602628408119
 31
0.0
  0
LINE
  5
141E7
  8
0
 10
2033.7667973182049
 20
1606.688133840812
 30
0.0
 11
2034.568859318204
 21
1602.139409840812
 31
0.0
  0
LINE
  5
141E8
  8
0
 10
2041.645258318204
 20
1608.077316840812
 30
0.0
 11
2042.447320318204
 21
1603.5285918408119
 31
0.0
  0
LINE
  5
141E9
  8
0
 10
2038.9094353182049
 20
1600.559655840812
 30
0.0
 11
2042.447646318205
 21
1603.528567840812
 31
0.0
  0
LINE
  5
141EA
  8
0
 10
2033.7671323182039
 20
1606.688012840812
 30
0.0
 11
2037.3053313182049
 21
1609.6569148408121
 31
0.0
  0
LINE
  5
141EB
  8
0
 10
2037.304865318205
 20
1609.6575408408121
 30
0.0
 11
2041.6451513182051
 21
1608.0778068408119
 31
0.0
  0
LINE
  5
141EC
  8
0
 10
2034.5687043182049
 20
1635.1399978408119
 30
0.0
 11
2038.9089903182039
 21
1633.5602628408119
 31
0.0
  0
LINE
  5
141ED
  8
0
 10
2033.7667973182049
 20
1639.688133840812
 30
0.0
 11
2034.568859318204
 21
1635.139409840812
 31
0.0
  0
LINE
  5
141EE
  8
0
 10
2041.645258318204
 20
1641.077316840812
 30
0.0
 11
2042.447320318204
 21
1636.5285918408119
 31
0.0
  0
LINE
  5
141EF
  8
0
 10
2038.9094353182049
 20
1633.559655840812
 30
0.0
 11
2042.447646318205
 21
1636.528567840812
 31
0.0
  0
LINE
  5
141F0
  8
0
 10
2033.7671323182039
 20
1639.688012840812
 30
0.0
 11
2037.3053313182049
 21
1642.6569148408121
 31
0.0
  0
LINE
  5
141F1
  8
0
 10
2037.304865318205
 20
1642.6575408408121
 30
0.0
 11
2041.6451513182051
 21
1641.0778068408119
 31
0.0
  0
LINE
  5
141F2
  8
0
 10
2063.1475423182051
 20
1651.6399978408119
 30
0.0
 11
2067.4878293182051
 21
1650.0602628408119
 31
0.0
  0
LINE
  5
141F3
  8
0
 10
2062.345635318205
 20
1656.188133840812
 30
0.0
 11
2063.1476973182048
 21
1651.639409840812
 31
0.0
  0
LINE
  5
141F4
  8
0
 10
2070.2240963182048
 20
1657.577316840812
 30
0.0
 11
2071.026158318205
 21
1653.0285918408119
 31
0.0
  0
LINE
  5
141F5
  8
0
 10
2067.4882743182052
 20
1650.059655840812
 30
0.0
 11
2071.026484318204
 21
1653.028567840812
 31
0.0
  0
LINE
  5
141F6
  8
0
 10
2062.3459703182039
 20
1656.188012840812
 30
0.0
 11
2065.8841693182039
 21
1659.1569148408121
 31
0.0
  0
LINE
  5
141F7
  8
0
 10
2065.883703318204
 20
1659.1575408408121
 30
0.0
 11
2070.2239903182049
 21
1657.5778068408119
 31
0.0
  0
LINE
  5
141F8
  8
0
 10
2091.7263813182049
 20
1635.1399978408119
 30
0.0
 11
2096.066667318205
 21
1633.5602628408119
 31
0.0
  0
LINE
  5
141F9
  8
0
 10
2090.9244743182048
 20
1639.688133840812
 30
0.0
 11
2091.726536318205
 21
1635.139409840812
 31
0.0
  0
LINE
  5
141FA
  8
0
 10
2098.8029353182051
 20
1641.077316840812
 30
0.0
 11
2099.6049973182048
 21
1636.5285918408119
 31
0.0
  0
LINE
  5
141FB
  8
0
 10
2096.0671123182051
 20
1633.559655840812
 30
0.0
 11
2099.6053233182051
 21
1636.528567840812
 31
0.0
  0
LINE
  5
141FC
  8
0
 10
2090.924809318205
 20
1639.688012840812
 30
0.0
 11
2094.4630083182051
 21
1642.6569148408121
 31
0.0
  0
LINE
  5
141FD
  8
0
 10
2094.4625423182051
 20
1642.6575408408121
 30
0.0
 11
2098.8028283182039
 21
1641.0778068408119
 31
0.0
  0
ARC
  5
141FE
  8
CENTER
 10
2066.6858273182052
 20
1621.6089538408121
 30
0.0
 40
33.0
 50
135.37543599998261
 51
163.51458099999519
  0
CIRCLE
  5
141FF
  8
0
 10
2066.6858273182052
 20
1621.6089538408121
 30
0.0
 40
23.0
  0
LINE
  5
14200
  8
CENTER
 10
2045.5138253182049
 20
1609.3852928408121
 30
0.0
 11
2030.537669318205
 21
1600.738804840812
 31
0.0
  0
LINE
  5
14201
  8
CENTER
 10
2088.344868318205
 20
1609.104100840812
 30
0.0
 11
2102.7607773182049
 21
1600.781071840812
 31
0.0
  0
LINE
  5
14202
  8
CENTER
 10
2044.854626318205
 20
1634.213203840812
 30
0.0
 11
2030.6895683182049
 21
1642.391403840812
 31
0.0
  0
LINE
  5
14203
  8
CENTER
 10
2088.477260318205
 20
1634.1902438408119
 30
0.0
 11
2102.0717043182049
 21
1642.038999840812
 31
0.0
  0
CIRCLE
  5
14204
  8
0
 10
2066.6858273182052
 20
1621.6089538408121
 30
0.0
 40
40.0
  0
ARC
  5
14205
  8
CENTER
 10
2066.6858273182052
 20
1621.6089538408121
 30
0.0
 40
50.0
 50
76.608049999989817
 51
102.9155509999746
  0
ARC
  5
14206
  8
CENTER
 10
2066.6858273182052
 20
1621.6089538408121
 30
0.0
 40
50.0
 50
31.144274000001818
 51
58.676745000004111
  0
ARC
  5
14207
  8
CENTER
 10
2066.6858273182052
 20
1621.6089538408121
 30
0.0
 40
50.0
 50
301.22760899997121
 51
328.65753399999232
  0
ARC
  5
14208
  8
CENTER
 10
2066.6858273182052
 20
1621.6089538408121
 30
0.0
 40
50.0
 50
256.20649100002612
 51
284.36892200001978
  0
ARC
  5
14209
  8
CENTER
 10
2066.6858273182052
 20
1621.6089538408121
 30
0.0
 40
50.0
 50
211.62926599999901
 51
238.59884500001661
  0
LINE
  5
1420A
  8
CENTER
 10
2039.823597318205
 20
1594.7467238408119
 30
0.0
 11
2022.095471318205
 21
1577.0185978408119
 31
0.0
  0
LINE
  5
1420B
  8
CENTER
 10
2039.5340333182039
 20
1648.760747840812
 30
0.0
 11
2022.2898303182051
 21
1666.0049508408119
 31
0.0
  0
LINE
  5
1420C
  8
CENTER
 10
2093.1682053182049
 20
1648.091331840812
 30
0.0
 11
2110.8960823182051
 21
1665.8192088408121
 31
0.0
  0
CIRCLE
  5
1420D
  8
0
 10
2066.6858273182052
 20
1571.6089538408121
 30
0.0
 40
5.5
  0
CIRCLE
  5
1420E
  8
0
 10
2066.6858273182052
 20
1571.6089538408121
 30
0.0
 40
8.75
  0
CIRCLE
  5
1420F
  8
0
 10
2102.0411663182049
 20
1586.2536148408119
 30
0.0
 40
5.5
  0
CIRCLE
  5
14210
  8
0
 10
2102.0411663182049
 20
1586.2536148408119
 30
0.0
 40
8.75
  0
CIRCLE
  5
14211
  8
0
 10
2031.330488318205
 20
1586.2536148408119
 30
0.0
 40
5.5
  0
CIRCLE
  5
14212
  8
0
 10
2031.330488318205
 20
1586.2536148408119
 30
0.0
 40
8.75
  0
CIRCLE
  5
14213
  8
0
 10
2031.330488318205
 20
1656.964292840812
 30
0.0
 40
5.5
  0
CIRCLE
  5
14214
  8
0
 10
2031.330488318205
 20
1656.964292840812
 30
0.0
 40
8.75
  0
CIRCLE
  5
14215
  8
0
 10
2066.6858273182052
 20
1671.6089538408121
 30
0.0
 40
5.5
  0
CIRCLE
  5
14216
  8
0
 10
2066.6858273182052
 20
1671.6089538408121
 30
0.0
 40
8.75
  0
CIRCLE
  5
14217
  8
0
 10
2102.0411663182049
 20
1656.964292840812
 30
0.0
 40
8.75
  0
CIRCLE
  5
14218
  8
0
 10
2102.0411663182049
 20
1656.964292840812
 30
0.0
 40
5.5
  0
ARC
  5
14219
  8
CENTER
 10
2066.6858273182052
 20
1621.6089538408121
 30
0.0
 40
50.0
 50
121.4404250000065
 51
147.92374499999821
  0
LINE
  5
1421A
  8
CENTER
 10
2093.845741318205
 20
1594.449039840812
 30
0.0
 11
2111.090193318204
 21
1577.2045878408121
 31
0.0
  0
ARC
  5
1421B
  8
0
 10
2066.6858273182052
 20
1621.6089538408121
 30
0.0
 40
61.0
 50
221.05335099999539
 51
318.94664900000458
  0
ARC
  5
1421C
  8
0
 10
2066.6858273182052
 20
1621.6089538408121
 30
0.0
 40
61.0
 50
41.053350999995423
 51
138.9466490000045
  0
LINE
  5
1421D
  8
0
 10
2112.6858273182052
 20
1581.5465028408121
 30
0.0
 11
2112.6858273182052
 21
1661.6714048408121
 31
0.0
  0
LINE
  5
1421E
  8
0
 10
2020.6858273182049
 20
1581.5465028408121
 30
0.0
 11
2020.6858273182049
 21
1661.6714048408121
 31
0.0
  0
ARC
  5
1421F
  8
0
 10
2066.6858273182052
 20
1621.6089538408121
 30
0.0
 40
19.0
 50
71.525352016555743
 51
108.4746479834442
  0
ARC
  5
14220
  8
0
 10
2066.6858273182052
 20
1621.6089538408121
 30
0.0
 40
19.0
 50
161.52535201660919
 51
198.4746479833907
  0
ARC
  5
14221
  8
0
 10
2066.6858273182052
 20
1621.6089538408121
 30
0.0
 40
19.0
 50
251.52535201655579
 51
288.4746479834443
  0
ARC
  5
14222
  8
0
 10
2066.6858273182052
 20
1621.6089538408121
 30
0.0
 40
19.0
 50
341.5253520166093
 51
18.47464798339071
  0
POLYLINE
  5
14223
  8
0
 66
     1
 10
0.0
 20
0.0
 30
0.0
  0
VERTEX
  5
143E0
  8
0
 10
2060.6650120380318
 20
1639.629769120982
 30
0.0
  0
VERTEX
  5
143E1
  8
0
 10
2048.6650120380332
 20
1627.6297691209841
 30
0.0
  0
SEQEND
  5
143E2
  8
0
  0
POLYLINE
  5
14224
  8
0
 66
     1
 10
0.0
 20
0.0
 30
0.0
  0
VERTEX
  5
143E3
  8
0
 10
2048.6650120380332
 20
1615.5881385606399
 30
0.0
  0
VERTEX
  5
143E4
  8
0
 10
2060.6650120380318
 20
1603.5881385606399
 30
0.0
  0
SEQEND
  5
143E5
  8
0
  0
POLYLINE
  5
14225
  8
0
 66
     1
 10
0.0
 20
0.0
 30
0.0
  0
VERTEX
  5
143E6
  8
0
 10
2072.7066425983762
 20
1603.5881385606399
 30
0.0
  0
VERTEX
  5
143E7
  8
0
 10
2084.7066425983762
 20
1615.588138560639
 30
0.0
  0
SEQEND
  5
143E8
  8
0
  0
POLYLINE
  5
14226
  8
0
 66
     1
 10
0.0
 20
0.0
 30
0.0
  0
VERTEX
  5
143E9
  8
0
 10
2084.7066425983762
 20
1627.629769120982
 30
0.0
  0
VERTEX
  5
143EA
  8
0
 10
2072.7066425983762
 20
1639.62976912098
 30
0.0
  0
SEQEND
  5
143EB
  8
0
  0
ARC
  5
14227
  8
HIDE
 10
2066.6858273182052
 20
1621.6089538408121
 30
0.0
 40
12.5
 50
270.0
 51
180.0
  0
CIRCLE
  5
14228
  8
0
 10
2066.6858273182052
 20
1621.6089538408121
 30
0.0
 40
11.75
  0
LINE
  5
14229
  8
HIDE
 10
2063.6858273182052
 20
1640.3706168801059
 30
0.0
 11
2063.6858273182052
 21
1632.969521608313
 31
0.0
  0
LINE
  5
1422A
  8
HIDE
 10
2064.1858273182052
 20
1640.443762042649
 30
0.0
 11
2064.1858273182052
 21
1633.089916344017
 31
0.0
  0
LINE
  5
1422B
  8
HIDE
 10
2069.6858273182052
 20
1640.3706168801059
 30
0.0
 11
2069.6858273182052
 21
1632.9695216083139
 31
0.0
  0
LINE
  5
1422C
  8
HIDE
 10
2069.1858273182052
 20
1640.443762042649
 30
0.0
 11
2069.1858273182052
 21
1633.089916344017
 31
0.0
  0
LINE
  5
1422D
  8
HIDE
 10
2063.6858273182052
 20
1640.313708147004
 30
0.0
 11
2069.6858273182052
 21
1640.313708147004
 31
0.0
  0
LINE
  5
1422E
  8
HIDE
 10
2063.6858273182052
 20
1635.3137081470049
 30
0.0
 11
2069.6858273182052
 21
1635.3137081470049
 31
0.0
  0
LINE
  5
1422F
  8
HIDE
 10
2063.6858273182052
 20
1635.3137081470049
 30
0.0
 11
2064.1858273182052
 21
1635.0250330124099
 31
0.0
  0
LINE
  5
14230
  8
HIDE
 10
2069.6858273182052
 20
1635.3137081470049
 30
0.0
 11
2069.1858273182052
 21
1635.0250330124099
 31
0.0
  0
LINE
  5
14231
  8
HIDE
 10
2069.1858273182052
 20
1635.0250330124099
 30
0.0
 11
2064.1858273182052
 21
1635.0250330124099
 31
0.0
  0
LINE
  5
14232
  8
HIDE
 10
2063.6858273182052
 20
1602.8472908015181
 30
0.0
 11
2063.6858273182052
 21
1610.2483860733109
 31
0.0
  0
LINE
  5
14233
  8
HIDE
 10
2064.1858273182052
 20
1602.774145638974
 30
0.0
 11
2064.1858273182052
 21
1610.127991337607
 31
0.0
  0
LINE
  5
14234
  8
HIDE
 10
2069.6858273182052
 20
1602.8472908015181
 30
0.0
 11
2069.6858273182052
 21
1610.24838607331
 31
0.0
  0
LINE
  5
14235
  8
HIDE
 10
2069.1858273182052
 20
1602.774145638974
 30
0.0
 11
2069.1858273182052
 21
1610.127991337607
 31
0.0
  0
LINE
  5
14236
  8
HIDE
 10
2063.6858273182052
 20
1602.904199534619
 30
0.0
 11
2069.6858273182052
 21
1602.904199534619
 31
0.0
  0
LINE
  5
14237
  8
HIDE
 10
2063.6858273182052
 20
1607.904199534619
 30
0.0
 11
2069.6858273182052
 21
1607.904199534619
 31
0.0
  0
LINE
  5
14238
  8
HIDE
 10
2063.6858273182052
 20
1607.904199534619
 30
0.0
 11
2064.1858273182052
 21
1608.1928746692131
 31
0.0
  0
LINE
  5
14239
  8
HIDE
 10
2069.6858273182052
 20
1607.904199534619
 30
0.0
 11
2069.1858273182052
 21
1608.1928746692131
 31
0.0
  0
LINE
  5
1423A
  8
HIDE
 10
2069.1858273182052
 20
1608.1928746692131
 30
0.0
 11
2064.1858273182052
 21
1608.1928746692131
 31
0.0
  0
LINE
  5
1423B
  8
CENTER
 10
2014.6858273182049
 20
1621.6089538408121
 30
0.0
 11
2118.6858273182052
 21
1621.6089538408121
 31
0.0
  0
LINE
  5
1423C
  8
CENTER
 10
2066.6858273182052
 20
1554.6089538408121
 30
0.0
 11
2066.6858273182052
 21
1688.6089538408121
 31
0.0
  0
ENDSEC
  0
EOF
