  0
SECTION
  2
HEADER
  9
$ACADVER
  1
AC1009
  9
$INSBASE
 10
0.0
 20
0.0
 30
0.0
  9
$EXTMIN
 10
1903.0405749290021
 20
1433.173578249188
 30
0.0
  9
$EXTMAX
 10
2376.539545885973
 20
1748.173578249188
 30
0.0
  9
$LIMMIN
 10
0.0
 20
0.0
  9
$LIMMAX
 10
12.0
 20
9.0
  9
$ORTHOMODE
 70
     1
  9
$REGENMODE
 70
     1
  9
$FILLMODE
 70
     1
  9
$QTEXTMODE
 70
     0
  9
$MIRRTEXT
 70
     0
  9
$DRAGMODE
 70
     2
  9
$LTSCALE
 40
5.0
  9
$OSMODE
 70
  2239
  9
$ATTMODE
 70
     1
  9
$TEXTSIZE
 40
2.5
  9
$TRACEWID
 40
0.05
  9
$TEXTSTYLE
  7
BIG
  9
$CLAYER
  8
0
  9
$CELTYPE
  6
BYLAYER
  9
$CECOLOR
 62
   256
  9
$DIMSCALE
 40
1.0
  9
$DIMASZ
 40
3.0
  9
$DIMEXO
 40
1.0
  9
$DIMDLI
 40
0.0
  9
$DIMRND
 40
0.0
  9
$DIMDLE
 40
0.0
  9
$DIMEXE
 40
1.0
  9
$DIMTP
 40
0.0
  9
$DIMTM
 40
0.0
  9
$DIMTXT
 40
3.0
  9
$DIMCEN
 40
0.0
  9
$DIMTSZ
 40
0.0
  9
$DIMTOL
 70
     0
  9
$DIMLIM
 70
     0
  9
$DIMTIH
 70
     0
  9
$DIMTOH
 70
     0
  9
$DIMSE1
 70
     0
  9
$DIMSE2
 70
     0
  9
$DIMTAD
 70
     1
  9
$DIMZIN
 70
     8
  9
$DIMBLK
  1

  9
$DIMASO
 70
     1
  9
$DIMSHO
 70
     1
  9
$DIMPOST
  1

  9
$DIMAPOST
  1

  9
$DIMALT
 70
     0
  9
$DIMALTD
 70
     2
  9
$DIMALTF
 40
25.399999999999999
  9
$DIMLFAC
 40
1.0
  9
$DIMTOFL
 70
     1
  9
$DIMTVP
 40
0.0
  9
$DIMTIX
 70
     1
  9
$DIMSOXD
 70
     0
  9
$DIMSAH
 70
     0
  9
$DIMBLK1
  1

  9
$DIMBLK2
  1

  9
$DIMSTYLE
  2
DUKITEC
  9
$DIMCLRD
 70
     5
  9
$DIMCLRE
 70
     5
  9
$DIMCLRT
 70
     0
  9
$DIMTFAC
 40
1.0
  9
$DIMGAP
 40
1.0
  9
$LUNITS
 70
     2
  9
$LUPREC
 70
     4
  9
$SKETCHINC
 40
0.1
  9
$FILLETRAD
 40
0.2
  9
$AUNITS
 70
     0
  9
$AUPREC
 70
     0
  9
$MENU
  1
.
  9
$ELEVATION
 40
0.0
  9
$PELEVATION
 40
0.0
  9
$THICKNESS
 40
0.0
  9
$LIMCHECK
 70
     0
  9
$BLIPMODE
 70
     0
  9
$CHAMFERA
 40
0.5
  9
$CHAMFERB
 40
0.5
  9
$SKPOLY
 70
     0
  9
$TDCREATE
 40
2454396.7474263888
  9
$TDUPDATE
 40
2456631.41869338
  9
$TDINDWG
 40
0.0035139352
  9
$TDUSRTIMER
 40
0.0035136458
  9
$USRTIMER
 70
     1
  9
$ANGBASE
 50
0.0
  9
$ANGDIR
 70
     0
  9
$PDMODE
 70
     0
  9
$PDSIZE
 40
0.0
  9
$PLINEWID
 40
0.0
  9
$COORDS
 70
     1
  9
$SPLFRAME
 70
     0
  9
$SPLINETYPE
 70
     6
  9
$SPLINESEGS
 70
     8
  9
$ATTDIA
 70
     0
  9
$ATTREQ
 70
     1
  9
$HANDLING
 70
     1
  9
$HANDSEED
  5
14411
  9
$SURFTAB1
 70
     6
  9
$SURFTAB2
 70
     6
  9
$SURFTYPE
 70
     6
  9
$SURFU
 70
     6
  9
$SURFV
 70
     6
  9
$UCSNAME
  2

  9
$UCSORG
 10
0.0
 20
0.0
 30
0.0
  9
$UCSXDIR
 10
1.0
 20
0.0
 30
0.0
  9
$UCSYDIR
 10
0.0
 20
1.0
 30
0.0
  9
$PUCSNAME
  2

  9
$PUCSORG
 10
0.0
 20
0.0
 30
0.0
  9
$PUCSXDIR
 10
1.0
 20
0.0
 30
0.0
  9
$PUCSYDIR
 10
0.0
 20
1.0
 30
0.0
  9
$USERI1
 70
     0
  9
$USERI2
 70
     0
  9
$USERI3
 70
     0
  9
$USERI4
 70
     0
  9
$USERI5
 70
     0
  9
$USERR1
 40
0.0
  9
$USERR2
 40
0.0
  9
$USERR3
 40
0.0
  9
$USERR4
 40
0.0
  9
$USERR5
 40
0.0
  9
$WORLDVIEW
 70
     1
  9
$SHADEDGE
 70
     3
  9
$SHADEDIF
 70
    70
  9
$TILEMODE
 70
     1
  9
$MAXACTVP
 70
    64
  9
$PLIMCHECK
 70
     0
  9
$PEXTMIN
 10
0.0
 20
0.0
 30
0.0
  9
$PEXTMAX
 10
0.0
 20
0.0
 30
0.0
  9
$PLIMMIN
 10
0.0
 20
0.0
  9
$PLIMMAX
 10
12.0
 20
9.0
  9
$UNITMODE
 70
     0
  9
$VISRETAIN
 70
     1
  9
$PLINEGEN
 70
     0
  9
$PSLTSCALE
 70
     1
  0
ENDSEC
  0
SECTION
  2
TABLES
  0
TABLE
  2
VPORT
 70
     1
  0
VPORT
  2
*ACTIVE
 70
     0
 10
0.0
 20
0.0
 11
1.0
 21
1.0
 12
2092.2309283844502
 22
1585.801690214352
 13
0.0
 23
0.0
 14
0.5
 24
0.5
 15
0.5
 25
0.5
 16
0.0
 26
0.0
 36
1.0
 17
0.0
 27
0.0
 37
0.0
 40
252.89907919434751
 41
2.2309552599758158
 42
50.0
 43
0.0
 44
0.0
 50
0.0
 51
0.0
 71
     0
 72
  2000
 73
     1
 74
     3
 75
     0
 76
     0
 77
     0
 78
     0
  0
ENDTAB
  0
TABLE
  2
LTYPE
 70
     5
  0
LTYPE
  2
CONTINUOUS
 70
     0
  3
Solid line
 72
    65
 73
     0
 40
0.0
  0
LTYPE
  2
PHANTOM2
 70
     0
  3
Phantom (.5x) ___ _ _ ___ _ _ ___ _ _ ___ _ _
 72
    65
 73
     6
 40
1.25
 49
0.625
 49
-0.125
 49
0.125
 49
-0.125
 49
0.125
 49
-0.125
  0
LTYPE
  2
CENTER
 70
     0
  3
___ _ ___ _ ___ _ ___ _ ___ _ ___ _ ___ _ ___ _
 72
    65
 73
     4
 40
0.95
 49
0.625
 49
-0.125
 49
0.075
 49
-0.125
  0
LTYPE
  2
DASHED2
 70
     0
  3
Dashed (.5x) _ _ _ _ _ _ _ _ _ _ _ _ _ _ _ _ _
 72
    65
 73
     2
 40
0.375
 49
0.25
 49
-0.125
  0
ENDTAB
  0
TABLE
  2
LAYER
 70
     5
  0
LAYER
  2
0
 70
     0
 62
     7
  6
CONTINUOUS
  0
LAYER
  2
HIDE
 70
     0
 62
     1
  6
DASHED2
  0
LAYER
  2
CENTER
 70
     0
 62
     3
  6
CENTER
  0
ENDTAB
  0
TABLE
  2
STYLE
 70
     3
  0
STYLE
  2
STANDARD
 70
     0
 40
5.0
 41
1.0
 50
0.0
 71
     0
 42
5.0
  3
txt.shx
  4
whgtxt.shx
  0
STYLE
  2
BIG
 70
     0
 40
20.0
 41
1.0
 50
0.0
 71
     0
 42
2.5
  3
txt
  4

  0
ENDTAB
  0
TABLE
  2
VIEW
 70
     0
  0
ENDTAB
  0
TABLE
  2
UCS
 70
     0
  0
ENDTAB
  0
TABLE
  2
APPID
 70
    11
  0
APPID
  2
ACAD
 70
     0
  0
APPID
  2
ACADANNOTATIVE
 70
     0
  0
APPID
  2
ACAD_EXEMPT_FROM_CAD_STANDARDS
 70
     0
  0
APPID
  2
ACAD_DSTYLE_DIMJOGGED_JOGA
 70
     0
  0
APPID
  2
ACAD_PSEXT
 70
     0
  0
APPID
  2
ACAECLAYERSTANDARD
 70
     0
  0
APPID
  2
DCO15
 70
     0
  0
APPID
  2
CONTENTBLOCKICON
 70
     0
  0
APPID
  2
ACAD_NAV_VCDISPLAY
 70
     0
  0
APPID
  2
ACAD_DSTYLE_DIMRADIAL_EXTENSION
 70
     0
  0
APPID
  2
ACAD_MLEADERVER
 70
     0
  0
ENDTAB
  0
TABLE
  2
DIMSTYLE
 70
     4
  0
DIMSTYLE
  2
DUKITEC
 70
     0
  3

  4

  5

  6

  7

 40
1.0
 41
3.0
 42
1.0
 43
0.0
 44
1.0
 45
0.0
 46
0.0
 47
0.0
 48
0.0
140
3.0
141
0.0
142
0.0
143
25.399999999999999
144
1.0
145
0.0
146
1.0
147
1.0
 71
     0
 72
     0
 73
     0
 74
     0
 75
     0
 76
     0
 77
     1
 78
     8
170
     0
171
     2
172
     1
173
     0
174
     1
175
     0
176
     5
177
     5
178
     0
  0
ENDTAB
  0
ENDSEC
  0
SECTION
  2
BLOCKS
  0
BLOCK
  8
0
  2
$MODEL_SPACE
 70
     0
 10
0.0
 20
0.0
 30
0.0
  3
$MODEL_SPACE
  1

  0
ENDBLK
  5
140E1
  8
0
  0
BLOCK
 67
     1
  8
0
  2
$PAPER_SPACE
 70
     0
 10
0.0
 20
0.0
 30
0.0
  3
$PAPER_SPACE
  1

  0
ENDBLK
  5
140DD
 67
     1
  8
0
  0
ENDSEC
  0
SECTION
  2
ENTITIES
  0
TEXT
  5
14041
  8
0
 10
2036.4442730674009
 20
1502.8129774280981
 30
0.0
 40
20.0
  1
FK 25DFD
  7
BIG
  0
LINE
  5
140FD
  8
CENTER
 10
2020.4091989375411
 20
1549.2183340509489
 30
0.0
 11
2020.4091989375411
 21
1681.2183340509489
 31
0.0
  0
LINE
  5
140FE
  8
0
 10
1974.4091989375411
 20
1575.1558830509489
 30
0.0
 11
1974.4091989375411
 21
1655.2807850509489
 31
0.0
  0
LINE
  5
140FF
  8
0
 10
2066.4091989375411
 20
1575.1558830509489
 30
0.0
 11
2066.4091989375411
 21
1655.2807850509489
 31
0.0
  0
CIRCLE
  5
14100
  8
0
 10
2020.4091989375411
 20
1615.2183340509489
 30
0.0
 40
40.0
  0
CIRCLE
  5
14101
  8
0
 10
2020.4091989375411
 20
1615.2183340509489
 30
0.0
 40
23.0
  0
ARC
  5
14102
  8
0
 10
2020.4091989375411
 20
1615.2183340509489
 30
0.0
 40
61.0
 50
221.05335099999539
 51
318.94664900000458
  0
CIRCLE
  5
14103
  8
0
 10
2020.4091989375411
 20
1565.2183340509489
 30
0.0
 40
8.75
  0
ARC
  5
14104
  8
CENTER
 10
2020.4091989375411
 20
1615.2183340509489
 30
0.0
 40
50.0
 50
256.20649100002612
 51
284.36892200001978
  0
ARC
  5
14105
  8
CENTER
 10
2020.4091989375411
 20
1615.2183340509489
 30
0.0
 40
33.0
 50
255.96394699998859
 51
285.26651499998951
  0
CIRCLE
  5
14106
  8
0
 10
1985.0538599375409
 20
1579.8629950509489
 30
0.0
 40
8.75
  0
LINE
  5
14107
  8
CENTER
 10
1993.546968937542
 20
1588.3561040509489
 30
0.0
 11
1975.81884293754
 21
1570.627978050949
 31
0.0
  0
ARC
  5
14108
  8
CENTER
 10
2020.4091989375411
 20
1615.2183340509489
 30
0.0
 40
50.0
 50
211.62926600002379
 51
238.59884500001661
  0
CIRCLE
  5
14109
  8
0
 10
1991.8303609375389
 20
1598.7183340509489
 30
0.0
 40
6.0
  0
ARC
  5
1410A
  8
CENTER
 10
2020.4091989375411
 20
1615.2183340509489
 30
0.0
 40
33.0
 50
195.48598399998849
 51
223.24701299998009
  0
CIRCLE
  5
1410B
  8
0
 10
1985.0538599375409
 20
1579.8629950509489
 30
0.0
 40
5.5
  0
LINE
  5
1410C
  8
CENTER
 10
1999.2371969375411
 20
1602.9946730509489
 30
0.0
 11
1984.2610409375411
 21
1594.348185050949
 31
0.0
  0
LINE
  5
1410D
  8
0
 10
1991.0282369375409
 20
1603.2669210509489
 30
0.0
 11
1995.3685229375401
 21
1601.687187050949
 31
0.0
  0
LINE
  5
1410E
  8
0
 10
1992.6328069375411
 20
1594.169036050949
 30
0.0
 11
1996.17101793754
 21
1597.137948050949
 31
0.0
  0
LINE
  5
1410F
  8
0
 10
1987.4901689375399
 20
1600.2975140509479
 30
0.0
 11
1988.2922309375399
 21
1595.7487900509491
 31
0.0
  0
LINE
  5
14110
  8
0
 10
1988.2920759375411
 20
1595.749378050949
 30
0.0
 11
1992.6323619375389
 21
1594.1696430509489
 31
0.0
  0
LINE
  5
14111
  8
0
 10
1987.4905039375401
 20
1600.2973930509479
 30
0.0
 11
1991.0287029375411
 21
1603.2662950509491
 31
0.0
  0
LINE
  5
14112
  8
0
 10
1995.3686299375399
 20
1601.6866970509491
 30
0.0
 11
1996.1706919375411
 21
1597.137972050949
 31
0.0
  0
LINE
  5
14113
  8
CENTER
 10
2047.5691129375409
 20
1588.0584200509491
 30
0.0
 11
2064.8135649375399
 21
1570.8139680509489
 31
0.0
  0
CIRCLE
  5
14114
  8
0
 10
2055.7645379375408
 20
1579.8629950509489
 30
0.0
 40
8.75
  0
ARC
  5
14115
  8
CENTER
 10
2020.4091989375411
 20
1615.2183340509489
 30
0.0
 40
50.0
 50
301.22760899997121
 51
328.65753399999232
  0
CIRCLE
  5
14116
  8
0
 10
2020.4091989375411
 20
1565.2183340509489
 30
0.0
 40
5.5
  0
CIRCLE
  5
14117
  8
0
 10
2055.7645379375408
 20
1579.8629950509489
 30
0.0
 40
5.5
  0
LINE
  5
14118
  8
CENTER
 10
2042.0682399375401
 20
1602.713481050949
 30
0.0
 11
2056.4841489375422
 21
1594.3904520509491
 31
0.0
  0
LINE
  5
14119
  8
0
 10
2049.7904839375401
 20
1594.169036050949
 30
0.0
 11
2053.328694937542
 21
1597.137948050949
 31
0.0
  0
LINE
  5
1411A
  8
0
 10
2052.5263069375419
 20
1601.6866970509491
 30
0.0
 11
2053.3283689375421
 21
1597.137972050949
 31
0.0
  0
CIRCLE
  5
1411B
  8
0
 10
2048.9880369375419
 20
1598.7183340509489
 30
0.0
 40
6.0
  0
ARC
  5
1411C
  8
CENTER
 10
2020.4091989375411
 20
1615.2183340509489
 30
0.0
 40
33.0
 50
315.74692800001731
 51
344.76496800001621
  0
LINE
  5
1411D
  8
0
 10
2023.9474679375419
 20
1585.1866970509491
 30
0.0
 11
2024.74952993754
 21
1580.637972050949
 31
0.0
  0
LINE
  5
1411E
  8
0
 10
2016.069006937541
 20
1583.7975140509491
 30
0.0
 11
2016.87106893754
 21
1579.2487900509491
 31
0.0
  0
CIRCLE
  5
1411F
  8
0
 10
2020.4091989375411
 20
1582.2183340509489
 30
0.0
 40
6.0
  0
LINE
  5
14120
  8
0
 10
2021.2116459375411
 20
1577.669036050949
 30
0.0
 11
2024.749855937542
 21
1580.637948050949
 31
0.0
  0
LINE
  5
14121
  8
0
 10
2016.8709139375419
 20
1579.249378050949
 30
0.0
 11
2021.211200937541
 21
1577.6696430509489
 31
0.0
  0
LINE
  5
14122
  8
0
 10
2019.607074937541
 20
1586.7669210509489
 30
0.0
 11
2023.9473619375419
 21
1585.187187050949
 31
0.0
  0
LINE
  5
14123
  8
0
 10
2016.069341937542
 20
1583.7973930509479
 30
0.0
 11
2019.607540937541
 21
1586.7662950509491
 31
0.0
  0
LINE
  5
14124
  8
0
 10
2044.647845937541
 20
1600.2975140509479
 30
0.0
 11
2045.4499079375421
 21
1595.7487900509491
 31
0.0
  0
LINE
  5
14125
  8
0
 10
2045.4497529375401
 20
1595.749378050949
 30
0.0
 11
2049.7900389375409
 21
1594.1696430509489
 31
0.0
  0
LINE
  5
14126
  8
0
 10
2048.185913937541
 20
1603.2669210509489
 30
0.0
 11
2052.5261999375398
 21
1601.687187050949
 31
0.0
  0
LINE
  5
14127
  8
0
 10
2044.64818093754
 20
1600.2973930509479
 30
0.0
 11
2048.1863799375419
 21
1603.2662950509491
 31
0.0
  0
ARC
  5
14128
  8
CENTER
 10
2020.4091989375411
 20
1615.2183340509489
 30
0.0
 40
33.0
 50
75.580268000018037
 51
103.93967100000459
  0
LINE
  5
14129
  8
CENTER
 10
1968.4091989375411
 20
1615.2183340509489
 30
0.0
 11
2072.4091989375411
 21
1615.2183340509489
 31
0.0
  0
ARC
  5
1412A
  8
0
 10
2020.4091989375411
 20
1615.2183340509489
 30
0.0
 40
61.0
 50
41.053350999995423
 51
138.9466490000045
  0
CIRCLE
  5
1412B
  8
0
 10
2020.4091989375411
 20
1665.2183340509489
 30
0.0
 40
8.75
  0
ARC
  5
1412C
  8
CENTER
 10
2020.4091989375411
 20
1615.2183340509489
 30
0.0
 40
50.0
 50
76.608049999989831
 51
102.9155509999746
  0
ARC
  5
1412D
  8
CENTER
 10
2020.4091989375411
 20
1615.2183340509489
 30
0.0
 40
50.0
 50
121.44042499999971
 51
147.9237449999803
  0
CIRCLE
  5
1412E
  8
0
 10
1985.0538599375409
 20
1650.5736730509491
 30
0.0
 40
8.75
  0
LINE
  5
1412F
  8
CENTER
 10
1993.2574049375401
 20
1642.370128050949
 30
0.0
 11
1976.013201937541
 21
1659.614331050949
 31
0.0
  0
LINE
  5
14130
  8
CENTER
 10
1998.57799793754
 20
1627.822584050949
 30
0.0
 11
1984.4129399375411
 21
1636.0007840509491
 31
0.0
  0
ARC
  5
14131
  8
CENTER
 10
2020.4091989375411
 20
1615.2183340509489
 30
0.0
 40
33.0
 50
135.37543599998261
 51
163.51458099996651
  0
LINE
  5
14132
  8
0
 10
1991.0282369375409
 20
1636.2669210509489
 30
0.0
 11
1995.3685229375401
 21
1634.687187050949
 31
0.0
  0
LINE
  5
14133
  8
0
 10
1987.4905039375401
 20
1633.297393050949
 30
0.0
 11
1991.0287029375411
 21
1636.2662950509491
 31
0.0
  0
CIRCLE
  5
14134
  8
0
 10
1991.8303609375389
 20
1631.7183340509489
 30
0.0
 40
6.0
  0
LINE
  5
14135
  8
0
 10
1992.6328069375411
 20
1627.169036050949
 30
0.0
 11
1996.17101793754
 21
1630.137948050949
 31
0.0
  0
LINE
  5
14136
  8
0
 10
1987.4901689375399
 20
1633.2975140509491
 30
0.0
 11
1988.2922309375399
 21
1628.7487900509491
 31
0.0
  0
LINE
  5
14137
  8
0
 10
1988.2920759375411
 20
1628.749378050949
 30
0.0
 11
1992.6323619375389
 21
1627.1696430509489
 31
0.0
  0
LINE
  5
14138
  8
0
 10
1995.3686299375399
 20
1634.6866970509491
 30
0.0
 11
1996.1706919375411
 21
1630.137972050949
 31
0.0
  0
CIRCLE
  5
14139
  8
0
 10
1985.0538599375409
 20
1650.5736730509491
 30
0.0
 40
5.5
  0
CIRCLE
  5
1413A
  8
0
 10
2055.7645379375408
 20
1650.5736730509491
 30
0.0
 40
8.75
  0
LINE
  5
1413B
  8
CENTER
 10
2046.891576937541
 20
1641.7007120509491
 30
0.0
 11
2064.619453937541
 21
1659.4285890509491
 31
0.0
  0
ARC
  5
1413C
  8
CENTER
 10
2020.4091989375411
 20
1615.2183340509489
 30
0.0
 40
50.0
 50
31.14427400001297
 51
58.676745000004111
  0
CIRCLE
  5
1413D
  8
0
 10
2055.7645379375408
 20
1650.5736730509491
 30
0.0
 40
5.5
  0
LINE
  5
1413E
  8
CENTER
 10
2042.2006319375409
 20
1627.799624050949
 30
0.0
 11
2055.7950759375408
 21
1635.6483800509479
 31
0.0
  0
LINE
  5
1413F
  8
0
 10
2049.7904839375401
 20
1627.169036050949
 30
0.0
 11
2053.328694937542
 21
1630.137948050949
 31
0.0
  0
LINE
  5
14140
  8
0
 10
2052.5263069375419
 20
1634.6866970509491
 30
0.0
 11
2053.3283689375421
 21
1630.137972050949
 31
0.0
  0
CIRCLE
  5
14141
  8
0
 10
2048.9880369375419
 20
1631.7183340509489
 30
0.0
 40
6.0
  0
LINE
  5
14142
  8
0
 10
2048.185913937541
 20
1636.2669210509489
 30
0.0
 11
2052.5261999375398
 21
1634.687187050949
 31
0.0
  0
LINE
  5
14143
  8
0
 10
2044.64818093754
 20
1633.297393050949
 30
0.0
 11
2048.1863799375419
 21
1636.2662950509491
 31
0.0
  0
ARC
  5
14144
  8
CENTER
 10
2020.4091989375411
 20
1615.2183340509489
 30
0.0
 40
33.0
 50
15.6977680000006
 51
43.837381999963668
  0
LINE
  5
14145
  8
0
 10
2044.647845937541
 20
1633.2975140509491
 30
0.0
 11
2045.4499079375421
 21
1628.7487900509491
 31
0.0
  0
LINE
  5
14146
  8
0
 10
2045.4497529375401
 20
1628.749378050949
 30
0.0
 11
2049.7900389375409
 21
1627.1696430509489
 31
0.0
  0
LINE
  5
14147
  8
0
 10
2021.2116459375411
 20
1643.669036050949
 30
0.0
 11
2024.749855937542
 21
1646.637948050949
 31
0.0
  0
LINE
  5
14148
  8
0
 10
2016.069006937541
 20
1649.7975140509491
 30
0.0
 11
2016.87106893754
 21
1645.2487900509491
 31
0.0
  0
CIRCLE
  5
14149
  8
0
 10
2020.4091989375411
 20
1648.2183340509489
 30
0.0
 40
6.0
  0
LINE
  5
1414A
  8
0
 10
2016.8709139375419
 20
1645.249378050949
 30
0.0
 11
2021.211200937541
 21
1643.6696430509489
 31
0.0
  0
LINE
  5
1414B
  8
0
 10
2019.607074937541
 20
1652.7669210509489
 30
0.0
 11
2023.9473619375419
 21
1651.187187050949
 31
0.0
  0
LINE
  5
1414C
  8
0
 10
2016.069341937542
 20
1649.797393050949
 30
0.0
 11
2019.607540937541
 21
1652.766295050948
 31
0.0
  0
LINE
  5
1414D
  8
0
 10
2023.9474679375419
 20
1651.1866970509491
 30
0.0
 11
2024.74952993754
 21
1646.637972050949
 31
0.0
  0
LINE
  5
1414E
  8
0
 10
2055.7950759375408
 20
1635.6483800509479
 30
0.0
 11
2055.8129349375422
 21
1635.658690050949
 31
0.0
  0
CIRCLE
  5
1414F
  8
0
 10
2020.4091989375411
 20
1665.2183340509489
 30
0.0
 40
5.5
  0
LINE
  5
1416F
  8
CENTER
 10
2153.5893147957222
 20
1565.2183340509489
 30
0.0
 11
2175.578860612779
 21
1565.2183340509489
 31
0.0
  0
LINE
  5
14170
  8
HIDE
 10
2168.053162988876
 20
1559.7183340509489
 30
0.0
 11
2172.053162988876
 21
1559.7183340509489
 31
0.0
  0
LINE
  5
14171
  8
HIDE
 10
2168.053162988876
 20
1570.7183340509489
 30
0.0
 11
2172.053162988876
 21
1570.7183340509489
 31
0.0
  0
LINE
  5
14172
  8
HIDE
 10
2157.053162988876
 20
1556.4683340509489
 30
0.0
 11
2168.053162988876
 21
1556.4683340509489
 31
0.0
  0
LINE
  5
14173
  8
HIDE
 10
2157.053162988876
 20
1573.9683340509489
 30
0.0
 11
2168.053162988876
 21
1573.9683340509489
 31
0.0
  0
LINE
  5
14174
  8
HIDE
 10
2168.053162988876
 20
1556.4683340509489
 30
0.0
 11
2168.053162988876
 21
1573.9683340509489
 31
0.0
  0
LINE
  5
14175
  8
HIDE
 10
2168.053162988876
 20
1673.9683340509489
 30
0.0
 11
2168.053162988876
 21
1656.4683340509489
 31
0.0
  0
LINE
  5
14176
  8
HIDE
 10
2157.053162988876
 20
1656.4683340509489
 30
0.0
 11
2168.053162988876
 21
1656.4683340509489
 31
0.0
  0
LINE
  5
14177
  8
HIDE
 10
2157.053162988876
 20
1673.9683340509489
 30
0.0
 11
2168.053162988876
 21
1673.9683340509489
 31
0.0
  0
LINE
  5
14178
  8
HIDE
 10
2168.053162988876
 20
1659.7183340509489
 30
0.0
 11
2172.053162988876
 21
1659.7183340509489
 31
0.0
  0
LINE
  5
14179
  8
HIDE
 10
2168.053162988876
 20
1670.7183340509489
 30
0.0
 11
2172.053162988876
 21
1670.7183340509489
 31
0.0
  0
LINE
  5
1417A
  8
0
 10
2145.053162988876
 20
1575.2183340509489
 30
0.0
 11
2157.053162988876
 21
1575.2183340509489
 31
0.0
  0
LINE
  5
1417B
  8
0
 10
2145.053162988876
 20
1655.2183340509489
 30
0.0
 11
2157.053162988876
 21
1655.2183340509489
 31
0.0
  0
LINE
  5
1417C
  8
0
 10
2157.053162988876
 20
1676.2183340509489
 30
0.0
 11
2172.053162988876
 21
1676.2183340509489
 31
0.0
  0
LINE
  5
1417D
  8
0
 10
2157.053162988876
 20
1554.2183340509489
 30
0.0
 11
2172.053162988876
 21
1554.2183340509489
 31
0.0
  0
LINE
  5
1417E
  8
0
 10
2214.053162988876
 20
1655.2183380509489
 30
0.0
 11
2172.053162988876
 21
1655.2183380509489
 31
0.0
  0
LINE
  5
1417F
  8
CENTER
 10
2153.5893147957222
 20
1665.2183340509489
 30
0.0
 11
2175.578860612779
 21
1665.2183340509489
 31
0.0
  0
LINE
  5
14180
  8
0
 10
2214.053162988876
 20
1655.2183380509489
 30
0.0
 11
2214.053162988876
 21
1575.2183300509489
 31
0.0
  0
LINE
  5
14181
  8
0
 10
2172.053162988876
 20
1676.2183340509489
 30
0.0
 11
2172.053162988876
 21
1655.2183380509489
 31
0.0
  0
LINE
  5
14182
  8
0
 10
2157.053162988876
 20
1676.2183340509489
 30
0.0
 11
2157.053162988876
 21
1554.2183340509489
 31
0.0
  0
LINE
  5
14183
  8
0
 10
2145.053162988876
 20
1655.2183340509489
 30
0.0
 11
2145.053162988876
 21
1575.2183340509489
 31
0.0
  0
LINE
  5
14184
  8
CENTER
 10
2128.492550965665
 20
1615.2183340509489
 30
0.0
 11
2217.4068007869869
 21
1615.2183340509489
 31
0.0
  0
LINE
  5
14185
  8
HIDE
 10
2149.053162988876
 20
1599.9683340509489
 30
0.0
 11
2159.053162988876
 21
1599.9683340509489
 31
0.0
  0
LINE
  5
14186
  8
HIDE
 10
2204.053162988876
 20
1599.9683340509489
 30
0.0
 11
2214.053162988876
 21
1599.9683340509489
 31
0.0
  0
LINE
  5
14187
  8
HIDE
 10
2149.053162988876
 20
1630.4683340509489
 30
0.0
 11
2159.053162988876
 21
1630.4683340509489
 31
0.0
  0
LINE
  5
14188
  8
HIDE
 10
2204.053162988876
 20
1630.4683340509489
 30
0.0
 11
2214.053162988876
 21
1630.4683340509489
 31
0.0
  0
LINE
  5
14189
  8
0
 10
2214.053162988876
 20
1575.2183300509489
 30
0.0
 11
2172.053162988876
 21
1575.2183300509489
 31
0.0
  0
CIRCLE
  5
1418A
  8
HIDE
 10
2181.553162988876
 20
1595.9683340509489
 30
0.0
 40
4.049999999999998
  0
CIRCLE
  5
1418B
  8
HIDE
 10
2181.553162988876
 20
1634.4683340509489
 30
0.0
 40
4.049999999999998
  0
CIRCLE
  5
1418C
  8
HIDE
 10
2166.553162988876
 20
1595.9683340509489
 30
0.0
 40
4.0499999999999989
  0
CIRCLE
  5
1418D
  8
HIDE
 10
2166.553162988876
 20
1634.4683340509489
 30
0.0
 40
4.0499999999999989
  0
ARC
  5
1418E
  8
HIDE
 10
2173.453162988877
 20
1640.6183340509481
 30
0.0
 40
0.5999999999999996
 50
0.0
 51
90.0
  0
ARC
  5
1418F
  8
HIDE
 10
2160.053162988876
 20
1640.2183340509489
 30
0.0
 40
1.0
 50
90.0
 51
180.0
  0
ARC
  5
14190
  8
HIDE
 10
2173.053162988876
 20
1628.7183340509489
 30
0.0
 40
1.0
 50
270.0
 51
0.0
  0
ARC
  5
14191
  8
HIDE
 10
2173.053162988876
 20
1601.7183340509489
 30
0.0
 40
1.0
 50
0.0
 51
90.0
  0
ARC
  5
14192
  8
HIDE
 10
2159.6531629888768
 20
1628.318334050949
 30
0.0
 40
0.6000000000000015
 50
180.0
 51
270.0
  0
ARC
  5
14193
  8
HIDE
 10
2159.6531629888768
 20
1602.1183340509481
 30
0.0
 40
0.5999999999999996
 50
90.0
 51
180.0
  0
ARC
  5
14194
  8
HIDE
 10
2173.453162988877
 20
1589.818334050949
 30
0.0
 40
0.6000000000000015
 50
270.0
 51
0.0
  0
ARC
  5
14195
  8
HIDE
 10
2160.053162988876
 20
1590.2183340509489
 30
0.0
 40
1.0
 50
180.0
 51
270.0
  0
LINE
  5
14196
  8
HIDE
 10
2159.053162988876
 20
1636.1683340509489
 30
0.0
 11
2162.8772277337339
 21
1636.1683340509489
 31
0.0
  0
LINE
  5
14197
  8
HIDE
 10
2160.053162988876
 20
1641.2183340509489
 30
0.0
 11
2173.453162988877
 21
1641.2183340509489
 31
0.0
  0
LINE
  5
14198
  8
HIDE
 10
2174.053162988876
 20
1632.668334050948
 30
0.0
 11
2170.1811789756111
 21
1632.668334050948
 31
0.0
  0
LINE
  5
14199
  8
HIDE
 10
2168.0447564898191
 20
1638.233655926691
 30
0.0
 11
2174.053162988876
 21
1638.7183340509489
 31
0.0
  0
LINE
  5
1419A
  8
HIDE
 10
2159.053162988876
 20
1632.668334050948
 30
0.0
 11
2162.9251470021409
 21
1632.668334050948
 31
0.0
  0
LINE
  5
1419B
  8
HIDE
 10
2159.053162988876
 20
1597.7683340509491
 30
0.0
 11
2162.9251470021409
 21
1597.7683340509491
 31
0.0
  0
LINE
  5
1419C
  8
HIDE
 10
2159.6531629888768
 20
1627.7183340509489
 30
0.0
 11
2173.053162988876
 21
1627.7183340509489
 31
0.0
  0
LINE
  5
1419D
  8
HIDE
 10
2159.6531629888768
 20
1602.7183340509489
 30
0.0
 11
2173.053162988876
 21
1602.7183340509489
 31
0.0
  0
LINE
  5
1419E
  8
HIDE
 10
2174.053162988876
 20
1597.7683340509491
 30
0.0
 11
2170.1811789756111
 21
1597.7683340509491
 31
0.0
  0
LINE
  5
1419F
  8
HIDE
 10
2159.053162988876
 20
1594.2683340509491
 30
0.0
 11
2162.8772277337339
 21
1594.2683340509491
 31
0.0
  0
LINE
  5
141A0
  8
HIDE
 10
2173.453162988877
 20
1589.2183340509489
 30
0.0
 11
2160.053162988876
 21
1589.2183340509489
 31
0.0
  0
LINE
  5
141A1
  8
HIDE
 10
2168.0447564898191
 20
1592.2030121752059
 30
0.0
 11
2174.053162988876
 21
1591.7183340509489
 31
0.0
  0
LINE
  5
141A2
  8
HIDE
 10
2159.053162988876
 20
1590.2183340509489
 30
0.0
 11
2159.053162988876
 21
1640.2183340509489
 31
0.0
  0
LINE
  5
141A3
  8
HIDE
 10
2174.053162988876
 20
1640.6183340509481
 30
0.0
 11
2174.053162988876
 21
1589.818334050949
 31
0.0
  0
LINE
  5
141A4
  8
HIDE
 10
2162.6668535409849
 20
1636.1683340509489
 30
0.0
 11
2163.127919119238
 21
1636.6293996292
 31
0.0
  0
ARC
  5
141A5
  8
HIDE
 10
2174.6531629888759
 20
1589.818334050949
 30
0.0
 40
0.5999999999999996
 50
180.0
 51
270.0
  0
ARC
  5
141A6
  8
HIDE
 10
2188.053162988876
 20
1590.2183340509489
 30
0.0
 40
1.0
 50
270.0
 51
0.0
  0
ARC
  5
141A7
  8
HIDE
 10
2175.053162988876
 20
1601.7183340509489
 30
0.0
 40
1.0
 50
90.0
 51
180.0
  0
ARC
  5
141A8
  8
HIDE
 10
2175.053162988876
 20
1628.7183340509489
 30
0.0
 40
1.0
 50
180.0
 51
270.0
  0
ARC
  5
141A9
  8
HIDE
 10
2188.4531629888779
 20
1602.1183340509481
 30
0.0
 40
0.6
 50
0.0
 51
90.0
  0
ARC
  5
141AA
  8
HIDE
 10
2188.4531629888779
 20
1628.318334050949
 30
0.0
 40
0.5999999999999996
 50
270.0
 51
0.0
  0
ARC
  5
141AB
  8
HIDE
 10
2174.6531629888759
 20
1640.618334050949
 30
0.0
 40
0.6000000000000015
 50
90.0
 51
180.0
  0
ARC
  5
141AC
  8
HIDE
 10
2188.053162988876
 20
1640.2183340509489
 30
0.0
 40
1.0
 50
0.0
 51
90.0
  0
LINE
  5
141AD
  8
HIDE
 10
2189.053162988876
 20
1594.2683340509491
 30
0.0
 11
2185.2290982440181
 21
1594.2683340509491
 31
0.0
  0
LINE
  5
141AE
  8
HIDE
 10
2188.053162988876
 20
1589.2183340509489
 30
0.0
 11
2174.6531629888759
 21
1589.2183340509489
 31
0.0
  0
LINE
  5
141AF
  8
HIDE
 10
2174.053162988876
 20
1597.7683340509491
 30
0.0
 11
2177.9251470021418
 21
1597.7683340509491
 31
0.0
  0
LINE
  5
141B0
  8
HIDE
 10
2180.0615694879348
 20
1592.2030121752059
 30
0.0
 11
2174.053162988876
 21
1591.7183340509489
 31
0.0
  0
LINE
  5
141B1
  8
HIDE
 10
2189.053162988876
 20
1597.7683340509491
 30
0.0
 11
2185.1811789756111
 21
1597.7683340509491
 31
0.0
  0
LINE
  5
141B2
  8
HIDE
 10
2189.053162988876
 20
1632.668334050948
 30
0.0
 11
2185.1811789756111
 21
1632.668334050948
 31
0.0
  0
LINE
  5
141B3
  8
HIDE
 10
2188.4531629888779
 20
1602.7183340509489
 30
0.0
 11
2175.053162988876
 21
1602.7183340509489
 31
0.0
  0
LINE
  5
141B4
  8
HIDE
 10
2188.4531629888779
 20
1627.7183340509489
 30
0.0
 11
2175.053162988876
 21
1627.7183340509489
 31
0.0
  0
LINE
  5
141B5
  8
HIDE
 10
2174.053162988876
 20
1632.668334050948
 30
0.0
 11
2177.9251470021418
 21
1632.668334050948
 31
0.0
  0
LINE
  5
141B6
  8
HIDE
 10
2189.053162988876
 20
1636.1683340509489
 30
0.0
 11
2185.2290982440181
 21
1636.1683340509489
 31
0.0
  0
LINE
  5
141B7
  8
HIDE
 10
2174.6531629888759
 20
1641.2183340509489
 30
0.0
 11
2188.053162988876
 21
1641.2183340509489
 31
0.0
  0
LINE
  5
141B8
  8
HIDE
 10
2180.0615694879348
 20
1638.2336559266921
 30
0.0
 11
2174.053162988876
 21
1638.7183340509489
 31
0.0
  0
LINE
  5
141B9
  8
HIDE
 10
2189.053162988876
 20
1640.2183340509489
 30
0.0
 11
2189.053162988876
 21
1590.2183340509489
 31
0.0
  0
LINE
  5
141BA
  8
HIDE
 10
2184.9784068585141
 20
1636.6293996292011
 30
0.0
 11
2185.4394724367671
 21
1636.1683340509489
 31
0.0
  0
CIRCLE
  5
141BB
  8
HIDE
 10
2196.553162988876
 20
1595.9683340509489
 30
0.0
 40
4.049999999999998
  0
CIRCLE
  5
141BC
  8
HIDE
 10
2196.553162988876
 20
1634.4683340509489
 30
0.0
 40
4.049999999999998
  0
ARC
  5
141BD
  8
HIDE
 10
2189.6531629888759
 20
1589.818334050949
 30
0.0
 40
0.5999999999999996
 50
180.0
 51
270.0
  0
ARC
  5
141BE
  8
HIDE
 10
2203.053162988876
 20
1590.2183340509489
 30
0.0
 40
1.0
 50
270.0
 51
0.0
  0
ARC
  5
141BF
  8
HIDE
 10
2190.053162988876
 20
1601.7183340509489
 30
0.0
 40
1.0
 50
90.0
 51
180.0
  0
ARC
  5
141C0
  8
HIDE
 10
2190.053162988876
 20
1628.7183340509489
 30
0.0
 40
1.0
 50
180.0
 51
270.0
  0
ARC
  5
141C1
  8
HIDE
 10
2203.4531629888779
 20
1602.1183340509481
 30
0.0
 40
0.6
 50
0.0
 51
90.0
  0
ARC
  5
141C2
  8
HIDE
 10
2203.4531629888779
 20
1628.318334050949
 30
0.0
 40
0.5999999999999996
 50
270.0
 51
0.0
  0
ARC
  5
141C3
  8
HIDE
 10
2189.6531629888759
 20
1640.618334050949
 30
0.0
 40
0.6000000000000015
 50
90.0
 51
180.0
  0
ARC
  5
141C4
  8
HIDE
 10
2203.053162988876
 20
1640.2183340509489
 30
0.0
 40
1.0
 50
0.0
 51
90.0
  0
LINE
  5
141C5
  8
HIDE
 10
2204.053162988876
 20
1594.2683340509491
 30
0.0
 11
2200.2290982440181
 21
1594.2683340509491
 31
0.0
  0
LINE
  5
141C6
  8
HIDE
 10
2203.053162988876
 20
1589.2183340509489
 30
0.0
 11
2189.6531629888759
 21
1589.2183340509489
 31
0.0
  0
LINE
  5
141C7
  8
HIDE
 10
2189.053162988876
 20
1597.7683340509491
 30
0.0
 11
2192.9251470021409
 21
1597.7683340509491
 31
0.0
  0
LINE
  5
141C8
  8
HIDE
 10
2195.0615694879348
 20
1592.2030121752059
 30
0.0
 11
2189.053162988876
 21
1591.7183340509489
 31
0.0
  0
LINE
  5
141C9
  8
HIDE
 10
2204.053162988876
 20
1597.7683340509491
 30
0.0
 11
2200.1811789756111
 21
1597.7683340509491
 31
0.0
  0
LINE
  5
141CA
  8
HIDE
 10
2204.053162988876
 20
1632.668334050948
 30
0.0
 11
2200.1811789756111
 21
1632.668334050948
 31
0.0
  0
LINE
  5
141CB
  8
HIDE
 10
2203.4531629888779
 20
1602.7183340509489
 30
0.0
 11
2190.053162988876
 21
1602.7183340509489
 31
0.0
  0
LINE
  5
141CC
  8
HIDE
 10
2203.4531629888779
 20
1627.7183340509489
 30
0.0
 11
2190.053162988876
 21
1627.7183340509489
 31
0.0
  0
LINE
  5
141CD
  8
HIDE
 10
2189.053162988876
 20
1632.668334050948
 30
0.0
 11
2192.9251470021409
 21
1632.668334050948
 31
0.0
  0
LINE
  5
141CE
  8
HIDE
 10
2204.053162988876
 20
1636.1683340509489
 30
0.0
 11
2200.2290982440181
 21
1636.1683340509489
 31
0.0
  0
LINE
  5
141CF
  8
HIDE
 10
2189.6531629888759
 20
1641.2183340509489
 30
0.0
 11
2203.053162988876
 21
1641.2183340509489
 31
0.0
  0
LINE
  5
141D0
  8
HIDE
 10
2195.0615694879348
 20
1638.2336559266921
 30
0.0
 11
2189.053162988876
 21
1638.7183340509489
 31
0.0
  0
LINE
  5
141D1
  8
HIDE
 10
2204.053162988876
 20
1640.2183340509489
 30
0.0
 11
2204.053162988876
 21
1590.2183340509489
 31
0.0
  0
LINE
  5
141D2
  8
HIDE
 10
2199.978406858515
 20
1636.6293996292011
 30
0.0
 11
2200.4394724367671
 21
1636.1683340509489
 31
0.0
  0
LINE
  5
141D3
  8
HIDE
 10
2204.053162988876
 20
1627.71833405091
 30
0.0
 11
2214.053162988876
 21
1627.71833405091
 31
0.0
  0
LINE
  5
141D4
  8
HIDE
 10
2204.053162988876
 20
1602.7183340509871
 30
0.0
 11
2214.053162988876
 21
1602.7183340509871
 31
0.0
  0
LINE
  5
141D5
  8
HIDE
 10
2149.053162988876
 20
1627.71833405091
 30
0.0
 11
2159.053162988876
 21
1627.71833405091
 31
0.0
  0
LINE
  5
141D6
  8
HIDE
 10
2149.053162988876
 20
1602.7183340509871
 30
0.0
 11
2159.053162988876
 21
1602.7183340509871
 31
0.0
  0
LINE
  5
141D7
  8
0
 10
2172.053162988876
 20
1575.2183300509489
 30
0.0
 11
2172.053162988876
 21
1554.2183340509489
 31
0.0
  0
LINE
  5
14251
  8
HIDE
 10
2149.053162988876
 20
1631.7183340509489
 30
0.0
 11
2149.053162988876
 21
1598.7183340509489
 31
0.0
  0
LINE
  5
14252
  8
CENTER
 10
2143.053162988876
 20
1635.7248782367219
 30
0.0
 11
2143.053162988876
 21
1625.1936957222661
 31
0.0
  0
LINE
  5
14253
  8
HIDE
 10
2146.053162988876
 20
1634.2183340509489
 30
0.0
 11
2146.053162988876
 21
1626.96833405095
 31
0.0
  0
LINE
  5
14254
  8
HIDE
 10
2145.553162988876
 20
1634.2183340509489
 30
0.0
 11
2145.553162988876
 21
1626.96833405095
 31
0.0
  0
LINE
  5
14255
  8
HIDE
 10
2140.053162988876
 20
1634.2183340509489
 30
0.0
 11
2140.053162988876
 21
1626.9683340509489
 31
0.0
  0
LINE
  5
14256
  8
HIDE
 10
2140.553162988876
 20
1634.2183340509489
 30
0.0
 11
2140.553162988876
 21
1626.9683340509489
 31
0.0
  0
LINE
  5
14257
  8
HIDE
 10
2148.553162988876
 20
1634.2183340509489
 30
0.0
 11
2148.553162988876
 21
1596.2183340509489
 31
0.0
  0
LINE
  5
14258
  8
0
 10
2137.053162988876
 20
1634.2183340509489
 30
0.0
 11
2137.053162988876
 21
1596.2183340509489
 31
0.0
  0
LINE
  5
14259
  8
0
 10
2145.053162988876
 20
1634.2183340509489
 30
0.0
 11
2137.053162988876
 21
1634.2183340509489
 31
0.0
  0
LINE
  5
1425A
  8
HIDE
 10
2149.053162988876
 20
1631.7183340509489
 30
0.0
 11
2148.553162988876
 21
1632.0070091855421
 31
0.0
  0
LINE
  5
1425B
  8
HIDE
 10
2149.053162988876
 20
1626.96833405095
 30
0.0
 11
2137.053162988876
 21
1626.9683340509489
 31
0.0
  0
LINE
  5
1425C
  8
HIDE
 10
2149.053162988876
 20
1627.7183340509489
 30
0.0
 11
2137.053162988876
 21
1627.7183340509489
 31
0.0
  0
LINE
  5
1425D
  8
0
 10
2145.053162988876
 20
1621.23914933112
 30
0.0
 11
2137.053162988876
 21
1621.23914933112
 31
0.0
  0
LINE
  5
1425E
  8
HIDE
 10
2146.053162988876
 20
1633.9230883571411
 30
0.0
 11
2140.053162988876
 21
1633.9230883571411
 31
0.0
  0
LINE
  5
1425F
  8
HIDE
 10
2146.053162988876
 20
1628.9230883571411
 30
0.0
 11
2140.053162988876
 21
1628.9230883571411
 31
0.0
  0
LINE
  5
14260
  8
HIDE
 10
2146.053162988876
 20
1628.9230883571411
 30
0.0
 11
2145.553162988876
 21
1628.634413222547
 31
0.0
  0
LINE
  5
14261
  8
HIDE
 10
2140.053162988876
 20
1628.9230883571411
 30
0.0
 11
2140.553162988876
 21
1628.634413222547
 31
0.0
  0
LINE
  5
14262
  8
HIDE
 10
2140.553162988876
 20
1628.634413222547
 30
0.0
 11
2145.553162988876
 21
1628.634413222547
 31
0.0
  0
LINE
  5
14263
  8
CENTER
 10
2143.053162988876
 20
1594.7117898651759
 30
0.0
 11
2143.053162988876
 21
1605.2429723796311
 31
0.0
  0
LINE
  5
14264
  8
HIDE
 10
2146.053162988876
 20
1596.2183340509489
 30
0.0
 11
2146.053162988876
 21
1603.468334050948
 31
0.0
  0
LINE
  5
14265
  8
HIDE
 10
2145.553162988876
 20
1596.2183340509489
 30
0.0
 11
2145.553162988876
 21
1603.468334050948
 31
0.0
  0
LINE
  5
14266
  8
HIDE
 10
2140.053162988876
 20
1596.2183340509489
 30
0.0
 11
2140.053162988876
 21
1603.4683340509489
 31
0.0
  0
LINE
  5
14267
  8
HIDE
 10
2140.553162988876
 20
1596.2183340509489
 30
0.0
 11
2140.553162988876
 21
1603.4683340509489
 31
0.0
  0
LINE
  5
14268
  8
0
 10
2145.053162988876
 20
1596.2183340509489
 30
0.0
 11
2137.053162988876
 21
1596.2183340509489
 31
0.0
  0
LINE
  5
14269
  8
HIDE
 10
2149.053162988876
 20
1598.7183340509489
 30
0.0
 11
2148.553162988876
 21
1598.4296589163559
 31
0.0
  0
LINE
  5
1426A
  8
HIDE
 10
2149.053162988876
 20
1603.468334050948
 30
0.0
 11
2137.053162988876
 21
1603.4683340509489
 31
0.0
  0
LINE
  5
1426B
  8
HIDE
 10
2149.053162988876
 20
1602.7183340509489
 30
0.0
 11
2137.053162988876
 21
1602.7183340509489
 31
0.0
  0
LINE
  5
1426C
  8
0
 10
2145.053162988876
 20
1609.197518770776
 30
0.0
 11
2137.053162988876
 21
1609.197518770776
 31
0.0
  0
LINE
  5
1426D
  8
HIDE
 10
2146.053162988876
 20
1596.513579744756
 30
0.0
 11
2140.053162988876
 21
1596.513579744756
 31
0.0
  0
LINE
  5
1426E
  8
HIDE
 10
2146.053162988876
 20
1601.513579744756
 30
0.0
 11
2140.053162988876
 21
1601.513579744756
 31
0.0
  0
LINE
  5
1426F
  8
HIDE
 10
2146.053162988876
 20
1601.513579744756
 30
0.0
 11
2145.553162988876
 21
1601.8022548793499
 31
0.0
  0
LINE
  5
14270
  8
HIDE
 10
2140.053162988876
 20
1601.513579744756
 30
0.0
 11
2140.553162988876
 21
1601.8022548793499
 31
0.0
  0
LINE
  5
14271
  8
HIDE
 10
2140.553162988876
 20
1601.8022548793499
 30
0.0
 11
2145.553162988876
 21
1601.8022548793499
 31
0.0
  0
LINE
  5
14272
  8
HIDE
 10
2145.053162988876
 20
1609.197518770776
 30
0.0
 11
2148.553162988876
 21
1609.197518770776
 31
0.0
  0
LINE
  5
14273
  8
HIDE
 10
2145.053162988876
 20
1596.2183340509489
 30
0.0
 11
2148.553162988876
 21
1596.2183340509489
 31
0.0
  0
LINE
  5
14274
  8
HIDE
 10
2145.053162988876
 20
1621.23914933112
 30
0.0
 11
2148.553162988876
 21
1621.23914933112
 31
0.0
  0
LINE
  5
14275
  8
HIDE
 10
2145.053162988876
 20
1634.2183340509489
 30
0.0
 11
2148.553162988876
 21
1634.2183340509489
 31
0.0
  0
ARC
  5
14276
  8
0
 10
2020.4091989375411
 20
1615.2183340509489
 30
0.0
 40
19.0
 50
71.525352016555317
 51
108.4746479834447
  0
ARC
  5
14277
  8
0
 10
2020.4091989375411
 20
1615.2183340509489
 30
0.0
 40
19.0
 50
161.52535201660939
 51
198.4746479833905
  0
ARC
  5
14278
  8
0
 10
2020.4091989375411
 20
1615.2183340509489
 30
0.0
 40
19.0
 50
251.5253520165553
 51
288.4746479834447
  0
ARC
  5
14279
  8
0
 10
2020.4091989375411
 20
1615.2183340509489
 30
0.0
 40
19.0
 50
341.52535201660942
 51
18.474647983390451
  0
POLYLINE
  5
1427A
  8
0
 66
     1
 10
0.0
 20
0.0
 30
0.0
  0
VERTEX
  5
14402
  8
0
 10
2014.38838365737
 20
1633.2391493311191
 30
0.0
  0
VERTEX
  5
14403
  8
0
 10
2002.38838365737
 20
1621.23914933112
 30
0.0
  0
SEQEND
  5
14404
  8
0
  0
POLYLINE
  5
1427B
  8
0
 66
     1
 10
0.0
 20
0.0
 30
0.0
  0
VERTEX
  5
14405
  8
0
 10
2002.38838365737
 20
1609.197518770776
 30
0.0
  0
VERTEX
  5
14406
  8
0
 10
2014.38838365737
 20
1597.1975187707769
 30
0.0
  0
SEQEND
  5
14407
  8
0
  0
POLYLINE
  5
1427C
  8
0
 66
     1
 10
0.0
 20
0.0
 30
0.0
  0
VERTEX
  5
14408
  8
0
 10
2026.4300142177131
 20
1597.1975187707769
 30
0.0
  0
VERTEX
  5
14409
  8
0
 10
2038.4300142177131
 20
1609.1975187707751
 30
0.0
  0
SEQEND
  5
1440A
  8
0
  0
POLYLINE
  5
1427D
  8
0
 66
     1
 10
0.0
 20
0.0
 30
0.0
  0
VERTEX
  5
1440B
  8
0
 10
2038.4300142177131
 20
1621.2391493311191
 30
0.0
  0
VERTEX
  5
1440C
  8
0
 10
2026.4300142177131
 20
1633.239149331117
 30
0.0
  0
SEQEND
  5
1440D
  8
0
  0
ARC
  5
1427E
  8
HIDE
 10
2020.4091989375411
 20
1615.2183340509489
 30
0.0
 40
12.5
 50
270.0
 51
180.0
  0
CIRCLE
  5
1427F
  8
0
 10
2020.4091989375411
 20
1615.2183340509489
 30
0.0
 40
11.75
  0
LINE
  5
14280
  8
HIDE
 10
2017.4091989375411
 20
1633.979997090242
 30
0.0
 11
2017.4091989375411
 21
1626.57890181845
 31
0.0
  0
LINE
  5
14281
  8
HIDE
 10
2017.9091989375411
 20
1634.0531422527861
 30
0.0
 11
2017.9091989375411
 21
1626.699296554154
 31
0.0
  0
LINE
  5
14282
  8
HIDE
 10
2023.4091989375411
 20
1633.979997090242
 30
0.0
 11
2023.4091989375411
 21
1626.57890181845
 31
0.0
  0
LINE
  5
14283
  8
HIDE
 10
2022.9091989375411
 20
1634.0531422527861
 30
0.0
 11
2022.9091989375411
 21
1626.699296554154
 31
0.0
  0
LINE
  5
14284
  8
HIDE
 10
2017.4091989375411
 20
1633.9230883571411
 30
0.0
 11
2023.4091989375411
 21
1633.9230883571411
 31
0.0
  0
LINE
  5
14285
  8
HIDE
 10
2017.4091989375411
 20
1628.9230883571411
 30
0.0
 11
2023.4091989375411
 21
1628.9230883571411
 31
0.0
  0
LINE
  5
14286
  8
HIDE
 10
2017.4091989375411
 20
1628.9230883571411
 30
0.0
 11
2017.9091989375411
 21
1628.634413222547
 31
0.0
  0
LINE
  5
14287
  8
HIDE
 10
2023.4091989375411
 20
1628.9230883571411
 30
0.0
 11
2022.9091989375411
 21
1628.634413222547
 31
0.0
  0
LINE
  5
14288
  8
HIDE
 10
2022.9091989375411
 20
1628.634413222547
 30
0.0
 11
2017.9091989375411
 21
1628.634413222547
 31
0.0
  0
LINE
  5
14289
  8
HIDE
 10
2017.4091989375411
 20
1596.4566710116551
 30
0.0
 11
2017.4091989375411
 21
1603.857766283448
 31
0.0
  0
LINE
  5
1428A
  8
HIDE
 10
2017.9091989375411
 20
1596.383525849111
 30
0.0
 11
2017.9091989375411
 21
1603.737371547744
 31
0.0
  0
LINE
  5
1428B
  8
HIDE
 10
2023.4091989375411
 20
1596.4566710116551
 30
0.0
 11
2023.4091989375411
 21
1603.8577662834471
 31
0.0
  0
LINE
  5
1428C
  8
HIDE
 10
2022.9091989375411
 20
1596.383525849111
 30
0.0
 11
2022.9091989375411
 21
1603.737371547744
 31
0.0
  0
LINE
  5
1428D
  8
HIDE
 10
2017.4091989375411
 20
1596.513579744756
 30
0.0
 11
2023.4091989375411
 21
1596.513579744756
 31
0.0
  0
LINE
  5
1428E
  8
HIDE
 10
2017.4091989375411
 20
1601.513579744756
 30
0.0
 11
2023.4091989375411
 21
1601.513579744756
 31
0.0
  0
LINE
  5
1428F
  8
HIDE
 10
2017.4091989375411
 20
1601.513579744756
 30
0.0
 11
2017.9091989375411
 21
1601.8022548793499
 31
0.0
  0
LINE
  5
14290
  8
HIDE
 10
2023.4091989375411
 20
1601.513579744756
 30
0.0
 11
2022.9091989375411
 21
1601.8022548793499
 31
0.0
  0
LINE
  5
14291
  8
HIDE
 10
2022.9091989375411
 20
1601.8022548793499
 30
0.0
 11
2017.9091989375411
 21
1601.8022548793499
 31
0.0
  0
ENDSEC
  0
EOF
