  0
SECTION
  2
HEADER
  9
$ACADVER
  1
AC1009
  9
$INSBASE
 10
0.0
 20
0.0
 30
0.0
  9
$EXTMIN
 10
1903.0405749290021
 20
1433.173578249188
 30
0.0
  9
$EXTMAX
 10
2348.540574929003
 20
1748.173578249188
 30
0.0
  9
$LIMMIN
 10
0.0
 20
0.0
  9
$LIMMAX
 10
12.0
 20
9.0
  9
$ORTHOMODE
 70
     0
  9
$REGENMODE
 70
     1
  9
$FILLMODE
 70
     1
  9
$QTEXTMODE
 70
     0
  9
$MIRRTEXT
 70
     0
  9
$DRAGMODE
 70
     2
  9
$LTSCALE
 40
5.0
  9
$OSMODE
 70
  2239
  9
$ATTMODE
 70
     1
  9
$TEXTSIZE
 40
2.5
  9
$TRACEWID
 40
0.05
  9
$TEXTSTYLE
  7
BIG
  9
$CLAYER
  8
0
  9
$CELTYPE
  6
BYLAYER
  9
$CECOLOR
 62
   256
  9
$DIMSCALE
 40
1.0
  9
$DIMASZ
 40
3.0
  9
$DIMEXO
 40
1.0
  9
$DIMDLI
 40
0.0
  9
$DIMRND
 40
0.0
  9
$DIMDLE
 40
0.0
  9
$DIMEXE
 40
1.0
  9
$DIMTP
 40
0.0
  9
$DIMTM
 40
0.0
  9
$DIMTXT
 40
3.0
  9
$DIMCEN
 40
0.0
  9
$DIMTSZ
 40
0.0
  9
$DIMTOL
 70
     0
  9
$DIMLIM
 70
     0
  9
$DIMTIH
 70
     0
  9
$DIMTOH
 70
     0
  9
$DIMSE1
 70
     0
  9
$DIMSE2
 70
     0
  9
$DIMTAD
 70
     1
  9
$DIMZIN
 70
     8
  9
$DIMBLK
  1

  9
$DIMASO
 70
     1
  9
$DIMSHO
 70
     1
  9
$DIMPOST
  1

  9
$DIMAPOST
  1

  9
$DIMALT
 70
     0
  9
$DIMALTD
 70
     2
  9
$DIMALTF
 40
25.399999999999999
  9
$DIMLFAC
 40
1.0
  9
$DIMTOFL
 70
     1
  9
$DIMTVP
 40
0.0
  9
$DIMTIX
 70
     1
  9
$DIMSOXD
 70
     0
  9
$DIMSAH
 70
     0
  9
$DIMBLK1
  1

  9
$DIMBLK2
  1

  9
$DIMSTYLE
  2
DUKITEC
  9
$DIMCLRD
 70
     5
  9
$DIMCLRE
 70
     5
  9
$DIMCLRT
 70
     0
  9
$DIMTFAC
 40
1.0
  9
$DIMGAP
 40
1.0
  9
$LUNITS
 70
     2
  9
$LUPREC
 70
     4
  9
$SKETCHINC
 40
0.1
  9
$FILLETRAD
 40
0.2
  9
$AUNITS
 70
     0
  9
$AUPREC
 70
     0
  9
$MENU
  1
.
  9
$ELEVATION
 40
0.0
  9
$PELEVATION
 40
0.0
  9
$THICKNESS
 40
0.0
  9
$LIMCHECK
 70
     0
  9
$BLIPMODE
 70
     0
  9
$CHAMFERA
 40
0.5
  9
$CHAMFERB
 40
0.5
  9
$SKPOLY
 70
     0
  9
$TDCREATE
 40
2454396.751736111
  9
$TDUPDATE
 40
2456631.4201669791
  9
$TDINDWG
 40
0.0013823958
  9
$TDUSRTIMER
 40
0.0013820949
  9
$USRTIMER
 70
     1
  9
$ANGBASE
 50
0.0
  9
$ANGDIR
 70
     0
  9
$PDMODE
 70
     0
  9
$PDSIZE
 40
0.0
  9
$PLINEWID
 40
0.0
  9
$COORDS
 70
     1
  9
$SPLFRAME
 70
     0
  9
$SPLINETYPE
 70
     6
  9
$SPLINESEGS
 70
     8
  9
$ATTDIA
 70
     0
  9
$ATTREQ
 70
     1
  9
$HANDLING
 70
     1
  9
$HANDSEED
  5
143A4
  9
$SURFTAB1
 70
     6
  9
$SURFTAB2
 70
     6
  9
$SURFTYPE
 70
     6
  9
$SURFU
 70
     6
  9
$SURFV
 70
     6
  9
$UCSNAME
  2

  9
$UCSORG
 10
0.0
 20
0.0
 30
0.0
  9
$UCSXDIR
 10
1.0
 20
0.0
 30
0.0
  9
$UCSYDIR
 10
0.0
 20
1.0
 30
0.0
  9
$PUCSNAME
  2

  9
$PUCSORG
 10
0.0
 20
0.0
 30
0.0
  9
$PUCSXDIR
 10
1.0
 20
0.0
 30
0.0
  9
$PUCSYDIR
 10
0.0
 20
1.0
 30
0.0
  9
$USERI1
 70
     0
  9
$USERI2
 70
     0
  9
$USERI3
 70
     0
  9
$USERI4
 70
     0
  9
$USERI5
 70
     0
  9
$USERR1
 40
0.0
  9
$USERR2
 40
0.0
  9
$USERR3
 40
0.0
  9
$USERR4
 40
0.0
  9
$USERR5
 40
0.0
  9
$WORLDVIEW
 70
     1
  9
$SHADEDGE
 70
     3
  9
$SHADEDIF
 70
    70
  9
$TILEMODE
 70
     1
  9
$MAXACTVP
 70
    64
  9
$PLIMCHECK
 70
     0
  9
$PEXTMIN
 10
0.0
 20
0.0
 30
0.0
  9
$PEXTMAX
 10
0.0
 20
0.0
 30
0.0
  9
$PLIMMIN
 10
0.0
 20
0.0
  9
$PLIMMAX
 10
12.0
 20
9.0
  9
$UNITMODE
 70
     0
  9
$VISRETAIN
 70
     1
  9
$PLINEGEN
 70
     0
  9
$PSLTSCALE
 70
     1
  0
ENDSEC
  0
SECTION
  2
TABLES
  0
TABLE
  2
VPORT
 70
     1
  0
VPORT
  2
*ACTIVE
 70
     0
 10
0.0
 20
0.0
 11
1.0
 21
1.0
 12
2108.1810496245871
 22
1606.3032900725459
 13
0.0
 23
0.0
 14
0.5
 24
0.5
 15
0.5
 25
0.5
 16
0.0
 26
0.0
 36
1.0
 17
0.0
 27
0.0
 37
0.0
 40
294.18144160000293
 41
2.2309552599758158
 42
50.0
 43
0.0
 44
0.0
 50
0.0
 51
0.0
 71
     0
 72
  2000
 73
     1
 74
     3
 75
     0
 76
     0
 77
     0
 78
     0
  0
ENDTAB
  0
TABLE
  2
LTYPE
 70
     5
  0
LTYPE
  2
CONTINUOUS
 70
     0
  3
Solid line
 72
    65
 73
     0
 40
0.0
  0
LTYPE
  2
PHANTOM2
 70
     0
  3
Phantom (.5x) ___ _ _ ___ _ _ ___ _ _ ___ _ _
 72
    65
 73
     6
 40
1.25
 49
0.625
 49
-0.125
 49
0.125
 49
-0.125
 49
0.125
 49
-0.125
  0
LTYPE
  2
CENTER
 70
     0
  3
___ _ ___ _ ___ _ ___ _ ___ _ ___ _ ___ _ ___ _
 72
    65
 73
     4
 40
0.95
 49
0.625
 49
-0.125
 49
0.075
 49
-0.125
  0
LTYPE
  2
DASHED2
 70
     0
  3
Dashed (.5x) _ _ _ _ _ _ _ _ _ _ _ _ _ _ _ _ _
 72
    65
 73
     2
 40
0.375
 49
0.25
 49
-0.125
  0
ENDTAB
  0
TABLE
  2
LAYER
 70
     4
  0
LAYER
  2
0
 70
     0
 62
     7
  6
CONTINUOUS
  0
LAYER
  2
HIDE
 70
     0
 62
     1
  6
DASHED2
  0
LAYER
  2
CENTER
 70
     0
 62
     3
  6
CENTER
  0
ENDTAB
  0
TABLE
  2
STYLE
 70
     3
  0
STYLE
  2
STANDARD
 70
     0
 40
5.0
 41
1.0
 50
0.0
 71
     0
 42
5.0
  3
txt.shx
  4
whgtxt.shx
  0
STYLE
  2
BIG
 70
     0
 40
20.0
 41
1.0
 50
0.0
 71
     0
 42
2.5
  3
txt
  4

  0
ENDTAB
  0
TABLE
  2
VIEW
 70
     0
  0
ENDTAB
  0
TABLE
  2
UCS
 70
     0
  0
ENDTAB
  0
TABLE
  2
APPID
 70
    10
  0
APPID
  2
ACAD
 70
     0
  0
APPID
  2
ACADANNOTATIVE
 70
     0
  0
APPID
  2
ACAD_EXEMPT_FROM_CAD_STANDARDS
 70
     0
  0
APPID
  2
ACAD_DSTYLE_DIMJOGGED_JOGA
 70
     0
  0
APPID
  2
ACAD_PSEXT
 70
     0
  0
APPID
  2
ACAECLAYERSTANDARD
 70
     0
  0
APPID
  2
DCO15
 70
     0
  0
APPID
  2
CONTENTBLOCKICON
 70
     0
  0
APPID
  2
ACAD_NAV_VCDISPLAY
 70
     0
  0
APPID
  2
ACAD_MLEADERVER
 70
     0
  0
ENDTAB
  0
TABLE
  2
DIMSTYLE
 70
     4
  0
DIMSTYLE
  2
DUKITEC
 70
     0
  3

  4

  5

  6

  7

 40
1.0
 41
3.0
 42
1.0
 43
0.0
 44
1.0
 45
0.0
 46
0.0
 47
0.0
 48
0.0
140
3.0
141
0.0
142
0.0
143
25.399999999999999
144
1.0
145
0.0
146
1.0
147
1.0
 71
     0
 72
     0
 73
     0
 74
     0
 75
     0
 76
     0
 77
     1
 78
     8
170
     0
171
     2
172
     1
173
     0
174
     1
175
     0
176
     5
177
     5
178
     0
  0
ENDTAB
  0
ENDSEC
  0
SECTION
  2
BLOCKS
  0
BLOCK
  8
0
  2
$MODEL_SPACE
 70
     0
 10
0.0
 20
0.0
 30
0.0
  3
$MODEL_SPACE
  1

  0
ENDBLK
  5
140F9
  8
0
  0
BLOCK
 67
     1
  8
0
  2
$PAPER_SPACE
 70
     0
 10
0.0
 20
0.0
 30
0.0
  3
$PAPER_SPACE
  1

  0
ENDBLK
  5
140F5
 67
     1
  8
0
  0
ENDSEC
  0
SECTION
  2
ENTITIES
  0
TEXT
  5
14059
  8
0
 10
2036.524178903763
 20
1508.462967409195
 30
0.0
 40
20.0
  1
FK 25DFF
  7
BIG
  0
LINE
  5
14168
  8
HIDE
 10
2151.5968603967131
 20
1638.6342096978599
 30
0.0
 11
2151.5968603967131
 21
1605.6342096978599
 31
0.0
  0
LINE
  5
14169
  8
CENTER
 10
2145.5968603967131
 20
1642.6407538836329
 30
0.0
 11
2145.5968603967131
 21
1632.109571369177
 31
0.0
  0
LINE
  5
1416A
  8
HIDE
 10
2148.5968603967131
 20
1641.1342096978599
 30
0.0
 11
2148.5968603967131
 21
1633.884209697861
 31
0.0
  0
LINE
  5
1416B
  8
HIDE
 10
2148.0968603967131
 20
1641.1342096978599
 30
0.0
 11
2148.0968603967131
 21
1633.884209697861
 31
0.0
  0
LINE
  5
1416C
  8
HIDE
 10
2142.5968603967131
 20
1641.1342096978599
 30
0.0
 11
2142.5968603967131
 21
1633.8842096978599
 31
0.0
  0
LINE
  5
1416D
  8
HIDE
 10
2143.0968603967131
 20
1641.1342096978599
 30
0.0
 11
2143.0968603967131
 21
1633.8842096978599
 31
0.0
  0
LINE
  5
1416E
  8
HIDE
 10
2151.0968603967121
 20
1641.1342096978599
 30
0.0
 11
2151.0968603967121
 21
1603.1342096978599
 31
0.0
  0
LINE
  5
1416F
  8
0
 10
2139.5968603967131
 20
1641.1342096978599
 30
0.0
 11
2139.5968603967131
 21
1603.1342096978599
 31
0.0
  0
LINE
  5
14170
  8
0
 10
2147.5968603967131
 20
1641.1342096978599
 30
0.0
 11
2139.5968603967131
 21
1641.1342096978599
 31
0.0
  0
LINE
  5
14171
  8
HIDE
 10
2151.5968603967131
 20
1638.6342096978599
 30
0.0
 11
2151.0968603967121
 21
1638.9228848324531
 31
0.0
  0
LINE
  5
14172
  8
HIDE
 10
2151.5968603967131
 20
1633.884209697861
 30
0.0
 11
2139.5968603967131
 21
1633.8842096978599
 31
0.0
  0
LINE
  5
14173
  8
HIDE
 10
2151.5968603967131
 20
1634.6342096978599
 30
0.0
 11
2139.5968603967131
 21
1634.6342096978599
 31
0.0
  0
LINE
  5
14174
  8
0
 10
2147.5968603967131
 20
1628.1550249780321
 30
0.0
 11
2139.5968603967131
 21
1628.1550249780321
 31
0.0
  0
LINE
  5
14175
  8
HIDE
 10
2148.5968603967131
 20
1640.8389640040521
 30
0.0
 11
2142.5968603967131
 21
1640.8389640040521
 31
0.0
  0
LINE
  5
14176
  8
HIDE
 10
2148.5968603967131
 20
1635.838964004053
 30
0.0
 11
2142.5968603967131
 21
1635.838964004053
 31
0.0
  0
LINE
  5
14177
  8
HIDE
 10
2148.5968603967131
 20
1635.838964004053
 30
0.0
 11
2148.0968603967131
 21
1635.550288869458
 31
0.0
  0
LINE
  5
14178
  8
HIDE
 10
2142.5968603967131
 20
1635.838964004053
 30
0.0
 11
2143.0968603967131
 21
1635.550288869458
 31
0.0
  0
LINE
  5
14179
  8
HIDE
 10
2143.0968603967131
 20
1635.550288869458
 30
0.0
 11
2148.0968603967131
 21
1635.550288869458
 31
0.0
  0
LINE
  5
1417A
  8
CENTER
 10
2145.5968603967131
 20
1601.6276655120871
 30
0.0
 11
2145.5968603967131
 21
1612.158848026543
 31
0.0
  0
LINE
  5
1417B
  8
HIDE
 10
2148.5968603967131
 20
1603.1342096978599
 30
0.0
 11
2148.5968603967131
 21
1610.384209697859
 31
0.0
  0
LINE
  5
1417C
  8
HIDE
 10
2148.0968603967131
 20
1603.1342096978599
 30
0.0
 11
2148.0968603967131
 21
1610.384209697859
 31
0.0
  0
LINE
  5
1417D
  8
HIDE
 10
2142.5968603967131
 20
1603.1342096978599
 30
0.0
 11
2142.5968603967131
 21
1610.3842096978599
 31
0.0
  0
LINE
  5
1417E
  8
HIDE
 10
2143.0968603967131
 20
1603.1342096978599
 30
0.0
 11
2143.0968603967131
 21
1610.3842096978599
 31
0.0
  0
LINE
  5
1417F
  8
0
 10
2147.5968603967131
 20
1603.1342096978599
 30
0.0
 11
2139.5968603967131
 21
1603.1342096978599
 31
0.0
  0
LINE
  5
14180
  8
HIDE
 10
2151.5968603967131
 20
1605.6342096978599
 30
0.0
 11
2151.0968603967121
 21
1605.3455345632669
 31
0.0
  0
LINE
  5
14181
  8
HIDE
 10
2151.5968603967131
 20
1610.384209697859
 30
0.0
 11
2139.5968603967131
 21
1610.3842096978599
 31
0.0
  0
LINE
  5
14182
  8
HIDE
 10
2151.5968603967131
 20
1609.6342096978599
 30
0.0
 11
2139.5968603967131
 21
1609.6342096978599
 31
0.0
  0
LINE
  5
14183
  8
0
 10
2147.5968603967131
 20
1616.1133944176879
 30
0.0
 11
2139.5968603967131
 21
1616.1133944176879
 31
0.0
  0
LINE
  5
14184
  8
HIDE
 10
2148.5968603967131
 20
1603.429455391667
 30
0.0
 11
2142.5968603967131
 21
1603.429455391667
 31
0.0
  0
LINE
  5
14185
  8
HIDE
 10
2148.5968603967131
 20
1608.429455391667
 30
0.0
 11
2142.5968603967131
 21
1608.429455391667
 31
0.0
  0
LINE
  5
14186
  8
HIDE
 10
2148.5968603967131
 20
1608.429455391667
 30
0.0
 11
2148.0968603967131
 21
1608.7181305262609
 31
0.0
  0
LINE
  5
14187
  8
HIDE
 10
2142.5968603967131
 20
1608.429455391667
 30
0.0
 11
2143.0968603967131
 21
1608.7181305262609
 31
0.0
  0
LINE
  5
14188
  8
HIDE
 10
2143.0968603967131
 20
1608.7181305262609
 30
0.0
 11
2148.0968603967131
 21
1608.7181305262609
 31
0.0
  0
LINE
  5
14189
  8
HIDE
 10
2147.5968603967131
 20
1616.1133944176879
 30
0.0
 11
2151.0968603967121
 21
1616.1133944176879
 31
0.0
  0
LINE
  5
1418A
  8
HIDE
 10
2147.5968603967131
 20
1603.1342096978599
 30
0.0
 11
2151.0968603967121
 21
1603.1342096978599
 31
0.0
  0
LINE
  5
1418B
  8
HIDE
 10
2147.5968603967131
 20
1628.1550249780321
 30
0.0
 11
2151.0968603967121
 21
1628.1550249780321
 31
0.0
  0
LINE
  5
1418C
  8
HIDE
 10
2147.5968603967131
 20
1641.1342096978599
 30
0.0
 11
2151.0968603967121
 21
1641.1342096978599
 31
0.0
  0
ARC
  5
1418D
  8
0
 10
2022.9528963453779
 20
1622.1342096978599
 30
0.0
 40
19.0
 50
71.525352016555615
 51
108.47464798345641
  0
ARC
  5
1418E
  8
0
 10
2022.9528963453779
 20
1622.1342096978599
 30
0.0
 40
19.0
 50
161.5253520166136
 51
198.4746479833864
  0
ARC
  5
1418F
  8
0
 10
2022.9528963453779
 20
1622.1342096978599
 30
0.0
 40
19.0
 50
251.52535201654359
 51
288.47464798344441
  0
ARC
  5
14190
  8
0
 10
2022.9528963453779
 20
1622.1342096978599
 30
0.0
 40
19.0
 50
341.52535201661362
 51
18.474647983386401
  0
POLYLINE
  5
14191
  8
0
 66
     1
 10
0.0
 20
0.0
 30
0.0
  0
VERTEX
  5
14395
  8
0
 10
2016.9320810652059
 20
1640.15502497803
 30
0.0
  0
VERTEX
  5
14396
  8
0
 10
2004.9320810652059
 20
1628.1550249780321
 30
0.0
  0
SEQEND
  5
14397
  8
0
  0
POLYLINE
  5
14192
  8
0
 66
     1
 10
0.0
 20
0.0
 30
0.0
  0
VERTEX
  5
14398
  8
0
 10
2004.9320810652059
 20
1616.1133944176879
 30
0.0
  0
VERTEX
  5
14399
  8
0
 10
2016.9320810652059
 20
1604.1133944176879
 30
0.0
  0
SEQEND
  5
1439A
  8
0
  0
POLYLINE
  5
14193
  8
0
 66
     1
 10
0.0
 20
0.0
 30
0.0
  0
VERTEX
  5
1439B
  8
0
 10
2028.973711625549
 20
1604.1133944176879
 30
0.0
  0
VERTEX
  5
1439C
  8
0
 10
2040.973711625549
 20
1616.113394417687
 30
0.0
  0
SEQEND
  5
1439D
  8
0
  0
POLYLINE
  5
14194
  8
0
 66
     1
 10
0.0
 20
0.0
 30
0.0
  0
VERTEX
  5
1439E
  8
0
 10
2040.973711625549
 20
1628.15502497803
 30
0.0
  0
VERTEX
  5
1439F
  8
0
 10
2028.973711625549
 20
1640.155024978028
 30
0.0
  0
SEQEND
  5
143A0
  8
0
  0
ARC
  5
14195
  8
HIDE
 10
2022.9528963453779
 20
1622.1342096978599
 30
0.0
 40
12.5
 50
270.0
 51
180.0
  0
CIRCLE
  5
14196
  8
0
 10
2022.9528963453779
 20
1622.1342096978599
 30
0.0
 40
11.75
  0
LINE
  5
14197
  8
HIDE
 10
2019.9528963453779
 20
1640.8958727371539
 30
0.0
 11
2019.9528963453779
 21
1633.494777465361
 31
0.0
  0
LINE
  5
14198
  8
HIDE
 10
2020.4528963453779
 20
1640.9690178996971
 30
0.0
 11
2020.4528963453779
 21
1633.615172201065
 31
0.0
  0
LINE
  5
14199
  8
HIDE
 10
2025.9528963453779
 20
1640.8958727371539
 30
0.0
 11
2025.9528963453779
 21
1633.4947774653619
 31
0.0
  0
LINE
  5
1419A
  8
HIDE
 10
2025.452896345377
 20
1640.9690178996971
 30
0.0
 11
2025.452896345377
 21
1633.615172201065
 31
0.0
  0
LINE
  5
1419B
  8
HIDE
 10
2019.9528963453779
 20
1640.8389640040521
 30
0.0
 11
2025.9528963453779
 21
1640.8389640040521
 31
0.0
  0
LINE
  5
1419C
  8
HIDE
 10
2019.9528963453779
 20
1635.838964004053
 30
0.0
 11
2025.9528963453779
 21
1635.838964004053
 31
0.0
  0
LINE
  5
1419D
  8
HIDE
 10
2019.9528963453779
 20
1635.838964004053
 30
0.0
 11
2020.4528963453779
 21
1635.550288869458
 31
0.0
  0
LINE
  5
1419E
  8
HIDE
 10
2025.9528963453779
 20
1635.838964004053
 30
0.0
 11
2025.452896345377
 21
1635.550288869458
 31
0.0
  0
LINE
  5
1419F
  8
HIDE
 10
2025.452896345377
 20
1635.550288869458
 30
0.0
 11
2020.4528963453779
 21
1635.550288869458
 31
0.0
  0
LINE
  5
141A0
  8
HIDE
 10
2019.9528963453779
 20
1603.3725466585661
 30
0.0
 11
2019.9528963453779
 21
1610.773641930359
 31
0.0
  0
LINE
  5
141A1
  8
HIDE
 10
2020.4528963453779
 20
1603.299401496022
 30
0.0
 11
2020.4528963453779
 21
1610.653247194655
 31
0.0
  0
LINE
  5
141A2
  8
HIDE
 10
2025.9528963453779
 20
1603.3725466585661
 30
0.0
 11
2025.9528963453779
 21
1610.7736419303581
 31
0.0
  0
LINE
  5
141A3
  8
HIDE
 10
2025.452896345377
 20
1603.299401496022
 30
0.0
 11
2025.452896345377
 21
1610.653247194655
 31
0.0
  0
LINE
  5
141A4
  8
HIDE
 10
2019.9528963453779
 20
1603.429455391667
 30
0.0
 11
2025.9528963453779
 21
1603.429455391667
 31
0.0
  0
LINE
  5
141A5
  8
HIDE
 10
2019.9528963453779
 20
1608.429455391667
 30
0.0
 11
2025.9528963453779
 21
1608.429455391667
 31
0.0
  0
LINE
  5
141A6
  8
HIDE
 10
2019.9528963453779
 20
1608.429455391667
 30
0.0
 11
2020.4528963453779
 21
1608.7181305262609
 31
0.0
  0
LINE
  5
141A7
  8
HIDE
 10
2025.9528963453779
 20
1608.429455391667
 30
0.0
 11
2025.452896345377
 21
1608.7181305262609
 31
0.0
  0
LINE
  5
141A8
  8
HIDE
 10
2025.452896345377
 20
1608.7181305262609
 30
0.0
 11
2020.4528963453779
 21
1608.7181305262609
 31
0.0
  0
LINE
  5
141A9
  8
0
 10
1976.9528963453779
 20
1582.0717586978601
 30
0.0
 11
1976.9528963453779
 21
1662.1966606978599
 31
0.0
  0
LINE
  5
141AA
  8
0
 10
2068.9528963453781
 20
1582.0717586978601
 30
0.0
 11
2068.9528963453781
 21
1662.1966606978599
 31
0.0
  0
CIRCLE
  5
141AB
  8
0
 10
2022.9528963453779
 20
1622.1342096978599
 30
0.0
 40
40.0
  0
CIRCLE
  5
141AC
  8
0
 10
2022.9528963453779
 20
1622.1342096978599
 30
0.0
 40
23.0
  0
ARC
  5
141AD
  8
0
 10
2022.9528963453779
 20
1622.1342096978599
 30
0.0
 40
61.0
 50
221.05335099999539
 51
318.94664900000458
  0
CIRCLE
  5
141AE
  8
0
 10
2022.9528963453779
 20
1572.1342096978599
 30
0.0
 40
8.75
  0
ARC
  5
141AF
  8
CENTER
 10
2022.9528963453779
 20
1622.1342096978599
 30
0.0
 40
50.0
 50
256.20649100002612
 51
284.36892200001978
  0
ARC
  5
141B0
  8
CENTER
 10
2022.9528963453779
 20
1622.1342096978599
 30
0.0
 40
33.0
 50
255.96394699998859
 51
285.26651499998951
  0
CIRCLE
  5
141B1
  8
0
 10
1987.5975573453779
 20
1586.7788706978599
 30
0.0
 40
8.75
  0
LINE
  5
141B2
  8
CENTER
 10
1996.0906663453791
 20
1595.2719796978599
 30
0.0
 11
1978.3625403453771
 21
1577.54385369786
 31
0.0
  0
ARC
  5
141B3
  8
CENTER
 10
2022.9528963453779
 20
1622.1342096978599
 30
0.0
 40
50.0
 50
211.62926600002379
 51
238.59884500001661
  0
CIRCLE
  5
141B4
  8
0
 10
1994.3740583453759
 20
1605.6342096978599
 30
0.0
 40
6.0
  0
ARC
  5
141B5
  8
CENTER
 10
2022.9528963453779
 20
1622.1342096978599
 30
0.0
 40
33.0
 50
195.48598399998849
 51
223.24701299998009
  0
CIRCLE
  5
141B6
  8
0
 10
1987.5975573453779
 20
1586.7788706978599
 30
0.0
 40
5.5
  0
LINE
  5
141B7
  8
CENTER
 10
2001.7808943453781
 20
1609.9105486978599
 30
0.0
 11
1986.804738345377
 21
1601.26406069786
 31
0.0
  0
LINE
  5
141B8
  8
0
 10
1993.5719343453779
 20
1610.1827966978601
 30
0.0
 11
1997.9122203453769
 21
1608.60306269786
 31
0.0
  0
LINE
  5
141B9
  8
0
 10
1995.176504345377
 20
1601.08491169786
 30
0.0
 11
1998.714715345377
 21
1604.05382369786
 31
0.0
  0
LINE
  5
141BA
  8
0
 10
1990.0338663453761
 20
1607.2133896978601
 30
0.0
 11
1990.8359283453769
 21
1602.6646656978601
 31
0.0
  0
LINE
  5
141BB
  8
0
 10
1990.835773345377
 20
1602.66525369786
 30
0.0
 11
1995.176059345376
 21
1601.0855186978599
 31
0.0
  0
LINE
  5
141BC
  8
0
 10
1990.0342013453769
 20
1607.21326869786
 30
0.0
 11
1993.5724003453779
 21
1610.1821706978601
 31
0.0
  0
LINE
  5
141BD
  8
0
 10
1997.912327345377
 20
1608.6025726978601
 30
0.0
 11
1998.714389345377
 21
1604.05384769786
 31
0.0
  0
LINE
  5
141BE
  8
CENTER
 10
2050.1128103453771
 20
1594.97429569786
 30
0.0
 11
2067.3572623453761
 21
1577.7298436978599
 31
0.0
  0
CIRCLE
  5
141BF
  8
0
 10
2058.3082353453779
 20
1586.7788706978599
 30
0.0
 40
8.75
  0
ARC
  5
141C0
  8
CENTER
 10
2022.9528963453779
 20
1622.1342096978599
 30
0.0
 40
50.0
 50
301.22760899997121
 51
328.65753399999232
  0
CIRCLE
  5
141C1
  8
0
 10
2022.9528963453779
 20
1572.1342096978599
 30
0.0
 40
5.5
  0
CIRCLE
  5
141C2
  8
0
 10
2058.3082353453779
 20
1586.7788706978599
 30
0.0
 40
5.5
  0
LINE
  5
141C3
  8
CENTER
 10
2044.6119373453771
 20
1609.62935669786
 30
0.0
 11
2059.0278463453778
 21
1601.3063276978601
 31
0.0
  0
LINE
  5
141C4
  8
0
 10
2052.3341813453771
 20
1601.08491169786
 30
0.0
 11
2055.8723923453781
 21
1604.05382369786
 31
0.0
  0
LINE
  5
141C5
  8
0
 10
2055.070004345378
 20
1608.6025726978601
 30
0.0
 11
2055.8720663453792
 21
1604.05384769786
 31
0.0
  0
CIRCLE
  5
141C6
  8
0
 10
2051.5317343453789
 20
1605.6342096978599
 30
0.0
 40
6.0
  0
ARC
  5
141C7
  8
CENTER
 10
2022.9528963453779
 20
1622.1342096978599
 30
0.0
 40
33.0
 50
315.74692800001731
 51
344.76496800001621
  0
LINE
  5
141C8
  8
0
 10
2026.491165345378
 20
1592.1025726978601
 30
0.0
 11
2027.2932273453771
 21
1587.55384769786
 31
0.0
  0
LINE
  5
141C9
  8
0
 10
2018.612704345378
 20
1590.7133896978601
 30
0.0
 11
2019.4147663453771
 21
1586.1646656978601
 31
0.0
  0
CIRCLE
  5
141CA
  8
0
 10
2022.9528963453779
 20
1589.1342096978599
 30
0.0
 40
6.0
  0
LINE
  5
141CB
  8
0
 10
2023.7553433453779
 20
1584.58491169786
 30
0.0
 11
2027.2935533453781
 21
1587.55382369786
 31
0.0
  0
LINE
  5
141CC
  8
0
 10
2019.4146113453789
 20
1586.16525369786
 30
0.0
 11
2023.754898345378
 21
1584.5855186978599
 31
0.0
  0
LINE
  5
141CD
  8
0
 10
2022.1507723453781
 20
1593.6827966978601
 30
0.0
 11
2026.4910593453781
 21
1592.10306269786
 31
0.0
  0
LINE
  5
141CE
  8
0
 10
2018.613039345378
 20
1590.71326869786
 30
0.0
 11
2022.1512383453769
 21
1593.6821706978601
 31
0.0
  0
LINE
  5
141CF
  8
0
 10
2047.191543345378
 20
1607.2133896978601
 30
0.0
 11
2047.9936053453789
 21
1602.6646656978601
 31
0.0
  0
LINE
  5
141D0
  8
0
 10
2047.993450345376
 20
1602.66525369786
 30
0.0
 11
2052.333736345377
 21
1601.0855186978599
 31
0.0
  0
LINE
  5
141D1
  8
0
 10
2050.7296113453781
 20
1610.1827966978601
 30
0.0
 11
2055.0698973453759
 21
1608.60306269786
 31
0.0
  0
LINE
  5
141D2
  8
0
 10
2047.1918783453759
 20
1607.21326869786
 30
0.0
 11
2050.730077345379
 21
1610.1821706978601
 31
0.0
  0
ARC
  5
141D3
  8
CENTER
 10
2022.9528963453779
 20
1622.1342096978599
 30
0.0
 40
33.0
 50
75.580268000018037
 51
103.93967100000459
  0
ARC
  5
141D4
  8
0
 10
2022.9528963453779
 20
1622.1342096978599
 30
0.0
 40
61.0
 50
41.053350999995423
 51
138.9466490000045
  0
CIRCLE
  5
141D5
  8
0
 10
2022.9528963453779
 20
1672.1342096978599
 30
0.0
 40
8.75
  0
ARC
  5
141D6
  8
CENTER
 10
2022.9528963453779
 20
1622.1342096978599
 30
0.0
 40
50.0
 50
76.608049999989831
 51
102.9155509999746
  0
ARC
  5
141D7
  8
CENTER
 10
2022.9528963453779
 20
1622.1342096978599
 30
0.0
 40
50.0
 50
121.44042499999971
 51
147.9237449999803
  0
CIRCLE
  5
141D8
  8
0
 10
1987.5975573453779
 20
1657.4895486978601
 30
0.0
 40
8.75
  0
LINE
  5
141D9
  8
CENTER
 10
1995.801102345376
 20
1649.28600369786
 30
0.0
 11
1978.556899345378
 21
1666.53020669786
 31
0.0
  0
LINE
  5
141DA
  8
CENTER
 10
2001.121695345377
 20
1634.73845969786
 30
0.0
 11
1986.9566373453781
 21
1642.91665969786
 31
0.0
  0
ARC
  5
141DB
  8
CENTER
 10
2022.9528963453779
 20
1622.1342096978599
 30
0.0
 40
33.0
 50
135.37543599998261
 51
163.51458099996651
  0
LINE
  5
141DC
  8
0
 10
1993.5719343453779
 20
1643.1827966978601
 30
0.0
 11
1997.9122203453769
 21
1641.60306269786
 31
0.0
  0
LINE
  5
141DD
  8
0
 10
1990.0342013453769
 20
1640.21326869786
 30
0.0
 11
1993.5724003453779
 21
1643.1821706978601
 31
0.0
  0
CIRCLE
  5
141DE
  8
0
 10
1994.3740583453759
 20
1638.6342096978599
 30
0.0
 40
6.0
  0
LINE
  5
141DF
  8
0
 10
1995.176504345377
 20
1634.08491169786
 30
0.0
 11
1998.714715345377
 21
1637.05382369786
 31
0.0
  0
LINE
  5
141E0
  8
0
 10
1990.0338663453761
 20
1640.2133896978601
 30
0.0
 11
1990.8359283453769
 21
1635.6646656978601
 31
0.0
  0
LINE
  5
141E1
  8
0
 10
1990.835773345377
 20
1635.66525369786
 30
0.0
 11
1995.176059345376
 21
1634.0855186978599
 31
0.0
  0
LINE
  5
141E2
  8
0
 10
1997.912327345377
 20
1641.6025726978601
 30
0.0
 11
1998.714389345377
 21
1637.05384769786
 31
0.0
  0
CIRCLE
  5
141E3
  8
0
 10
1987.5975573453779
 20
1657.4895486978601
 30
0.0
 40
5.5
  0
CIRCLE
  5
141E4
  8
0
 10
2058.3082353453779
 20
1657.4895486978601
 30
0.0
 40
8.75
  0
LINE
  5
141E5
  8
CENTER
 10
2049.4352743453792
 20
1648.61658769786
 30
0.0
 11
2067.1631513453772
 21
1666.3444646978601
 31
0.0
  0
ARC
  5
141E6
  8
CENTER
 10
2022.9528963453779
 20
1622.1342096978599
 30
0.0
 40
50.0
 50
31.14427400001297
 51
58.676745000004111
  0
CIRCLE
  5
141E7
  8
0
 10
2058.3082353453779
 20
1657.4895486978601
 30
0.0
 40
5.5
  0
LINE
  5
141E8
  8
CENTER
 10
2044.744329345378
 20
1634.71549969786
 30
0.0
 11
2058.3387733453778
 21
1642.5642556978601
 31
0.0
  0
LINE
  5
141E9
  8
0
 10
2052.3341813453771
 20
1634.08491169786
 30
0.0
 11
2055.8723923453781
 21
1637.05382369786
 31
0.0
  0
LINE
  5
141EA
  8
0
 10
2055.070004345378
 20
1641.6025726978601
 30
0.0
 11
2055.8720663453792
 21
1637.05384769786
 31
0.0
  0
CIRCLE
  5
141EB
  8
0
 10
2051.5317343453789
 20
1638.6342096978599
 30
0.0
 40
6.0
  0
LINE
  5
141EC
  8
0
 10
2050.7296113453781
 20
1643.1827966978601
 30
0.0
 11
2055.0698973453759
 21
1641.60306269786
 31
0.0
  0
LINE
  5
141ED
  8
0
 10
2047.1918783453759
 20
1640.21326869786
 30
0.0
 11
2050.730077345379
 21
1643.1821706978601
 31
0.0
  0
ARC
  5
141EE
  8
CENTER
 10
2022.9528963453779
 20
1622.1342096978599
 30
0.0
 40
33.0
 50
15.6977680000006
 51
43.837381999963668
  0
LINE
  5
141EF
  8
0
 10
2047.191543345378
 20
1640.2133896978601
 30
0.0
 11
2047.9936053453789
 21
1635.6646656978601
 31
0.0
  0
LINE
  5
141F0
  8
0
 10
2047.993450345376
 20
1635.66525369786
 30
0.0
 11
2052.333736345377
 21
1634.0855186978599
 31
0.0
  0
LINE
  5
141F1
  8
0
 10
2023.7553433453779
 20
1650.58491169786
 30
0.0
 11
2027.2935533453781
 21
1653.55382369786
 31
0.0
  0
LINE
  5
141F2
  8
0
 10
2018.612704345378
 20
1656.7133896978601
 30
0.0
 11
2019.4147663453771
 21
1652.1646656978601
 31
0.0
  0
CIRCLE
  5
141F3
  8
0
 10
2022.9528963453779
 20
1655.1342096978599
 30
0.0
 40
6.0
  0
LINE
  5
141F4
  8
0
 10
2019.4146113453789
 20
1652.16525369786
 30
0.0
 11
2023.754898345378
 21
1650.5855186978599
 31
0.0
  0
LINE
  5
141F5
  8
0
 10
2022.1507723453781
 20
1659.6827966978601
 30
0.0
 11
2026.4910593453781
 21
1658.10306269786
 31
0.0
  0
LINE
  5
141F6
  8
0
 10
2018.613039345378
 20
1656.71326869786
 30
0.0
 11
2022.1512383453769
 21
1659.6821706978601
 31
0.0
  0
LINE
  5
141F7
  8
0
 10
2026.491165345378
 20
1658.1025726978601
 30
0.0
 11
2027.2932273453771
 21
1653.55384769786
 31
0.0
  0
LINE
  5
141F8
  8
0
 10
2058.3387733453778
 20
1642.5642556978601
 30
0.0
 11
2058.3566323453779
 21
1642.57456569786
 31
0.0
  0
CIRCLE
  5
141F9
  8
0
 10
2022.9528963453779
 20
1672.1342096978599
 30
0.0
 40
5.5
  0
LINE
  5
141FA
  8
CENTER
 10
2022.9528963453779
 20
1556.1342096978599
 30
0.0
 11
2022.9528963453779
 21
1688.1342096978599
 31
0.0
  0
LINE
  5
141FB
  8
CENTER
 10
1970.952896345377
 20
1622.1342096978599
 30
0.0
 11
2074.9528963453781
 21
1622.1342096978599
 31
0.0
  0
LINE
  5
1421B
  8
CENTER
 10
2156.1330122035588
 20
1572.1342096978599
 30
0.0
 11
2178.122558020616
 21
1572.1342096978599
 31
0.0
  0
LINE
  5
1421C
  8
HIDE
 10
2170.5968603967131
 20
1566.6342096978599
 30
0.0
 11
2174.5968603967131
 21
1566.6342096978599
 31
0.0
  0
LINE
  5
1421D
  8
HIDE
 10
2170.5968603967131
 20
1577.6342096978599
 30
0.0
 11
2174.5968603967131
 21
1577.6342096978599
 31
0.0
  0
LINE
  5
1421E
  8
HIDE
 10
2159.5968603967131
 20
1563.3842096978599
 30
0.0
 11
2170.5968603967131
 21
1563.3842096978599
 31
0.0
  0
LINE
  5
1421F
  8
HIDE
 10
2159.5968603967131
 20
1580.8842096978599
 30
0.0
 11
2170.5968603967131
 21
1580.8842096978599
 31
0.0
  0
LINE
  5
14220
  8
HIDE
 10
2170.5968603967131
 20
1563.3842096978599
 30
0.0
 11
2170.5968603967131
 21
1580.8842096978599
 31
0.0
  0
LINE
  5
14221
  8
HIDE
 10
2170.5968603967131
 20
1680.8842096978599
 30
0.0
 11
2170.5968603967131
 21
1663.3842096978599
 31
0.0
  0
LINE
  5
14222
  8
HIDE
 10
2159.5968603967131
 20
1663.3842096978599
 30
0.0
 11
2170.5968603967131
 21
1663.3842096978599
 31
0.0
  0
LINE
  5
14223
  8
HIDE
 10
2159.5968603967131
 20
1680.8842096978599
 30
0.0
 11
2170.5968603967131
 21
1680.8842096978599
 31
0.0
  0
LINE
  5
14224
  8
HIDE
 10
2170.5968603967131
 20
1666.6342096978599
 30
0.0
 11
2174.5968603967131
 21
1666.6342096978599
 31
0.0
  0
LINE
  5
14225
  8
HIDE
 10
2170.5968603967131
 20
1677.6342096978599
 30
0.0
 11
2174.5968603967131
 21
1677.6342096978599
 31
0.0
  0
LINE
  5
14226
  8
0
 10
2147.5968603967131
 20
1582.1342096978599
 30
0.0
 11
2159.5968603967131
 21
1582.1342096978599
 31
0.0
  0
LINE
  5
14227
  8
0
 10
2147.5968603967131
 20
1662.1342096978599
 30
0.0
 11
2159.5968603967131
 21
1662.1342096978599
 31
0.0
  0
LINE
  5
14228
  8
0
 10
2159.5968603967131
 20
1683.1342096978599
 30
0.0
 11
2174.5968603967131
 21
1683.1342096978599
 31
0.0
  0
LINE
  5
14229
  8
0
 10
2159.5968603967131
 20
1561.1342096978599
 30
0.0
 11
2174.5968603967131
 21
1561.1342096978599
 31
0.0
  0
LINE
  5
1422A
  8
0
 10
2231.5968603967131
 20
1662.1342136978601
 30
0.0
 11
2174.5968603967131
 21
1662.1342136978601
 31
0.0
  0
LINE
  5
1422B
  8
CENTER
 10
2156.1330122035588
 20
1672.1342096978599
 30
0.0
 11
2178.122558020616
 21
1672.1342096978599
 31
0.0
  0
LINE
  5
1422C
  8
0
 10
2231.5968603967131
 20
1662.1342136978601
 30
0.0
 11
2231.5968603967131
 21
1582.1342056978599
 31
0.0
  0
LINE
  5
1422D
  8
0
 10
2174.5968603967131
 20
1683.1342096978599
 30
0.0
 11
2174.5968603967131
 21
1662.1342136978601
 31
0.0
  0
LINE
  5
1422E
  8
0
 10
2159.5968603967131
 20
1683.1342096978599
 30
0.0
 11
2159.5968603967131
 21
1561.1342096978599
 31
0.0
  0
LINE
  5
1422F
  8
0
 10
2147.5968603967131
 20
1662.1342096978599
 30
0.0
 11
2147.5968603967131
 21
1582.1342096978599
 31
0.0
  0
LINE
  5
14230
  8
CENTER
 10
2131.0362483735012
 20
1622.1342096978599
 30
0.0
 11
2236.5968603967131
 21
1622.1342096978599
 31
0.0
  0
LINE
  5
14231
  8
0
 10
2231.5968603967131
 20
1582.1342056978599
 30
0.0
 11
2174.5968603967131
 21
1582.1342056978599
 31
0.0
  0
CIRCLE
  5
14232
  8
HIDE
 10
2199.0968603967121
 20
1602.8842096978599
 30
0.0
 40
4.049999999999998
  0
CIRCLE
  5
14233
  8
HIDE
 10
2199.0968603967121
 20
1641.3842096978599
 30
0.0
 40
4.049999999999998
  0
CIRCLE
  5
14234
  8
HIDE
 10
2184.0968603967131
 20
1602.8842096978599
 30
0.0
 40
4.0499999999999989
  0
CIRCLE
  5
14235
  8
HIDE
 10
2184.0968603967131
 20
1641.3842096978599
 30
0.0
 40
4.0499999999999989
  0
ARC
  5
14236
  8
HIDE
 10
2190.9968603967141
 20
1647.53420969786
 30
0.0
 40
0.5999999999999996
 50
0.0
 51
90.0
  0
ARC
  5
14237
  8
HIDE
 10
2177.5968603967131
 20
1647.1342096978599
 30
0.0
 40
1.0
 50
90.0
 51
180.0
  0
ARC
  5
14238
  8
HIDE
 10
2190.5968603967131
 20
1635.6342096978599
 30
0.0
 40
1.0
 50
270.0
 51
0.0
  0
ARC
  5
14239
  8
HIDE
 10
2190.5968603967131
 20
1608.6342096978599
 30
0.0
 40
1.0
 50
0.0
 51
90.0
  0
ARC
  5
1423A
  8
HIDE
 10
2177.196860396713
 20
1635.23420969786
 30
0.0
 40
0.6000000000000015
 50
180.0
 51
270.0
  0
ARC
  5
1423B
  8
HIDE
 10
2177.196860396713
 20
1609.03420969786
 30
0.0
 40
0.5999999999999996
 50
90.0
 51
180.0
  0
ARC
  5
1423C
  8
HIDE
 10
2190.9968603967141
 20
1596.73420969786
 30
0.0
 40
0.6000000000000015
 50
270.0
 51
0.0
  0
ARC
  5
1423D
  8
HIDE
 10
2177.5968603967131
 20
1597.1342096978599
 30
0.0
 40
1.0
 50
180.0
 51
270.0
  0
LINE
  5
1423E
  8
HIDE
 10
2176.5968603967131
 20
1643.0842096978599
 30
0.0
 11
2180.4209251415709
 21
1643.0842096978599
 31
0.0
  0
LINE
  5
1423F
  8
HIDE
 10
2177.5968603967131
 20
1648.1342096978599
 30
0.0
 11
2190.9968603967141
 21
1648.1342096978599
 31
0.0
  0
LINE
  5
14240
  8
HIDE
 10
2191.5968603967131
 20
1639.5842096978599
 30
0.0
 11
2187.7248763834468
 21
1639.5842096978599
 31
0.0
  0
LINE
  5
14241
  8
HIDE
 10
2185.5884538976561
 20
1645.149531573602
 30
0.0
 11
2191.5968603967131
 21
1645.6342096978599
 31
0.0
  0
LINE
  5
14242
  8
HIDE
 10
2176.5968603967131
 20
1639.5842096978599
 30
0.0
 11
2180.4688444099779
 21
1639.5842096978599
 31
0.0
  0
LINE
  5
14243
  8
HIDE
 10
2176.5968603967131
 20
1604.6842096978601
 30
0.0
 11
2180.4688444099779
 21
1604.6842096978601
 31
0.0
  0
LINE
  5
14244
  8
HIDE
 10
2177.196860396713
 20
1634.6342096978599
 30
0.0
 11
2190.5968603967131
 21
1634.6342096978599
 31
0.0
  0
LINE
  5
14245
  8
HIDE
 10
2177.196860396713
 20
1609.6342096978599
 30
0.0
 11
2190.5968603967131
 21
1609.6342096978599
 31
0.0
  0
LINE
  5
14246
  8
HIDE
 10
2191.5968603967131
 20
1604.6842096978601
 30
0.0
 11
2187.7248763834468
 21
1604.6842096978601
 31
0.0
  0
LINE
  5
14247
  8
HIDE
 10
2176.5968603967131
 20
1601.1842096978601
 30
0.0
 11
2180.4209251415709
 21
1601.1842096978601
 31
0.0
  0
LINE
  5
14248
  8
HIDE
 10
2190.9968603967141
 20
1596.1342096978599
 30
0.0
 11
2177.5968603967131
 21
1596.1342096978599
 31
0.0
  0
LINE
  5
14249
  8
HIDE
 10
2185.5884538976561
 20
1599.118887822118
 30
0.0
 11
2191.5968603967131
 21
1598.6342096978599
 31
0.0
  0
LINE
  5
1424A
  8
HIDE
 10
2176.5968603967131
 20
1597.1342096978599
 30
0.0
 11
2176.5968603967131
 21
1647.1342096978599
 31
0.0
  0
LINE
  5
1424B
  8
HIDE
 10
2191.5968603967131
 20
1647.53420969786
 30
0.0
 11
2191.5968603967131
 21
1596.73420969786
 31
0.0
  0
LINE
  5
1424C
  8
HIDE
 10
2180.210550948821
 20
1643.0842096978599
 30
0.0
 11
2180.6716165270741
 21
1643.5452752761109
 31
0.0
  0
ARC
  5
1424D
  8
HIDE
 10
2192.196860396713
 20
1596.73420969786
 30
0.0
 40
0.5999999999999996
 50
180.0
 51
270.0
  0
ARC
  5
1424E
  8
HIDE
 10
2205.5968603967131
 20
1597.1342096978599
 30
0.0
 40
1.0
 50
270.0
 51
0.0
  0
ARC
  5
1424F
  8
HIDE
 10
2192.5968603967131
 20
1608.6342096978599
 30
0.0
 40
1.0
 50
90.0
 51
180.0
  0
ARC
  5
14250
  8
HIDE
 10
2192.5968603967131
 20
1635.6342096978599
 30
0.0
 40
1.0
 50
180.0
 51
270.0
  0
ARC
  5
14251
  8
HIDE
 10
2205.9968603967141
 20
1609.03420969786
 30
0.0
 40
0.6
 50
0.0
 51
90.0
  0
ARC
  5
14252
  8
HIDE
 10
2205.9968603967141
 20
1635.23420969786
 30
0.0
 40
0.5999999999999996
 50
270.0
 51
0.0
  0
ARC
  5
14253
  8
HIDE
 10
2192.196860396713
 20
1647.5342096978609
 30
0.0
 40
0.6000000000000015
 50
90.0
 51
180.0
  0
ARC
  5
14254
  8
HIDE
 10
2205.5968603967131
 20
1647.1342096978599
 30
0.0
 40
1.0
 50
0.0
 51
90.0
  0
LINE
  5
14255
  8
HIDE
 10
2206.5968603967131
 20
1601.1842096978601
 30
0.0
 11
2202.7727956518552
 21
1601.1842096978601
 31
0.0
  0
LINE
  5
14256
  8
HIDE
 10
2205.5968603967131
 20
1596.1342096978599
 30
0.0
 11
2192.196860396713
 21
1596.1342096978599
 31
0.0
  0
LINE
  5
14257
  8
HIDE
 10
2191.5968603967131
 20
1604.6842096978601
 30
0.0
 11
2195.4688444099779
 21
1604.6842096978601
 31
0.0
  0
LINE
  5
14258
  8
HIDE
 10
2197.6052668957709
 20
1599.118887822118
 30
0.0
 11
2191.5968603967131
 21
1598.6342096978599
 31
0.0
  0
LINE
  5
14259
  8
HIDE
 10
2206.5968603967131
 20
1604.6842096978601
 30
0.0
 11
2202.7248763834468
 21
1604.6842096978601
 31
0.0
  0
LINE
  5
1425A
  8
HIDE
 10
2206.5968603967131
 20
1639.5842096978599
 30
0.0
 11
2202.7248763834468
 21
1639.5842096978599
 31
0.0
  0
LINE
  5
1425B
  8
HIDE
 10
2205.9968603967141
 20
1609.6342096978599
 30
0.0
 11
2192.5968603967131
 21
1609.6342096978599
 31
0.0
  0
LINE
  5
1425C
  8
HIDE
 10
2205.9968603967141
 20
1634.6342096978599
 30
0.0
 11
2192.5968603967131
 21
1634.6342096978599
 31
0.0
  0
LINE
  5
1425D
  8
HIDE
 10
2191.5968603967131
 20
1639.5842096978599
 30
0.0
 11
2195.4688444099779
 21
1639.5842096978599
 31
0.0
  0
LINE
  5
1425E
  8
HIDE
 10
2206.5968603967131
 20
1643.0842096978599
 30
0.0
 11
2202.7727956518552
 21
1643.0842096978599
 31
0.0
  0
LINE
  5
1425F
  8
HIDE
 10
2192.196860396713
 20
1648.1342096978599
 30
0.0
 11
2205.5968603967131
 21
1648.1342096978599
 31
0.0
  0
LINE
  5
14260
  8
HIDE
 10
2197.6052668957709
 20
1645.1495315736031
 30
0.0
 11
2191.5968603967131
 21
1645.6342096978599
 31
0.0
  0
LINE
  5
14261
  8
HIDE
 10
2206.5968603967131
 20
1647.1342096978599
 30
0.0
 11
2206.5968603967131
 21
1597.1342096978599
 31
0.0
  0
LINE
  5
14262
  8
HIDE
 10
2202.5221042663511
 20
1643.5452752761121
 30
0.0
 11
2202.9831698446042
 21
1643.0842096978599
 31
0.0
  0
CIRCLE
  5
14263
  8
HIDE
 10
2214.0968603967131
 20
1602.8842096978599
 30
0.0
 40
4.049999999999998
  0
CIRCLE
  5
14264
  8
HIDE
 10
2214.0968603967131
 20
1641.3842096978599
 30
0.0
 40
4.049999999999998
  0
ARC
  5
14265
  8
HIDE
 10
2207.196860396713
 20
1596.73420969786
 30
0.0
 40
0.5999999999999996
 50
180.0
 51
270.0
  0
ARC
  5
14266
  8
HIDE
 10
2220.5968603967131
 20
1597.1342096978599
 30
0.0
 40
1.0
 50
270.0
 51
0.0
  0
ARC
  5
14267
  8
HIDE
 10
2207.5968603967131
 20
1608.6342096978599
 30
0.0
 40
1.0
 50
90.0
 51
180.0
  0
ARC
  5
14268
  8
HIDE
 10
2207.5968603967131
 20
1635.6342096978599
 30
0.0
 40
1.0
 50
180.0
 51
270.0
  0
ARC
  5
14269
  8
HIDE
 10
2220.9968603967141
 20
1609.03420969786
 30
0.0
 40
0.6
 50
0.0
 51
90.0
  0
ARC
  5
1426A
  8
HIDE
 10
2220.9968603967141
 20
1635.23420969786
 30
0.0
 40
0.5999999999999996
 50
270.0
 51
0.0
  0
ARC
  5
1426B
  8
HIDE
 10
2207.196860396713
 20
1647.5342096978609
 30
0.0
 40
0.6000000000000015
 50
90.0
 51
180.0
  0
ARC
  5
1426C
  8
HIDE
 10
2220.5968603967131
 20
1647.1342096978599
 30
0.0
 40
1.0
 50
0.0
 51
90.0
  0
LINE
  5
1426D
  8
HIDE
 10
2221.5968603967131
 20
1601.1842096978601
 30
0.0
 11
2217.7727956518538
 21
1601.1842096978601
 31
0.0
  0
LINE
  5
1426E
  8
HIDE
 10
2220.5968603967131
 20
1596.1342096978599
 30
0.0
 11
2207.196860396713
 21
1596.1342096978599
 31
0.0
  0
LINE
  5
1426F
  8
HIDE
 10
2206.5968603967131
 20
1604.6842096978601
 30
0.0
 11
2210.4688444099779
 21
1604.6842096978601
 31
0.0
  0
LINE
  5
14270
  8
HIDE
 10
2212.6052668957718
 20
1599.118887822118
 30
0.0
 11
2206.5968603967131
 21
1598.6342096978599
 31
0.0
  0
LINE
  5
14271
  8
HIDE
 10
2221.5968603967131
 20
1604.6842096978601
 30
0.0
 11
2217.7248763834482
 21
1604.6842096978601
 31
0.0
  0
LINE
  5
14272
  8
HIDE
 10
2221.5968603967131
 20
1639.5842096978599
 30
0.0
 11
2217.7248763834482
 21
1639.5842096978599
 31
0.0
  0
LINE
  5
14273
  8
HIDE
 10
2220.9968603967141
 20
1609.6342096978599
 30
0.0
 11
2207.5968603967131
 21
1609.6342096978599
 31
0.0
  0
LINE
  5
14274
  8
HIDE
 10
2220.9968603967141
 20
1634.6342096978599
 30
0.0
 11
2207.5968603967131
 21
1634.6342096978599
 31
0.0
  0
LINE
  5
14275
  8
HIDE
 10
2206.5968603967131
 20
1639.5842096978599
 30
0.0
 11
2210.4688444099779
 21
1639.5842096978599
 31
0.0
  0
LINE
  5
14276
  8
HIDE
 10
2221.5968603967131
 20
1643.0842096978599
 30
0.0
 11
2217.7727956518538
 21
1643.0842096978599
 31
0.0
  0
LINE
  5
14277
  8
HIDE
 10
2207.196860396713
 20
1648.1342096978599
 30
0.0
 11
2220.5968603967131
 21
1648.1342096978599
 31
0.0
  0
LINE
  5
14278
  8
HIDE
 10
2212.6052668957718
 20
1645.1495315736031
 30
0.0
 11
2206.5968603967131
 21
1645.6342096978599
 31
0.0
  0
LINE
  5
14279
  8
HIDE
 10
2221.5968603967131
 20
1647.1342096978599
 30
0.0
 11
2221.5968603967131
 21
1597.1342096978599
 31
0.0
  0
LINE
  5
1427A
  8
HIDE
 10
2217.5221042663511
 20
1643.5452752761121
 30
0.0
 11
2217.9831698446042
 21
1643.0842096978599
 31
0.0
  0
LINE
  5
1427B
  8
HIDE
 10
2221.5968603967131
 20
1634.634209697821
 30
0.0
 11
2231.5968603967131
 21
1634.634209697821
 31
0.0
  0
LINE
  5
1427C
  8
HIDE
 10
2221.5968603967131
 20
1637.384209697821
 30
0.0
 11
2231.5968603967131
 21
1637.384209697821
 31
0.0
  0
LINE
  5
1427D
  8
HIDE
 10
2221.5968603967131
 20
1609.634209697899
 30
0.0
 11
2231.5968603967131
 21
1609.634209697899
 31
0.0
  0
LINE
  5
1427E
  8
HIDE
 10
2221.5968603967131
 20
1606.884209697899
 30
0.0
 11
2231.5968603967131
 21
1606.884209697899
 31
0.0
  0
LINE
  5
1427F
  8
HIDE
 10
2151.5968603967131
 20
1634.634209697821
 30
0.0
 11
2161.5968603967131
 21
1634.634209697821
 31
0.0
  0
LINE
  5
14280
  8
HIDE
 10
2151.5968603967131
 20
1637.384209697821
 30
0.0
 11
2161.5968603967131
 21
1637.384209697821
 31
0.0
  0
LINE
  5
14281
  8
HIDE
 10
2151.5968603967131
 20
1609.634209697899
 30
0.0
 11
2161.5968603967131
 21
1609.634209697899
 31
0.0
  0
LINE
  5
14282
  8
HIDE
 10
2151.5968603967131
 20
1606.884209697899
 30
0.0
 11
2161.5968603967131
 21
1606.884209697899
 31
0.0
  0
CIRCLE
  5
14283
  8
HIDE
 10
2169.0968603967131
 20
1602.8842096978599
 30
0.0
 40
4.0499999999999989
  0
CIRCLE
  5
14284
  8
HIDE
 10
2169.0968603967131
 20
1641.3842096978599
 30
0.0
 40
4.0499999999999989
  0
ARC
  5
14285
  8
HIDE
 10
2175.9968603967141
 20
1647.53420969786
 30
0.0
 40
0.5999999999999996
 50
0.0
 51
90.0
  0
ARC
  5
14286
  8
HIDE
 10
2162.5968603967131
 20
1647.1342096978599
 30
0.0
 40
1.0
 50
90.0
 51
180.0
  0
ARC
  5
14287
  8
HIDE
 10
2175.5968603967131
 20
1635.6342096978599
 30
0.0
 40
1.0
 50
270.0
 51
0.0
  0
ARC
  5
14288
  8
HIDE
 10
2175.5968603967131
 20
1608.6342096978599
 30
0.0
 40
1.0
 50
0.0
 51
90.0
  0
ARC
  5
14289
  8
HIDE
 10
2162.196860396713
 20
1635.23420969786
 30
0.0
 40
0.6000000000000015
 50
180.0
 51
270.0
  0
ARC
  5
1428A
  8
HIDE
 10
2162.196860396713
 20
1609.03420969786
 30
0.0
 40
0.5999999999999996
 50
90.0
 51
180.0
  0
ARC
  5
1428B
  8
HIDE
 10
2175.9968603967141
 20
1596.73420969786
 30
0.0
 40
0.6000000000000015
 50
270.0
 51
0.0
  0
ARC
  5
1428C
  8
HIDE
 10
2162.5968603967131
 20
1597.1342096978599
 30
0.0
 40
1.0
 50
180.0
 51
270.0
  0
LINE
  5
1428D
  8
HIDE
 10
2161.5968603967131
 20
1643.0842096978599
 30
0.0
 11
2165.4209251415709
 21
1643.0842096978599
 31
0.0
  0
LINE
  5
1428E
  8
HIDE
 10
2162.5968603967131
 20
1648.1342096978599
 30
0.0
 11
2175.9968603967141
 21
1648.1342096978599
 31
0.0
  0
LINE
  5
1428F
  8
HIDE
 10
2176.5968603967131
 20
1639.5842096978599
 30
0.0
 11
2172.7248763834482
 21
1639.5842096978599
 31
0.0
  0
LINE
  5
14290
  8
HIDE
 10
2170.5884538976561
 20
1645.149531573602
 30
0.0
 11
2176.5968603967131
 21
1645.6342096978599
 31
0.0
  0
LINE
  5
14291
  8
HIDE
 10
2161.5968603967131
 20
1639.5842096978599
 30
0.0
 11
2165.4688444099779
 21
1639.5842096978599
 31
0.0
  0
LINE
  5
14292
  8
HIDE
 10
2161.5968603967131
 20
1604.6842096978601
 30
0.0
 11
2165.4688444099779
 21
1604.6842096978601
 31
0.0
  0
LINE
  5
14293
  8
HIDE
 10
2162.196860396713
 20
1634.6342096978599
 30
0.0
 11
2175.5968603967131
 21
1634.6342096978599
 31
0.0
  0
LINE
  5
14294
  8
HIDE
 10
2162.196860396713
 20
1609.6342096978599
 30
0.0
 11
2175.5968603967131
 21
1609.6342096978599
 31
0.0
  0
LINE
  5
14295
  8
HIDE
 10
2176.5968603967131
 20
1604.6842096978601
 30
0.0
 11
2172.7248763834482
 21
1604.6842096978601
 31
0.0
  0
LINE
  5
14296
  8
HIDE
 10
2161.5968603967131
 20
1601.1842096978601
 30
0.0
 11
2165.4209251415709
 21
1601.1842096978601
 31
0.0
  0
LINE
  5
14297
  8
HIDE
 10
2175.9968603967141
 20
1596.1342096978599
 30
0.0
 11
2162.5968603967131
 21
1596.1342096978599
 31
0.0
  0
LINE
  5
14298
  8
HIDE
 10
2170.5884538976561
 20
1599.118887822118
 30
0.0
 11
2176.5968603967131
 21
1598.6342096978599
 31
0.0
  0
LINE
  5
14299
  8
HIDE
 10
2161.5968603967131
 20
1597.1342096978599
 30
0.0
 11
2161.5968603967131
 21
1647.1342096978599
 31
0.0
  0
LINE
  5
1429A
  8
HIDE
 10
2165.2105509488219
 20
1643.0842096978599
 30
0.0
 11
2165.6716165270741
 21
1643.5452752761109
 31
0.0
  0
LINE
  5
1429B
  8
0
 10
2174.5968603967131
 20
1582.1342056978599
 30
0.0
 11
2174.5968603967131
 21
1561.1342096978599
 31
0.0
  0
LINE
  5
142A2
  8
CENTER
 10
2154.4490192167941
 20
1622.1342096978599
 30
0.0
 11
2129.91948130745
 21
1622.1342096978599
 31
0.0
  0
ENDSEC
  0
EOF
