  0
SECTION
  2
HEADER
  9
$ACADVER
  1
AC1009
  9
$INSBASE
 10
0.0
 20
0.0
 30
0.0
  9
$EXTMIN
 10
1903.0405749290021
 20
1433.173578249188
 30
0.0
  9
$EXTMAX
 10
2348.540574929003
 20
1748.173578249188
 30
0.0
  9
$LIMMIN
 10
0.0
 20
0.0
  9
$LIMMAX
 10
12.0
 20
9.0
  9
$ORTHOMODE
 70
     0
  9
$REGENMODE
 70
     1
  9
$FILLMODE
 70
     1
  9
$QTEXTMODE
 70
     0
  9
$MIRRTEXT
 70
     0
  9
$DRAGMODE
 70
     2
  9
$LTSCALE
 40
5.0
  9
$OSMODE
 70
  2239
  9
$ATTMODE
 70
     1
  9
$TEXTSIZE
 40
2.5
  9
$TRACEWID
 40
0.05
  9
$TEXTSTYLE
  7
BIG
  9
$CLAYER
  8
0
  9
$CELTYPE
  6
BYLAYER
  9
$CECOLOR
 62
   256
  9
$DIMSCALE
 40
1.0
  9
$DIMASZ
 40
3.0
  9
$DIMEXO
 40
1.0
  9
$DIMDLI
 40
0.0
  9
$DIMRND
 40
0.0
  9
$DIMDLE
 40
0.0
  9
$DIMEXE
 40
1.0
  9
$DIMTP
 40
0.0
  9
$DIMTM
 40
0.0
  9
$DIMTXT
 40
3.0
  9
$DIMCEN
 40
0.0
  9
$DIMTSZ
 40
0.0
  9
$DIMTOL
 70
     0
  9
$DIMLIM
 70
     0
  9
$DIMTIH
 70
     0
  9
$DIMTOH
 70
     0
  9
$DIMSE1
 70
     0
  9
$DIMSE2
 70
     0
  9
$DIMTAD
 70
     1
  9
$DIMZIN
 70
     8
  9
$DIMBLK
  1

  9
$DIMASO
 70
     1
  9
$DIMSHO
 70
     1
  9
$DIMPOST
  1

  9
$DIMAPOST
  1

  9
$DIMALT
 70
     0
  9
$DIMALTD
 70
     2
  9
$DIMALTF
 40
25.399999999999999
  9
$DIMLFAC
 40
1.0
  9
$DIMTOFL
 70
     1
  9
$DIMTVP
 40
0.0
  9
$DIMTIX
 70
     1
  9
$DIMSOXD
 70
     0
  9
$DIMSAH
 70
     0
  9
$DIMBLK1
  1

  9
$DIMBLK2
  1

  9
$DIMSTYLE
  2
DUKITEC
  9
$DIMCLRD
 70
     5
  9
$DIMCLRE
 70
     5
  9
$DIMCLRT
 70
     0
  9
$DIMTFAC
 40
1.0
  9
$DIMGAP
 40
1.0
  9
$LUNITS
 70
     2
  9
$LUPREC
 70
     4
  9
$SKETCHINC
 40
0.1
  9
$FILLETRAD
 40
0.2
  9
$AUNITS
 70
     0
  9
$AUPREC
 70
     0
  9
$MENU
  1
.
  9
$ELEVATION
 40
0.0
  9
$PELEVATION
 40
0.0
  9
$THICKNESS
 40
0.0
  9
$LIMCHECK
 70
     0
  9
$BLIPMODE
 70
     0
  9
$CHAMFERA
 40
0.5
  9
$CHAMFERB
 40
0.5
  9
$SKPOLY
 70
     0
  9
$TDCREATE
 40
2454396.7538794791
  9
$TDUPDATE
 40
2456631.4212339818
  9
$TDINDWG
 40
0.0011626736
  9
$TDUSRTIMER
 40
0.0011626273
  9
$USRTIMER
 70
     1
  9
$ANGBASE
 50
0.0
  9
$ANGDIR
 70
     0
  9
$PDMODE
 70
     0
  9
$PDSIZE
 40
0.0
  9
$PLINEWID
 40
0.0
  9
$COORDS
 70
     1
  9
$SPLFRAME
 70
     0
  9
$SPLINETYPE
 70
     6
  9
$SPLINESEGS
 70
     8
  9
$ATTDIA
 70
     0
  9
$ATTREQ
 70
     1
  9
$HANDLING
 70
     1
  9
$HANDSEED
  5
14379
  9
$SURFTAB1
 70
     6
  9
$SURFTAB2
 70
     6
  9
$SURFTYPE
 70
     6
  9
$SURFU
 70
     6
  9
$SURFV
 70
     6
  9
$UCSNAME
  2

  9
$UCSORG
 10
0.0
 20
0.0
 30
0.0
  9
$UCSXDIR
 10
1.0
 20
0.0
 30
0.0
  9
$UCSYDIR
 10
0.0
 20
1.0
 30
0.0
  9
$PUCSNAME
  2

  9
$PUCSORG
 10
0.0
 20
0.0
 30
0.0
  9
$PUCSXDIR
 10
1.0
 20
0.0
 30
0.0
  9
$PUCSYDIR
 10
0.0
 20
1.0
 30
0.0
  9
$USERI1
 70
     0
  9
$USERI2
 70
     0
  9
$USERI3
 70
     0
  9
$USERI4
 70
     0
  9
$USERI5
 70
     0
  9
$USERR1
 40
0.0
  9
$USERR2
 40
0.0
  9
$USERR3
 40
0.0
  9
$USERR4
 40
0.0
  9
$USERR5
 40
0.0
  9
$WORLDVIEW
 70
     1
  9
$SHADEDGE
 70
     3
  9
$SHADEDIF
 70
    70
  9
$TILEMODE
 70
     1
  9
$MAXACTVP
 70
    64
  9
$PLIMCHECK
 70
     0
  9
$PEXTMIN
 10
0.0
 20
0.0
 30
0.0
  9
$PEXTMAX
 10
0.0
 20
0.0
 30
0.0
  9
$PLIMMIN
 10
0.0
 20
0.0
  9
$PLIMMAX
 10
12.0
 20
9.0
  9
$UNITMODE
 70
     0
  9
$VISRETAIN
 70
     1
  9
$PLINEGEN
 70
     0
  9
$PSLTSCALE
 70
     1
  0
ENDSEC
  0
SECTION
  2
TABLES
  0
TABLE
  2
VPORT
 70
     1
  0
VPORT
  2
*ACTIVE
 70
     0
 10
0.0
 20
0.0
 11
1.0
 21
1.0
 12
2134.6183773568309
 22
1605.13531601159
 13
0.0
 23
0.0
 14
0.5
 24
0.5
 15
0.5
 25
0.5
 16
0.0
 26
0.0
 36
1.0
 17
0.0
 27
0.0
 37
0.0
 40
193.9073988878242
 41
2.2309552599758158
 42
50.0
 43
0.0
 44
0.0
 50
0.0
 51
0.0
 71
     0
 72
  2000
 73
     1
 74
     3
 75
     0
 76
     0
 77
     0
 78
     0
  0
ENDTAB
  0
TABLE
  2
LTYPE
 70
     5
  0
LTYPE
  2
CONTINUOUS
 70
     0
  3
Solid line
 72
    65
 73
     0
 40
0.0
  0
LTYPE
  2
PHANTOM2
 70
     0
  3
Phantom (.5x) ___ _ _ ___ _ _ ___ _ _ ___ _ _
 72
    65
 73
     6
 40
1.25
 49
0.625
 49
-0.125
 49
0.125
 49
-0.125
 49
0.125
 49
-0.125
  0
LTYPE
  2
CENTER
 70
     0
  3
___ _ ___ _ ___ _ ___ _ ___ _ ___ _ ___ _ ___ _
 72
    65
 73
     4
 40
0.95
 49
0.625
 49
-0.125
 49
0.075
 49
-0.125
  0
LTYPE
  2
DASHED2
 70
     0
  3
Dashed (.5x) _ _ _ _ _ _ _ _ _ _ _ _ _ _ _ _ _
 72
    65
 73
     2
 40
0.375
 49
0.25
 49
-0.125
  0
ENDTAB
  0
TABLE
  2
LAYER
 70
     4
  0
LAYER
  2
0
 70
     0
 62
     7
  6
CONTINUOUS
  0
LAYER
  2
HIDE
 70
     0
 62
     1
  6
DASHED2
  0
LAYER
  2
CENTER
 70
     0
 62
     3
  6
CENTER
  0
ENDTAB
  0
TABLE
  2
STYLE
 70
     3
  0
STYLE
  2
STANDARD
 70
     0
 40
5.0
 41
1.0
 50
0.0
 71
     0
 42
5.0
  3
txt.shx
  4
whgtxt.shx
  0
STYLE
  2
BIG
 70
     0
 40
20.0
 41
1.0
 50
0.0
 71
     0
 42
2.5
  3
txt
  4

  0
ENDTAB
  0
TABLE
  2
VIEW
 70
     0
  0
ENDTAB
  0
TABLE
  2
UCS
 70
     0
  0
ENDTAB
  0
TABLE
  2
APPID
 70
    10
  0
APPID
  2
ACAD
 70
     0
  0
APPID
  2
ACADANNOTATIVE
 70
     0
  0
APPID
  2
ACAD_EXEMPT_FROM_CAD_STANDARDS
 70
     0
  0
APPID
  2
ACAD_DSTYLE_DIMJOGGED_JOGA
 70
     0
  0
APPID
  2
ACAD_PSEXT
 70
     0
  0
APPID
  2
ACAECLAYERSTANDARD
 70
     0
  0
APPID
  2
DCO15
 70
     0
  0
APPID
  2
CONTENTBLOCKICON
 70
     0
  0
APPID
  2
ACAD_NAV_VCDISPLAY
 70
     0
  0
APPID
  2
ACAD_MLEADERVER
 70
     0
  0
ENDTAB
  0
TABLE
  2
DIMSTYLE
 70
     4
  0
DIMSTYLE
  2
DUKITEC
 70
     0
  3

  4

  5

  6

  7

 40
1.0
 41
3.0
 42
1.0
 43
0.0
 44
1.0
 45
0.0
 46
0.0
 47
0.0
 48
0.0
140
3.0
141
0.0
142
0.0
143
25.399999999999999
144
1.0
145
0.0
146
1.0
147
1.0
 71
     0
 72
     0
 73
     0
 74
     0
 75
     0
 76
     0
 77
     1
 78
     8
170
     0
171
     2
172
     1
173
     0
174
     1
175
     0
176
     5
177
     5
178
     0
  0
ENDTAB
  0
ENDSEC
  0
SECTION
  2
BLOCKS
  0
BLOCK
  8
0
  2
$MODEL_SPACE
 70
     0
 10
0.0
 20
0.0
 30
0.0
  3
$MODEL_SPACE
  1

  0
ENDBLK
  5
140F7
  8
0
  0
BLOCK
 67
     1
  8
0
  2
$PAPER_SPACE
 70
     0
 10
0.0
 20
0.0
 30
0.0
  3
$PAPER_SPACE
  1

  0
ENDBLK
  5
140F3
 67
     1
  8
0
  0
ENDSEC
  0
SECTION
  2
ENTITIES
  0
TEXT
  5
14057
  8
0
 10
2047.3205504983009
 20
1519.425925419094
 30
0.0
 40
20.0
  1
FK 25DFT
  7
BIG
  0
LINE
  5
14113
  8
CENTER
 10
2176.19616111191
 20
1578.403587451807
 30
0.0
 11
2198.1857069289681
 21
1578.403587451807
 31
0.0
  0
LINE
  5
14114
  8
HIDE
 10
2190.6600093050638
 20
1572.903587451807
 30
0.0
 11
2194.6600093050638
 21
1572.903587451807
 31
0.0
  0
LINE
  5
14115
  8
HIDE
 10
2190.6600093050638
 20
1583.903587451807
 30
0.0
 11
2194.6600093050638
 21
1583.903587451807
 31
0.0
  0
LINE
  5
14116
  8
HIDE
 10
2179.6600093050638
 20
1569.653587451807
 30
0.0
 11
2190.6600093050638
 21
1569.653587451807
 31
0.0
  0
LINE
  5
14117
  8
HIDE
 10
2179.6600093050638
 20
1587.153587451807
 30
0.0
 11
2190.6600093050638
 21
1587.153587451807
 31
0.0
  0
LINE
  5
14118
  8
HIDE
 10
2190.6600093050638
 20
1569.653587451807
 30
0.0
 11
2190.6600093050638
 21
1587.153587451807
 31
0.0
  0
LINE
  5
14119
  8
HIDE
 10
2190.6600093050638
 20
1687.153587451807
 30
0.0
 11
2190.6600093050638
 21
1669.653587451807
 31
0.0
  0
LINE
  5
1411A
  8
HIDE
 10
2179.6600093050638
 20
1669.653587451807
 30
0.0
 11
2190.6600093050638
 21
1669.653587451807
 31
0.0
  0
LINE
  5
1411B
  8
HIDE
 10
2179.6600093050638
 20
1687.153587451807
 30
0.0
 11
2190.6600093050638
 21
1687.153587451807
 31
0.0
  0
LINE
  5
1411C
  8
HIDE
 10
2190.6600093050638
 20
1672.903587451807
 30
0.0
 11
2194.6600093050638
 21
1672.903587451807
 31
0.0
  0
LINE
  5
1411D
  8
HIDE
 10
2190.6600093050638
 20
1683.903587451807
 30
0.0
 11
2194.6600093050638
 21
1683.903587451807
 31
0.0
  0
LINE
  5
1411E
  8
0
 10
2167.6600093050638
 20
1588.403587451807
 30
0.0
 11
2179.6600093050638
 21
1588.403587451807
 31
0.0
  0
LINE
  5
1411F
  8
0
 10
2167.6600093050638
 20
1668.403587451807
 30
0.0
 11
2179.6600093050638
 21
1668.403587451807
 31
0.0
  0
LINE
  5
14120
  8
0
 10
2179.6600093050638
 20
1689.403587451807
 30
0.0
 11
2194.6600093050638
 21
1689.403587451807
 31
0.0
  0
LINE
  5
14121
  8
0
 10
2179.6600093050638
 20
1567.403587451807
 30
0.0
 11
2194.6600093050638
 21
1567.403587451807
 31
0.0
  0
LINE
  5
14122
  8
0
 10
2251.6600093050638
 20
1668.403591451807
 30
0.0
 11
2194.6600093050638
 21
1668.403591451807
 31
0.0
  0
LINE
  5
14123
  8
CENTER
 10
2176.19616111191
 20
1678.403587451807
 30
0.0
 11
2198.1857069289681
 21
1678.403587451807
 31
0.0
  0
LINE
  5
14124
  8
0
 10
2251.6600093050638
 20
1668.403591451807
 30
0.0
 11
2251.6600093050638
 21
1588.403583451807
 31
0.0
  0
LINE
  5
14125
  8
0
 10
2194.6600093050638
 20
1689.403587451807
 30
0.0
 11
2194.6600093050638
 21
1668.403591451807
 31
0.0
  0
LINE
  5
14126
  8
0
 10
2179.6600093050638
 20
1689.403587451807
 30
0.0
 11
2179.6600093050638
 21
1567.403587451807
 31
0.0
  0
LINE
  5
14127
  8
0
 10
2167.6600093050638
 20
1668.403587451807
 30
0.0
 11
2167.6600093050638
 21
1588.403587451807
 31
0.0
  0
LINE
  5
14128
  8
CENTER
 10
2151.0993972818528
 20
1628.403587451807
 30
0.0
 11
2256.6600093050638
 21
1628.403587451807
 31
0.0
  0
LINE
  5
14129
  8
0
 10
2251.6600093050638
 20
1588.403583451807
 30
0.0
 11
2194.6600093050638
 21
1588.403583451807
 31
0.0
  0
CIRCLE
  5
1412A
  8
HIDE
 10
2219.1600093050638
 20
1609.153587451807
 30
0.0
 40
4.049999999999998
  0
CIRCLE
  5
1412B
  8
HIDE
 10
2219.1600093050638
 20
1647.653587451807
 30
0.0
 40
4.049999999999998
  0
LINE
  5
1412C
  8
HIDE
 10
2211.6600093050638
 20
1653.8035874518059
 30
0.0
 11
2211.6600093050638
 21
1603.0035874518071
 31
0.0
  0
ARC
  5
1412D
  8
HIDE
 10
2212.2600093050651
 20
1603.0035874518071
 30
0.0
 40
0.5999999999999996
 50
180.0
 51
270.0
  0
ARC
  5
1412E
  8
HIDE
 10
2225.6600093050638
 20
1603.403587451807
 30
0.0
 40
1.0
 50
270.0
 51
0.0
  0
ARC
  5
1412F
  8
HIDE
 10
2212.6600093050638
 20
1614.903587451807
 30
0.0
 40
1.0
 50
90.0
 51
180.0
  0
ARC
  5
14130
  8
HIDE
 10
2212.6600093050638
 20
1641.903587451807
 30
0.0
 40
1.0
 50
180.0
 51
270.0
  0
ARC
  5
14131
  8
HIDE
 10
2226.0600093050662
 20
1615.3035874518071
 30
0.0
 40
0.6
 50
0.0
 51
90.0
  0
ARC
  5
14132
  8
HIDE
 10
2226.0600093050662
 20
1641.5035874518071
 30
0.0
 40
0.5999999999999996
 50
270.0
 51
0.0
  0
ARC
  5
14133
  8
HIDE
 10
2212.2600093050651
 20
1653.8035874518071
 30
0.0
 40
0.6000000000000015
 50
90.0
 51
180.0
  0
ARC
  5
14134
  8
HIDE
 10
2225.6600093050638
 20
1653.403587451807
 30
0.0
 40
1.0
 50
0.0
 51
90.0
  0
LINE
  5
14135
  8
HIDE
 10
2226.6600093050638
 20
1607.4535874518069
 30
0.0
 11
2222.8359445602059
 21
1607.4535874518069
 31
0.0
  0
LINE
  5
14136
  8
HIDE
 10
2225.6600093050638
 20
1602.403587451807
 30
0.0
 11
2212.2600093050651
 21
1602.403587451807
 31
0.0
  0
LINE
  5
14137
  8
HIDE
 10
2211.6600093050638
 20
1610.9535874518069
 30
0.0
 11
2215.53199331833
 21
1610.9535874518069
 31
0.0
  0
LINE
  5
14138
  8
HIDE
 10
2217.668415804123
 20
1605.388265576064
 30
0.0
 11
2211.6600093050638
 21
1604.903587451807
 31
0.0
  0
LINE
  5
14139
  8
HIDE
 10
2226.6600093050638
 20
1610.9535874518069
 30
0.0
 11
2222.7880252917989
 21
1610.9535874518069
 31
0.0
  0
LINE
  5
1413A
  8
HIDE
 10
2226.6600093050638
 20
1645.853587451807
 30
0.0
 11
2222.7880252917989
 21
1645.853587451807
 31
0.0
  0
LINE
  5
1413B
  8
HIDE
 10
2226.0600093050662
 20
1615.903587451807
 30
0.0
 11
2212.6600093050638
 21
1615.903587451807
 31
0.0
  0
LINE
  5
1413C
  8
HIDE
 10
2226.0600093050662
 20
1640.903587451807
 30
0.0
 11
2212.6600093050638
 21
1640.903587451807
 31
0.0
  0
LINE
  5
1413D
  8
HIDE
 10
2211.6600093050638
 20
1645.853587451807
 30
0.0
 11
2215.53199331833
 21
1645.853587451807
 31
0.0
  0
LINE
  5
1413E
  8
HIDE
 10
2226.6600093050638
 20
1649.353587451807
 30
0.0
 11
2222.8359445602059
 21
1649.353587451807
 31
0.0
  0
LINE
  5
1413F
  8
HIDE
 10
2212.2600093050651
 20
1654.403587451807
 30
0.0
 11
2225.6600093050638
 21
1654.403587451807
 31
0.0
  0
LINE
  5
14140
  8
HIDE
 10
2217.668415804123
 20
1651.41890932755
 30
0.0
 11
2211.6600093050638
 21
1651.903587451807
 31
0.0
  0
LINE
  5
14141
  8
HIDE
 10
2226.6600093050638
 20
1653.403587451807
 30
0.0
 11
2226.6600093050638
 21
1603.403587451807
 31
0.0
  0
LINE
  5
14142
  8
HIDE
 10
2222.5852531747032
 20
1649.8146530300589
 30
0.0
 11
2223.0463187529558
 21
1649.353587451807
 31
0.0
  0
CIRCLE
  5
14143
  8
HIDE
 10
2234.1600093050638
 20
1609.153587451807
 30
0.0
 40
4.049999999999998
  0
CIRCLE
  5
14144
  8
HIDE
 10
2234.1600093050638
 20
1647.653587451807
 30
0.0
 40
4.049999999999998
  0
ARC
  5
14145
  8
HIDE
 10
2227.2600093050642
 20
1603.0035874518071
 30
0.0
 40
0.5999999999999996
 50
180.0
 51
270.0
  0
ARC
  5
14146
  8
HIDE
 10
2240.6600093050638
 20
1603.403587451807
 30
0.0
 40
1.0
 50
270.0
 51
0.0
  0
ARC
  5
14147
  8
HIDE
 10
2227.6600093050638
 20
1614.903587451807
 30
0.0
 40
1.0
 50
90.0
 51
180.0
  0
ARC
  5
14148
  8
HIDE
 10
2227.6600093050638
 20
1641.903587451807
 30
0.0
 40
1.0
 50
180.0
 51
270.0
  0
ARC
  5
14149
  8
HIDE
 10
2241.0600093050662
 20
1615.3035874518071
 30
0.0
 40
0.6
 50
0.0
 51
90.0
  0
ARC
  5
1414A
  8
HIDE
 10
2241.0600093050662
 20
1641.5035874518071
 30
0.0
 40
0.5999999999999996
 50
270.0
 51
0.0
  0
ARC
  5
1414B
  8
HIDE
 10
2227.2600093050642
 20
1653.8035874518071
 30
0.0
 40
0.6000000000000015
 50
90.0
 51
180.0
  0
ARC
  5
1414C
  8
HIDE
 10
2240.6600093050638
 20
1653.403587451807
 30
0.0
 40
1.0
 50
0.0
 51
90.0
  0
LINE
  5
1414D
  8
HIDE
 10
2241.6600093050638
 20
1607.4535874518069
 30
0.0
 11
2237.8359445602059
 21
1607.4535874518069
 31
0.0
  0
LINE
  5
1414E
  8
HIDE
 10
2240.6600093050638
 20
1602.403587451807
 30
0.0
 11
2227.2600093050642
 21
1602.403587451807
 31
0.0
  0
LINE
  5
1414F
  8
HIDE
 10
2226.6600093050638
 20
1610.9535874518069
 30
0.0
 11
2230.5319933183291
 21
1610.9535874518069
 31
0.0
  0
LINE
  5
14150
  8
HIDE
 10
2232.668415804123
 20
1605.388265576064
 30
0.0
 11
2226.6600093050638
 21
1604.903587451807
 31
0.0
  0
LINE
  5
14151
  8
HIDE
 10
2241.6600093050638
 20
1610.9535874518069
 30
0.0
 11
2237.7880252917989
 21
1610.9535874518069
 31
0.0
  0
LINE
  5
14152
  8
HIDE
 10
2241.6600093050638
 20
1645.853587451807
 30
0.0
 11
2237.7880252917989
 21
1645.853587451807
 31
0.0
  0
LINE
  5
14153
  8
HIDE
 10
2241.0600093050662
 20
1615.903587451807
 30
0.0
 11
2227.6600093050638
 21
1615.903587451807
 31
0.0
  0
LINE
  5
14154
  8
HIDE
 10
2241.0600093050662
 20
1640.903587451807
 30
0.0
 11
2227.6600093050638
 21
1640.903587451807
 31
0.0
  0
LINE
  5
14155
  8
HIDE
 10
2226.6600093050638
 20
1645.853587451807
 30
0.0
 11
2230.5319933183291
 21
1645.853587451807
 31
0.0
  0
LINE
  5
14156
  8
HIDE
 10
2241.6600093050638
 20
1649.353587451807
 30
0.0
 11
2237.8359445602059
 21
1649.353587451807
 31
0.0
  0
LINE
  5
14157
  8
HIDE
 10
2227.2600093050642
 20
1654.403587451807
 30
0.0
 11
2240.6600093050638
 21
1654.403587451807
 31
0.0
  0
LINE
  5
14158
  8
HIDE
 10
2232.668415804123
 20
1651.41890932755
 30
0.0
 11
2226.6600093050638
 21
1651.903587451807
 31
0.0
  0
LINE
  5
14159
  8
HIDE
 10
2241.6600093050638
 20
1653.403587451807
 30
0.0
 11
2241.6600093050638
 21
1603.403587451807
 31
0.0
  0
LINE
  5
1415A
  8
HIDE
 10
2237.5852531747032
 20
1649.8146530300589
 30
0.0
 11
2238.0463187529549
 21
1649.353587451807
 31
0.0
  0
LINE
  5
1415B
  8
HIDE
 10
2241.6600093050638
 20
1640.9035874517681
 30
0.0
 11
2251.6600093050638
 21
1640.9035874517681
 31
0.0
  0
LINE
  5
1415C
  8
HIDE
 10
2241.6600093050638
 20
1643.6535874517681
 30
0.0
 11
2251.6600093050638
 21
1643.6535874517681
 31
0.0
  0
LINE
  5
1415D
  8
HIDE
 10
2241.6600093050638
 20
1615.9035874518449
 30
0.0
 11
2251.6600093050638
 21
1615.9035874518449
 31
0.0
  0
LINE
  5
1415E
  8
HIDE
 10
2241.6600093050638
 20
1613.1535874518449
 30
0.0
 11
2251.6600093050638
 21
1613.1535874518449
 31
0.0
  0
LINE
  5
1415F
  8
HIDE
 10
2171.6600093050638
 20
1640.9035874517681
 30
0.0
 11
2181.6600093050638
 21
1640.9035874517681
 31
0.0
  0
LINE
  5
14160
  8
HIDE
 10
2171.6600093050638
 20
1643.6535874517681
 30
0.0
 11
2181.6600093050638
 21
1643.6535874517681
 31
0.0
  0
LINE
  5
14161
  8
HIDE
 10
2171.6600093050638
 20
1615.9035874518449
 30
0.0
 11
2181.6600093050638
 21
1615.9035874518449
 31
0.0
  0
LINE
  5
14162
  8
HIDE
 10
2171.6600093050638
 20
1613.1535874518449
 30
0.0
 11
2181.6600093050638
 21
1613.1535874518449
 31
0.0
  0
CIRCLE
  5
14163
  8
HIDE
 10
2189.1600093050638
 20
1609.153587451807
 30
0.0
 40
4.0499999999999989
  0
CIRCLE
  5
14164
  8
HIDE
 10
2189.1600093050638
 20
1647.653587451807
 30
0.0
 40
4.0499999999999989
  0
ARC
  5
14165
  8
HIDE
 10
2182.6600093050638
 20
1653.403587451807
 30
0.0
 40
1.0
 50
90.0
 51
180.0
  0
ARC
  5
14166
  8
HIDE
 10
2182.2600093050651
 20
1641.5035874518071
 30
0.0
 40
0.6000000000000015
 50
180.0
 51
270.0
  0
ARC
  5
14167
  8
HIDE
 10
2182.2600093050651
 20
1615.3035874518071
 30
0.0
 40
0.5999999999999996
 50
90.0
 51
180.0
  0
ARC
  5
14168
  8
HIDE
 10
2182.6600093050638
 20
1603.403587451807
 30
0.0
 40
1.0
 50
180.0
 51
270.0
  0
LINE
  5
14169
  8
HIDE
 10
2181.6600093050638
 20
1649.353587451807
 30
0.0
 11
2185.484074049923
 21
1649.353587451807
 31
0.0
  0
LINE
  5
1416A
  8
HIDE
 10
2182.6600093050638
 20
1654.403587451807
 30
0.0
 11
2196.0600093050662
 21
1654.403587451807
 31
0.0
  0
LINE
  5
1416B
  8
HIDE
 10
2190.6516028060082
 20
1651.418909327549
 30
0.0
 11
2196.6600093050638
 21
1651.903587451807
 31
0.0
  0
LINE
  5
1416C
  8
HIDE
 10
2181.6600093050638
 20
1645.853587451807
 30
0.0
 11
2185.5319933183291
 21
1645.853587451807
 31
0.0
  0
LINE
  5
1416D
  8
HIDE
 10
2181.6600093050638
 20
1610.9535874518069
 30
0.0
 11
2185.5319933183291
 21
1610.9535874518069
 31
0.0
  0
LINE
  5
1416E
  8
HIDE
 10
2182.2600093050651
 20
1640.903587451807
 30
0.0
 11
2195.6600093050638
 21
1640.903587451807
 31
0.0
  0
LINE
  5
1416F
  8
HIDE
 10
2182.2600093050651
 20
1615.903587451807
 30
0.0
 11
2195.6600093050638
 21
1615.903587451807
 31
0.0
  0
LINE
  5
14170
  8
HIDE
 10
2181.6600093050638
 20
1607.4535874518069
 30
0.0
 11
2185.484074049923
 21
1607.4535874518069
 31
0.0
  0
LINE
  5
14171
  8
HIDE
 10
2196.0600093050662
 20
1602.403587451807
 30
0.0
 11
2182.6600093050638
 21
1602.403587451807
 31
0.0
  0
LINE
  5
14172
  8
HIDE
 10
2190.6516028060082
 20
1605.388265576064
 30
0.0
 11
2196.6600093050638
 21
1604.903587451807
 31
0.0
  0
LINE
  5
14173
  8
HIDE
 10
2181.6600093050638
 20
1603.403587451807
 30
0.0
 11
2181.6600093050638
 21
1653.403587451807
 31
0.0
  0
LINE
  5
14174
  8
HIDE
 10
2185.2736998571731
 20
1649.353587451807
 30
0.0
 11
2185.7347654354262
 21
1649.814653030058
 31
0.0
  0
CIRCLE
  5
14175
  8
HIDE
 10
2204.1600093050652
 20
1609.153587451807
 30
0.0
 40
4.049999999999998
  0
CIRCLE
  5
14176
  8
HIDE
 10
2204.1600093050652
 20
1647.653587451807
 30
0.0
 40
4.049999999999998
  0
LINE
  5
14177
  8
HIDE
 10
2196.6600093050638
 20
1653.8035874518059
 30
0.0
 11
2196.6600093050638
 21
1603.0035874518071
 31
0.0
  0
ARC
  5
14178
  8
HIDE
 10
2197.2600093050651
 20
1603.0035874518071
 30
0.0
 40
0.5999999999999996
 50
180.0
 51
270.0
  0
ARC
  5
14179
  8
HIDE
 10
2210.6600093050638
 20
1603.403587451807
 30
0.0
 40
1.0
 50
270.0
 51
0.0
  0
ARC
  5
1417A
  8
HIDE
 10
2197.6600093050638
 20
1614.903587451807
 30
0.0
 40
1.0
 50
90.0
 51
180.0
  0
ARC
  5
1417B
  8
HIDE
 10
2197.6600093050638
 20
1641.903587451807
 30
0.0
 40
1.0
 50
180.0
 51
270.0
  0
ARC
  5
1417C
  8
HIDE
 10
2211.0600093050662
 20
1615.3035874518071
 30
0.0
 40
0.6
 50
0.0
 51
90.0
  0
ARC
  5
1417D
  8
HIDE
 10
2211.0600093050662
 20
1641.5035874518071
 30
0.0
 40
0.5999999999999996
 50
270.0
 51
0.0
  0
ARC
  5
1417E
  8
HIDE
 10
2197.2600093050651
 20
1653.8035874518071
 30
0.0
 40
0.6000000000000015
 50
90.0
 51
180.0
  0
ARC
  5
1417F
  8
HIDE
 10
2210.6600093050638
 20
1653.403587451807
 30
0.0
 40
1.0
 50
0.0
 51
90.0
  0
LINE
  5
14180
  8
HIDE
 10
2211.6600093050638
 20
1607.4535874518069
 30
0.0
 11
2207.8359445602059
 21
1607.4535874518069
 31
0.0
  0
LINE
  5
14181
  8
HIDE
 10
2210.6600093050638
 20
1602.403587451807
 30
0.0
 11
2197.2600093050651
 21
1602.403587451807
 31
0.0
  0
LINE
  5
14182
  8
HIDE
 10
2196.6600093050638
 20
1610.9535874518069
 30
0.0
 11
2200.53199331833
 21
1610.9535874518069
 31
0.0
  0
LINE
  5
14183
  8
HIDE
 10
2202.668415804123
 20
1605.388265576064
 30
0.0
 11
2196.6600093050638
 21
1604.903587451807
 31
0.0
  0
LINE
  5
14184
  8
HIDE
 10
2211.6600093050638
 20
1610.9535874518069
 30
0.0
 11
2207.7880252917989
 21
1610.9535874518069
 31
0.0
  0
LINE
  5
14185
  8
HIDE
 10
2211.6600093050638
 20
1645.853587451807
 30
0.0
 11
2207.7880252917989
 21
1645.853587451807
 31
0.0
  0
LINE
  5
14186
  8
HIDE
 10
2211.0600093050662
 20
1615.903587451807
 30
0.0
 11
2197.6600093050638
 21
1615.903587451807
 31
0.0
  0
LINE
  5
14187
  8
HIDE
 10
2211.0600093050662
 20
1640.903587451807
 30
0.0
 11
2197.6600093050638
 21
1640.903587451807
 31
0.0
  0
LINE
  5
14188
  8
HIDE
 10
2196.6600093050638
 20
1645.853587451807
 30
0.0
 11
2200.53199331833
 21
1645.853587451807
 31
0.0
  0
LINE
  5
14189
  8
HIDE
 10
2211.6600093050638
 20
1649.353587451807
 30
0.0
 11
2207.8359445602059
 21
1649.353587451807
 31
0.0
  0
LINE
  5
1418A
  8
HIDE
 10
2197.2600093050651
 20
1654.403587451807
 30
0.0
 11
2210.6600093050638
 21
1654.403587451807
 31
0.0
  0
LINE
  5
1418B
  8
HIDE
 10
2202.668415804123
 20
1651.41890932755
 30
0.0
 11
2196.6600093050638
 21
1651.903587451807
 31
0.0
  0
LINE
  5
1418C
  8
HIDE
 10
2207.5852531747032
 20
1649.8146530300589
 30
0.0
 11
2208.0463187529549
 21
1649.353587451807
 31
0.0
  0
ARC
  5
1418D
  8
HIDE
 10
2196.0600093050662
 20
1653.8035874518071
 30
0.0
 40
0.5999999999999996
 50
0.0
 51
90.0
  0
ARC
  5
1418E
  8
HIDE
 10
2195.6600093050638
 20
1641.903587451807
 30
0.0
 40
1.0
 50
270.0
 51
0.0
  0
ARC
  5
1418F
  8
HIDE
 10
2195.6600093050638
 20
1614.903587451807
 30
0.0
 40
1.0
 50
0.0
 51
90.0
  0
ARC
  5
14190
  8
HIDE
 10
2196.0600093050662
 20
1603.003587451808
 30
0.0
 40
0.6000000000000015
 50
270.0
 51
0.0
  0
LINE
  5
14191
  8
0
 10
2194.6600093050638
 20
1588.403583451807
 30
0.0
 11
2194.6600093050638
 21
1567.403587451807
 31
0.0
  0
LINE
  5
14198
  8
CENTER
 10
2174.5121681251462
 20
1628.403587451807
 30
0.0
 11
2149.9826302158021
 21
1628.403587451807
 31
0.0
  0
LINE
  5
141C7
  8
0
 10
1997.016045253728
 20
1588.341136451807
 30
0.0
 11
1997.016045253728
 21
1668.466038451807
 31
0.0
  0
LINE
  5
141C8
  8
0
 10
2089.016045253728
 20
1588.341136451807
 30
0.0
 11
2089.016045253728
 21
1668.466038451807
 31
0.0
  0
CIRCLE
  5
141C9
  8
0
 10
2043.0160452537291
 20
1628.403587451807
 30
0.0
 40
40.0
  0
CIRCLE
  5
141CA
  8
0
 10
2043.0160452537291
 20
1628.403587451807
 30
0.0
 40
23.0
  0
ARC
  5
141CB
  8
0
 10
2043.0160452537291
 20
1628.403587451807
 30
0.0
 40
61.0
 50
221.05335099999539
 51
318.94664900000458
  0
CIRCLE
  5
141CC
  8
0
 10
2043.0160452537291
 20
1578.403587451807
 30
0.0
 40
8.75
  0
ARC
  5
141CD
  8
CENTER
 10
2043.0160452537291
 20
1628.403587451807
 30
0.0
 40
50.0
 50
256.20649100002612
 51
284.36892200001978
  0
ARC
  5
141CE
  8
CENTER
 10
2043.0160452537291
 20
1628.403587451807
 30
0.0
 40
33.0
 50
255.96394699998859
 51
285.26651499998951
  0
CIRCLE
  5
141CF
  8
0
 10
2007.6607062537289
 20
1593.048248451807
 30
0.0
 40
8.75
  0
LINE
  5
141D0
  8
CENTER
 10
2016.15381525373
 20
1601.541357451807
 30
0.0
 11
1998.425689253728
 21
1583.813231451807
 31
0.0
  0
ARC
  5
141D1
  8
CENTER
 10
2043.0160452537291
 20
1628.403587451807
 30
0.0
 40
50.0
 50
211.62926600002379
 51
238.59884500001661
  0
CIRCLE
  5
141D2
  8
0
 10
2014.4372072537269
 20
1611.903587451807
 30
0.0
 40
6.0
  0
ARC
  5
141D3
  8
CENTER
 10
2043.0160452537291
 20
1628.403587451807
 30
0.0
 40
33.0
 50
195.48598399998849
 51
223.24701299998009
  0
CIRCLE
  5
141D4
  8
0
 10
2007.6607062537289
 20
1593.048248451807
 30
0.0
 40
5.5
  0
LINE
  5
141D5
  8
CENTER
 10
2021.8440432537291
 20
1616.179926451807
 30
0.0
 11
2006.8678872537289
 21
1607.5334384518069
 31
0.0
  0
LINE
  5
141D6
  8
0
 10
2013.6350832537289
 20
1616.452174451807
 30
0.0
 11
2017.9753692537281
 21
1614.8724404518071
 31
0.0
  0
LINE
  5
141D7
  8
0
 10
2015.2396532537291
 20
1607.3542894518071
 30
0.0
 11
2018.777864253728
 21
1610.3232014518071
 31
0.0
  0
LINE
  5
141D8
  8
0
 10
2010.0970152537279
 20
1613.4827674518069
 30
0.0
 11
2010.8990772537279
 21
1608.9340434518069
 31
0.0
  0
LINE
  5
141D9
  8
0
 10
2010.8989222537291
 20
1608.934631451807
 30
0.0
 11
2015.2392082537281
 21
1607.354896451807
 31
0.0
  0
LINE
  5
141DA
  8
0
 10
2010.0973502537281
 20
1613.4826464518071
 30
0.0
 11
2013.6355492537291
 21
1616.451548451807
 31
0.0
  0
LINE
  5
141DB
  8
0
 10
2017.9754762537279
 20
1614.8719504518069
 30
0.0
 11
2018.7775382537291
 21
1610.323225451807
 31
0.0
  0
LINE
  5
141DC
  8
CENTER
 10
2070.1759592537278
 20
1601.2436734518069
 30
0.0
 11
2087.4204112537268
 21
1583.999221451807
 31
0.0
  0
CIRCLE
  5
141DD
  8
0
 10
2078.3713842537281
 20
1593.048248451807
 30
0.0
 40
8.75
  0
ARC
  5
141DE
  8
CENTER
 10
2043.0160452537291
 20
1628.403587451807
 30
0.0
 40
50.0
 50
301.22760899997121
 51
328.65753399999232
  0
CIRCLE
  5
141DF
  8
0
 10
2043.0160452537291
 20
1578.403587451807
 30
0.0
 40
5.5
  0
CIRCLE
  5
141E0
  8
0
 10
2078.3713842537281
 20
1593.048248451807
 30
0.0
 40
5.5
  0
LINE
  5
141E1
  8
CENTER
 10
2064.6750862537269
 20
1615.8987344518071
 30
0.0
 11
2079.090995253729
 21
1607.5757054518069
 31
0.0
  0
LINE
  5
141E2
  8
0
 10
2072.3973302537279
 20
1607.3542894518071
 30
0.0
 11
2075.9355412537288
 21
1610.3232014518071
 31
0.0
  0
LINE
  5
141E3
  8
0
 10
2075.1331532537288
 20
1614.8719504518069
 30
0.0
 11
2075.9352152537299
 21
1610.323225451807
 31
0.0
  0
CIRCLE
  5
141E4
  8
0
 10
2071.5948832537301
 20
1611.903587451807
 30
0.0
 40
6.0
  0
ARC
  5
141E5
  8
CENTER
 10
2043.0160452537291
 20
1628.403587451807
 30
0.0
 40
33.0
 50
315.74692800001731
 51
344.76496800001621
  0
LINE
  5
141E6
  8
0
 10
2046.554314253729
 20
1598.3719504518069
 30
0.0
 11
2047.3563762537281
 21
1593.823225451807
 31
0.0
  0
LINE
  5
141E7
  8
0
 10
2038.675853253729
 20
1596.9827674518069
 30
0.0
 11
2039.477915253728
 21
1592.4340434518069
 31
0.0
  0
CIRCLE
  5
141E8
  8
0
 10
2043.0160452537291
 20
1595.403587451807
 30
0.0
 40
6.0
  0
LINE
  5
141E9
  8
0
 10
2043.8184922537289
 20
1590.8542894518071
 30
0.0
 11
2047.3567022537291
 21
1593.8232014518071
 31
0.0
  0
LINE
  5
141EA
  8
0
 10
2039.4777602537299
 20
1592.434631451807
 30
0.0
 11
2043.818047253729
 21
1590.854896451807
 31
0.0
  0
LINE
  5
141EB
  8
0
 10
2042.213921253729
 20
1599.952174451807
 30
0.0
 11
2046.5542082537299
 21
1598.3724404518071
 31
0.0
  0
LINE
  5
141EC
  8
0
 10
2038.6761882537301
 20
1596.9826464518071
 30
0.0
 11
2042.214387253729
 21
1599.951548451807
 31
0.0
  0
LINE
  5
141ED
  8
0
 10
2067.254692253729
 20
1613.4827674518069
 30
0.0
 11
2068.0567542537301
 21
1608.9340434518069
 31
0.0
  0
LINE
  5
141EE
  8
0
 10
2068.0565992537281
 20
1608.934631451807
 30
0.0
 11
2072.3968852537291
 21
1607.354896451807
 31
0.0
  0
LINE
  5
141EF
  8
0
 10
2070.7927602537288
 20
1616.452174451807
 30
0.0
 11
2075.133046253728
 21
1614.8724404518071
 31
0.0
  0
LINE
  5
141F0
  8
0
 10
2067.2550272537278
 20
1613.4826464518071
 30
0.0
 11
2070.7932262537302
 21
1616.451548451807
 31
0.0
  0
ARC
  5
141F1
  8
CENTER
 10
2043.0160452537291
 20
1628.403587451807
 30
0.0
 40
33.0
 50
75.580268000018037
 51
103.93967100000459
  0
ARC
  5
141F2
  8
0
 10
2043.0160452537291
 20
1628.403587451807
 30
0.0
 40
61.0
 50
41.053350999995423
 51
138.9466490000045
  0
CIRCLE
  5
141F3
  8
0
 10
2043.0160452537291
 20
1678.403587451807
 30
0.0
 40
8.75
  0
ARC
  5
141F4
  8
CENTER
 10
2043.0160452537291
 20
1628.403587451807
 30
0.0
 40
50.0
 50
76.608049999989831
 51
102.9155509999746
  0
ARC
  5
141F5
  8
CENTER
 10
2043.0160452537291
 20
1628.403587451807
 30
0.0
 40
50.0
 50
121.44042499999971
 51
147.92374499997331
  0
CIRCLE
  5
141F6
  8
0
 10
2007.6607062537289
 20
1663.7589264518069
 30
0.0
 40
8.75
  0
LINE
  5
141F7
  8
CENTER
 10
2015.8642512537269
 20
1655.5553814518071
 30
0.0
 11
1998.620048253729
 21
1672.799584451807
 31
0.0
  0
LINE
  5
141F8
  8
CENTER
 10
2021.184844253728
 20
1641.0078374518071
 30
0.0
 11
2007.0197862537291
 21
1649.1860374518069
 31
0.0
  0
ARC
  5
141F9
  8
CENTER
 10
2043.0160452537291
 20
1628.403587451807
 30
0.0
 40
33.0
 50
135.37543599998261
 51
163.51458099996651
  0
LINE
  5
141FA
  8
0
 10
2013.6350832537289
 20
1649.452174451807
 30
0.0
 11
2017.9753692537281
 21
1647.8724404518071
 31
0.0
  0
LINE
  5
141FB
  8
0
 10
2010.0973502537281
 20
1646.4826464518071
 30
0.0
 11
2013.6355492537291
 21
1649.451548451807
 31
0.0
  0
CIRCLE
  5
141FC
  8
0
 10
2014.4372072537269
 20
1644.903587451807
 30
0.0
 40
6.0
  0
LINE
  5
141FD
  8
0
 10
2015.2396532537291
 20
1640.3542894518071
 30
0.0
 11
2018.777864253728
 21
1643.3232014518071
 31
0.0
  0
LINE
  5
141FE
  8
0
 10
2010.0970152537279
 20
1646.4827674518069
 30
0.0
 11
2010.8990772537279
 21
1641.9340434518069
 31
0.0
  0
LINE
  5
141FF
  8
0
 10
2010.8989222537291
 20
1641.934631451807
 30
0.0
 11
2015.2392082537281
 21
1640.354896451807
 31
0.0
  0
LINE
  5
14200
  8
0
 10
2017.9754762537279
 20
1647.8719504518069
 30
0.0
 11
2018.7775382537291
 21
1643.323225451807
 31
0.0
  0
CIRCLE
  5
14201
  8
0
 10
2007.6607062537289
 20
1663.7589264518069
 30
0.0
 40
5.5
  0
CIRCLE
  5
14202
  8
0
 10
2078.3713842537281
 20
1663.7589264518069
 30
0.0
 40
8.75
  0
LINE
  5
14203
  8
CENTER
 10
2069.4984232537299
 20
1654.8859654518069
 30
0.0
 11
2087.2263002537279
 21
1672.6138424518069
 31
0.0
  0
ARC
  5
14204
  8
CENTER
 10
2043.0160452537291
 20
1628.403587451807
 30
0.0
 40
50.0
 50
31.14427400001297
 51
58.676745000004111
  0
CIRCLE
  5
14205
  8
0
 10
2078.3713842537281
 20
1663.7589264518069
 30
0.0
 40
5.5
  0
LINE
  5
14206
  8
CENTER
 10
2064.8074782537301
 20
1640.9848774518071
 30
0.0
 11
2078.401922253729
 21
1648.8336334518069
 31
0.0
  0
LINE
  5
14207
  8
0
 10
2072.3973302537279
 20
1640.3542894518071
 30
0.0
 11
2075.9355412537288
 21
1643.3232014518071
 31
0.0
  0
LINE
  5
14208
  8
0
 10
2075.1331532537288
 20
1647.8719504518069
 30
0.0
 11
2075.9352152537299
 21
1643.323225451807
 31
0.0
  0
CIRCLE
  5
14209
  8
0
 10
2071.5948832537301
 20
1644.903587451807
 30
0.0
 40
6.0
  0
LINE
  5
1420A
  8
0
 10
2070.7927602537288
 20
1649.452174451807
 30
0.0
 11
2075.133046253728
 21
1647.8724404518071
 31
0.0
  0
LINE
  5
1420B
  8
0
 10
2067.2550272537278
 20
1646.4826464518071
 30
0.0
 11
2070.7932262537302
 21
1649.451548451807
 31
0.0
  0
ARC
  5
1420C
  8
CENTER
 10
2043.0160452537291
 20
1628.403587451807
 30
0.0
 40
33.0
 50
15.6977680000006
 51
43.837381999963668
  0
LINE
  5
1420D
  8
0
 10
2067.254692253729
 20
1646.4827674518069
 30
0.0
 11
2068.0567542537301
 21
1641.9340434518069
 31
0.0
  0
LINE
  5
1420E
  8
0
 10
2068.0565992537281
 20
1641.934631451807
 30
0.0
 11
2072.3968852537291
 21
1640.354896451807
 31
0.0
  0
LINE
  5
1420F
  8
0
 10
2043.8184922537289
 20
1656.8542894518071
 30
0.0
 11
2047.3567022537291
 21
1659.8232014518071
 31
0.0
  0
LINE
  5
14210
  8
0
 10
2038.675853253729
 20
1662.9827674518069
 30
0.0
 11
2039.477915253728
 21
1658.4340434518069
 31
0.0
  0
CIRCLE
  5
14211
  8
0
 10
2043.0160452537291
 20
1661.403587451807
 30
0.0
 40
6.0
  0
LINE
  5
14212
  8
0
 10
2039.4777602537299
 20
1658.434631451807
 30
0.0
 11
2043.818047253729
 21
1656.854896451807
 31
0.0
  0
LINE
  5
14213
  8
0
 10
2042.213921253729
 20
1665.952174451807
 30
0.0
 11
2046.5542082537299
 21
1664.3724404518071
 31
0.0
  0
LINE
  5
14214
  8
0
 10
2038.6761882537301
 20
1662.9826464518071
 30
0.0
 11
2042.214387253729
 21
1665.951548451807
 31
0.0
  0
LINE
  5
14215
  8
0
 10
2046.554314253729
 20
1664.3719504518069
 30
0.0
 11
2047.3563762537281
 21
1659.823225451807
 31
0.0
  0
LINE
  5
14216
  8
0
 10
2078.401922253729
 20
1648.8336334518069
 30
0.0
 11
2078.4197812537291
 21
1648.843943451807
 31
0.0
  0
CIRCLE
  5
14217
  8
0
 10
2043.0160452537291
 20
1678.403587451807
 30
0.0
 40
5.5
  0
LINE
  5
14218
  8
CENTER
 10
2043.0160452537291
 20
1562.403587451807
 30
0.0
 11
2043.0160452537291
 21
1694.403587451807
 31
0.0
  0
LINE
  5
14219
  8
CENTER
 10
1991.0160452537291
 20
1628.403587451807
 30
0.0
 11
2095.016045253728
 21
1628.403587451807
 31
0.0
  0
LINE
  5
1427D
  8
HIDE
 10
2171.6600093050638
 20
1644.903587451807
 30
0.0
 11
2171.6600093050638
 21
1611.903587451807
 31
0.0
  0
LINE
  5
1427E
  8
CENTER
 10
2165.6600093050638
 20
1648.91013163758
 30
0.0
 11
2165.6600093050638
 21
1638.378949123123
 31
0.0
  0
LINE
  5
1427F
  8
HIDE
 10
2168.6600093050638
 20
1647.403587451807
 30
0.0
 11
2168.6600093050638
 21
1640.1535874518081
 31
0.0
  0
LINE
  5
14280
  8
HIDE
 10
2168.1600093050638
 20
1647.403587451807
 30
0.0
 11
2168.1600093050638
 21
1640.1535874518081
 31
0.0
  0
LINE
  5
14281
  8
HIDE
 10
2162.6600093050638
 20
1647.403587451807
 30
0.0
 11
2162.6600093050638
 21
1640.153587451807
 31
0.0
  0
LINE
  5
14282
  8
HIDE
 10
2163.1600093050638
 20
1647.403587451807
 30
0.0
 11
2163.1600093050638
 21
1640.153587451807
 31
0.0
  0
LINE
  5
14283
  8
HIDE
 10
2171.1600093050638
 20
1647.403587451807
 30
0.0
 11
2171.1600093050638
 21
1609.403587451807
 31
0.0
  0
LINE
  5
14284
  8
0
 10
2159.6600093050638
 20
1647.403587451807
 30
0.0
 11
2159.6600093050638
 21
1609.403587451807
 31
0.0
  0
LINE
  5
14285
  8
0
 10
2167.6600093050638
 20
1647.403587451807
 30
0.0
 11
2159.6600093050638
 21
1647.403587451807
 31
0.0
  0
LINE
  5
14286
  8
HIDE
 10
2171.6600093050638
 20
1644.903587451807
 30
0.0
 11
2171.1600093050638
 21
1645.1922625863999
 31
0.0
  0
LINE
  5
14287
  8
HIDE
 10
2171.6600093050638
 20
1640.1535874518081
 30
0.0
 11
2159.6600093050638
 21
1640.153587451807
 31
0.0
  0
LINE
  5
14288
  8
HIDE
 10
2171.6600093050638
 20
1640.903587451807
 30
0.0
 11
2159.6600093050638
 21
1640.903587451807
 31
0.0
  0
LINE
  5
14289
  8
0
 10
2167.6600093050638
 20
1634.4244027319789
 30
0.0
 11
2159.6600093050638
 21
1634.4244027319789
 31
0.0
  0
LINE
  5
1428A
  8
HIDE
 10
2168.6600093050638
 20
1647.1083417579989
 30
0.0
 11
2162.6600093050638
 21
1647.1083417579989
 31
0.0
  0
LINE
  5
1428B
  8
HIDE
 10
2168.6600093050638
 20
1642.1083417580001
 30
0.0
 11
2162.6600093050638
 21
1642.1083417580001
 31
0.0
  0
LINE
  5
1428C
  8
HIDE
 10
2168.6600093050638
 20
1642.1083417580001
 30
0.0
 11
2168.1600093050638
 21
1641.8196666234051
 31
0.0
  0
LINE
  5
1428D
  8
HIDE
 10
2162.6600093050638
 20
1642.1083417580001
 30
0.0
 11
2163.1600093050638
 21
1641.8196666234051
 31
0.0
  0
LINE
  5
1428E
  8
HIDE
 10
2163.1600093050638
 20
1641.8196666234051
 30
0.0
 11
2168.1600093050638
 21
1641.8196666234051
 31
0.0
  0
LINE
  5
1428F
  8
CENTER
 10
2165.6600093050638
 20
1607.897043266034
 30
0.0
 11
2165.6600093050638
 21
1618.4282257804889
 31
0.0
  0
LINE
  5
14290
  8
HIDE
 10
2168.6600093050638
 20
1609.403587451807
 30
0.0
 11
2168.6600093050638
 21
1616.6535874518049
 31
0.0
  0
LINE
  5
14291
  8
HIDE
 10
2168.1600093050638
 20
1609.403587451807
 30
0.0
 11
2168.1600093050638
 21
1616.6535874518049
 31
0.0
  0
LINE
  5
14292
  8
HIDE
 10
2162.6600093050638
 20
1609.403587451807
 30
0.0
 11
2162.6600093050638
 21
1616.653587451807
 31
0.0
  0
LINE
  5
14293
  8
HIDE
 10
2163.1600093050638
 20
1609.403587451807
 30
0.0
 11
2163.1600093050638
 21
1616.653587451807
 31
0.0
  0
LINE
  5
14294
  8
0
 10
2167.6600093050638
 20
1609.403587451807
 30
0.0
 11
2159.6600093050638
 21
1609.403587451807
 31
0.0
  0
LINE
  5
14295
  8
HIDE
 10
2171.6600093050638
 20
1611.903587451807
 30
0.0
 11
2171.1600093050638
 21
1611.614912317214
 31
0.0
  0
LINE
  5
14296
  8
HIDE
 10
2171.6600093050638
 20
1616.6535874518049
 30
0.0
 11
2159.6600093050638
 21
1616.653587451807
 31
0.0
  0
LINE
  5
14297
  8
HIDE
 10
2171.6600093050638
 20
1615.903587451807
 30
0.0
 11
2159.6600093050638
 21
1615.903587451807
 31
0.0
  0
LINE
  5
14298
  8
0
 10
2167.6600093050638
 20
1622.382772171635
 30
0.0
 11
2159.6600093050638
 21
1622.382772171635
 31
0.0
  0
LINE
  5
14299
  8
HIDE
 10
2168.6600093050638
 20
1609.6988331456139
 30
0.0
 11
2162.6600093050638
 21
1609.6988331456139
 31
0.0
  0
LINE
  5
1429A
  8
HIDE
 10
2168.6600093050638
 20
1614.6988331456139
 30
0.0
 11
2162.6600093050638
 21
1614.6988331456139
 31
0.0
  0
LINE
  5
1429B
  8
HIDE
 10
2168.6600093050638
 20
1614.6988331456139
 30
0.0
 11
2168.1600093050638
 21
1614.987508280208
 31
0.0
  0
LINE
  5
1429C
  8
HIDE
 10
2162.6600093050638
 20
1614.6988331456139
 30
0.0
 11
2163.1600093050638
 21
1614.987508280208
 31
0.0
  0
LINE
  5
1429D
  8
HIDE
 10
2163.1600093050638
 20
1614.987508280208
 30
0.0
 11
2168.1600093050638
 21
1614.987508280208
 31
0.0
  0
LINE
  5
1429E
  8
HIDE
 10
2167.6600093050638
 20
1622.382772171635
 30
0.0
 11
2171.1600093050638
 21
1622.382772171635
 31
0.0
  0
LINE
  5
1429F
  8
HIDE
 10
2167.6600093050638
 20
1609.403587451807
 30
0.0
 11
2171.1600093050638
 21
1609.403587451807
 31
0.0
  0
LINE
  5
142A0
  8
HIDE
 10
2167.6600093050638
 20
1634.4244027319789
 30
0.0
 11
2171.1600093050638
 21
1634.4244027319789
 31
0.0
  0
LINE
  5
142A1
  8
HIDE
 10
2167.6600093050638
 20
1647.403587451807
 30
0.0
 11
2171.1600093050638
 21
1647.403587451807
 31
0.0
  0
ARC
  5
142A2
  8
0
 10
2043.0160452537291
 20
1628.403587451807
 30
0.0
 40
19.0
 50
71.525352016555615
 51
108.47464798345641
  0
ARC
  5
142A3
  8
0
 10
2043.0160452537291
 20
1628.403587451807
 30
0.0
 40
19.0
 50
161.5253520166136
 51
198.4746479833864
  0
ARC
  5
142A4
  8
0
 10
2043.0160452537291
 20
1628.403587451807
 30
0.0
 40
19.0
 50
251.52535201654359
 51
288.47464798344441
  0
ARC
  5
142A5
  8
0
 10
2043.0160452537291
 20
1628.403587451807
 30
0.0
 40
19.0
 50
341.52535201661362
 51
18.474647983386401
  0
POLYLINE
  5
142A6
  8
0
 66
     1
 10
0.0
 20
0.0
 30
0.0
  0
VERTEX
  5
1436A
  8
0
 10
2036.9952299735569
 20
1646.4244027319769
 30
0.0
  0
VERTEX
  5
1436B
  8
0
 10
2024.9952299735569
 20
1634.4244027319789
 30
0.0
  0
SEQEND
  5
1436C
  8
0
  0
POLYLINE
  5
142A7
  8
0
 66
     1
 10
0.0
 20
0.0
 30
0.0
  0
VERTEX
  5
1436D
  8
0
 10
2024.9952299735569
 20
1622.382772171635
 30
0.0
  0
VERTEX
  5
1436E
  8
0
 10
2036.9952299735569
 20
1610.382772171635
 30
0.0
  0
SEQEND
  5
1436F
  8
0
  0
POLYLINE
  5
142A8
  8
0
 66
     1
 10
0.0
 20
0.0
 30
0.0
  0
VERTEX
  5
14370
  8
0
 10
2049.0368605338999
 20
1610.382772171635
 30
0.0
  0
VERTEX
  5
14371
  8
0
 10
2061.0368605338999
 20
1622.3827721716341
 30
0.0
  0
SEQEND
  5
14372
  8
0
  0
POLYLINE
  5
142A9
  8
0
 66
     1
 10
0.0
 20
0.0
 30
0.0
  0
VERTEX
  5
14373
  8
0
 10
2061.0368605338999
 20
1634.424402731976
 30
0.0
  0
VERTEX
  5
14374
  8
0
 10
2049.0368605338999
 20
1646.4244027319751
 30
0.0
  0
SEQEND
  5
14375
  8
0
  0
ARC
  5
142AA
  8
HIDE
 10
2043.0160452537291
 20
1628.403587451807
 30
0.0
 40
12.5
 50
270.0
 51
180.0
  0
CIRCLE
  5
142AB
  8
0
 10
2043.0160452537291
 20
1628.403587451807
 30
0.0
 40
11.75
  0
LINE
  5
142AC
  8
HIDE
 10
2040.0160452537291
 20
1647.165250491101
 30
0.0
 11
2040.0160452537291
 21
1639.7641552193079
 31
0.0
  0
LINE
  5
142AD
  8
HIDE
 10
2040.5160452537291
 20
1647.2383956536439
 30
0.0
 11
2040.5160452537291
 21
1639.8845499550121
 31
0.0
  0
LINE
  5
142AE
  8
HIDE
 10
2046.0160452537291
 20
1647.165250491101
 30
0.0
 11
2046.0160452537291
 21
1639.764155219309
 31
0.0
  0
LINE
  5
142AF
  8
HIDE
 10
2045.516045253728
 20
1647.2383956536439
 30
0.0
 11
2045.516045253728
 21
1639.8845499550121
 31
0.0
  0
LINE
  5
142B0
  8
HIDE
 10
2040.0160452537291
 20
1647.1083417579989
 30
0.0
 11
2046.0160452537291
 21
1647.1083417579989
 31
0.0
  0
LINE
  5
142B1
  8
HIDE
 10
2040.0160452537291
 20
1642.1083417580001
 30
0.0
 11
2046.0160452537291
 21
1642.1083417580001
 31
0.0
  0
LINE
  5
142B2
  8
HIDE
 10
2040.0160452537291
 20
1642.1083417580001
 30
0.0
 11
2040.5160452537291
 21
1641.8196666234051
 31
0.0
  0
LINE
  5
142B3
  8
HIDE
 10
2046.0160452537291
 20
1642.1083417580001
 30
0.0
 11
2045.516045253728
 21
1641.8196666234051
 31
0.0
  0
LINE
  5
142B4
  8
HIDE
 10
2045.516045253728
 20
1641.8196666234051
 30
0.0
 11
2040.5160452537291
 21
1641.8196666234051
 31
0.0
  0
LINE
  5
142B5
  8
HIDE
 10
2040.0160452537291
 20
1609.6419244125129
 30
0.0
 11
2040.0160452537291
 21
1617.0430196843049
 31
0.0
  0
LINE
  5
142B6
  8
HIDE
 10
2040.5160452537291
 20
1609.5687792499691
 30
0.0
 11
2040.5160452537291
 21
1616.9226249486021
 31
0.0
  0
LINE
  5
142B7
  8
HIDE
 10
2046.0160452537291
 20
1609.6419244125129
 30
0.0
 11
2046.0160452537291
 21
1617.0430196843049
 31
0.0
  0
LINE
  5
142B8
  8
HIDE
 10
2045.516045253728
 20
1609.5687792499691
 30
0.0
 11
2045.516045253728
 21
1616.9226249486021
 31
0.0
  0
LINE
  5
142B9
  8
HIDE
 10
2040.0160452537291
 20
1609.6988331456139
 30
0.0
 11
2046.0160452537291
 21
1609.6988331456139
 31
0.0
  0
LINE
  5
142BA
  8
HIDE
 10
2040.0160452537291
 20
1614.6988331456139
 30
0.0
 11
2046.0160452537291
 21
1614.6988331456139
 31
0.0
  0
LINE
  5
142BB
  8
HIDE
 10
2040.0160452537291
 20
1614.6988331456139
 30
0.0
 11
2040.5160452537291
 21
1614.987508280208
 31
0.0
  0
LINE
  5
142BC
  8
HIDE
 10
2046.0160452537291
 20
1614.6988331456139
 30
0.0
 11
2045.516045253728
 21
1614.987508280208
 31
0.0
  0
LINE
  5
142BD
  8
HIDE
 10
2045.516045253728
 20
1614.987508280208
 30
0.0
 11
2040.5160452537291
 21
1614.987508280208
 31
0.0
  0
ENDSEC
  0
EOF
