  0
SECTION
  2
HEADER
  9
$ACADVER
  1
AC1009
  9
$INSBASE
 10
0.0
 20
0.0
 30
0.0
  9
$EXTMIN
 10
1903.0405749290021
 20
1433.173578249188
 30
0.0
  9
$EXTMAX
 10
2348.540574929003
 20
1748.173578249188
 30
0.0
  9
$LIMMIN
 10
0.0
 20
0.0
  9
$LIMMAX
 10
12.0
 20
9.0
  9
$ORTHOMODE
 70
     1
  9
$REGENMODE
 70
     1
  9
$FILLMODE
 70
     1
  9
$QTEXTMODE
 70
     0
  9
$MIRRTEXT
 70
     0
  9
$DRAGMODE
 70
     2
  9
$LTSCALE
 40
5.0
  9
$OSMODE
 70
  2239
  9
$ATTMODE
 70
     1
  9
$TEXTSIZE
 40
2.5
  9
$TRACEWID
 40
0.05
  9
$TEXTSTYLE
  7
BIG
  9
$CLAYER
  8
0
  9
$CELTYPE
  6
BYLAYER
  9
$CECOLOR
 62
   256
  9
$DIMSCALE
 40
1.0
  9
$DIMASZ
 40
3.0
  9
$DIMEXO
 40
1.0
  9
$DIMDLI
 40
0.0
  9
$DIMRND
 40
0.0
  9
$DIMDLE
 40
0.0
  9
$DIMEXE
 40
1.0
  9
$DIMTP
 40
0.0
  9
$DIMTM
 40
0.0
  9
$DIMTXT
 40
3.0
  9
$DIMCEN
 40
0.0
  9
$DIMTSZ
 40
0.0
  9
$DIMTOL
 70
     0
  9
$DIMLIM
 70
     0
  9
$DIMTIH
 70
     0
  9
$DIMTOH
 70
     0
  9
$DIMSE1
 70
     0
  9
$DIMSE2
 70
     0
  9
$DIMTAD
 70
     1
  9
$DIMZIN
 70
     8
  9
$DIMBLK
  1

  9
$DIMASO
 70
     1
  9
$DIMSHO
 70
     1
  9
$DIMPOST
  1

  9
$DIMAPOST
  1

  9
$DIMALT
 70
     0
  9
$DIMALTD
 70
     2
  9
$DIMALTF
 40
25.399999999999999
  9
$DIMLFAC
 40
1.0
  9
$DIMTOFL
 70
     1
  9
$DIMTVP
 40
0.0
  9
$DIMTIX
 70
     1
  9
$DIMSOXD
 70
     0
  9
$DIMSAH
 70
     0
  9
$DIMBLK1
  1

  9
$DIMBLK2
  1

  9
$DIMSTYLE
  2
DUKITEC
  9
$DIMCLRD
 70
     5
  9
$DIMCLRE
 70
     5
  9
$DIMCLRT
 70
     0
  9
$DIMTFAC
 40
1.0
  9
$DIMGAP
 40
1.0
  9
$LUNITS
 70
     2
  9
$LUPREC
 70
     4
  9
$SKETCHINC
 40
0.1
  9
$FILLETRAD
 40
0.2
  9
$AUNITS
 70
     0
  9
$AUPREC
 70
     0
  9
$MENU
  1
.
  9
$ELEVATION
 40
0.0
  9
$PELEVATION
 40
0.0
  9
$THICKNESS
 40
0.0
  9
$LIMCHECK
 70
     0
  9
$BLIPMODE
 70
     0
  9
$CHAMFERA
 40
0.5
  9
$CHAMFERB
 40
0.5
  9
$SKPOLY
 70
     0
  9
$TDCREATE
 40
2454396.7462393292
  9
$TDUPDATE
 40
2456631.3906843872
  9
$TDINDWG
 40
0.007969456
  9
$TDUSRTIMER
 40
0.0079690856
  9
$USRTIMER
 70
     1
  9
$ANGBASE
 50
0.0
  9
$ANGDIR
 70
     0
  9
$PDMODE
 70
     0
  9
$PDSIZE
 40
0.0
  9
$PLINEWID
 40
0.0
  9
$COORDS
 70
     1
  9
$SPLFRAME
 70
     0
  9
$SPLINETYPE
 70
     6
  9
$SPLINESEGS
 70
     8
  9
$ATTDIA
 70
     0
  9
$ATTREQ
 70
     1
  9
$HANDLING
 70
     1
  9
$HANDSEED
  5
146C6
  9
$SURFTAB1
 70
     6
  9
$SURFTAB2
 70
     6
  9
$SURFTYPE
 70
     6
  9
$SURFU
 70
     6
  9
$SURFV
 70
     6
  9
$UCSNAME
  2

  9
$UCSORG
 10
0.0
 20
0.0
 30
0.0
  9
$UCSXDIR
 10
1.0
 20
0.0
 30
0.0
  9
$UCSYDIR
 10
0.0
 20
1.0
 30
0.0
  9
$PUCSNAME
  2

  9
$PUCSORG
 10
0.0
 20
0.0
 30
0.0
  9
$PUCSXDIR
 10
1.0
 20
0.0
 30
0.0
  9
$PUCSYDIR
 10
0.0
 20
1.0
 30
0.0
  9
$USERI1
 70
     0
  9
$USERI2
 70
     0
  9
$USERI3
 70
     0
  9
$USERI4
 70
     0
  9
$USERI5
 70
     0
  9
$USERR1
 40
0.0
  9
$USERR2
 40
0.0
  9
$USERR3
 40
0.0
  9
$USERR4
 40
0.0
  9
$USERR5
 40
0.0
  9
$WORLDVIEW
 70
     1
  9
$SHADEDGE
 70
     3
  9
$SHADEDIF
 70
    70
  9
$TILEMODE
 70
     1
  9
$MAXACTVP
 70
    64
  9
$PLIMCHECK
 70
     0
  9
$PEXTMIN
 10
0.0
 20
0.0
 30
0.0
  9
$PEXTMAX
 10
0.0
 20
0.0
 30
0.0
  9
$PLIMMIN
 10
0.0
 20
0.0
  9
$PLIMMAX
 10
12.0
 20
9.0
  9
$UNITMODE
 70
     0
  9
$VISRETAIN
 70
     1
  9
$PLINEGEN
 70
     0
  9
$PSLTSCALE
 70
     1
  0
ENDSEC
  0
SECTION
  2
TABLES
  0
TABLE
  2
VPORT
 70
     1
  0
VPORT
  2
*ACTIVE
 70
     0
 10
0.0
 20
0.0
 11
1.0
 21
1.0
 12
2151.3790019912281
 22
1588.9814990641239
 13
0.0
 23
0.0
 14
0.5
 24
0.5
 15
0.5
 25
0.5
 16
0.0
 26
0.0
 36
1.0
 17
0.0
 27
0.0
 37
0.0
 40
218.02605928738811
 41
2.1408934707903771
 42
50.0
 43
0.0
 44
0.0
 50
0.0
 51
0.0
 71
     0
 72
  2000
 73
     1
 74
     3
 75
     0
 76
     0
 77
     0
 78
     0
  0
ENDTAB
  0
TABLE
  2
LTYPE
 70
     5
  0
LTYPE
  2
CONTINUOUS
 70
     0
  3
Solid line
 72
    65
 73
     0
 40
0.0
  0
LTYPE
  2
PHANTOM2
 70
     0
  3
Phantom (.5x) ___ _ _ ___ _ _ ___ _ _ ___ _ _
 72
    65
 73
     6
 40
1.25
 49
0.625
 49
-0.125
 49
0.125
 49
-0.125
 49
0.125
 49
-0.125
  0
LTYPE
  2
CENTER
 70
     0
  3
___ _ ___ _ ___ _ ___ _ ___ _ ___ _ ___ _ ___ _
 72
    65
 73
     4
 40
0.95
 49
0.625
 49
-0.125
 49
0.075
 49
-0.125
  0
LTYPE
  2
DASHED2
 70
     0
  3
Dashed (.5x) _ _ _ _ _ _ _ _ _ _ _ _ _ _ _ _ _
 72
    65
 73
     2
 40
0.375
 49
0.25
 49
-0.125
  0
ENDTAB
  0
TABLE
  2
LAYER
 70
     4
  0
LAYER
  2
0
 70
     0
 62
     7
  6
CONTINUOUS
  0
LAYER
  2
HIDE
 70
     0
 62
     1
  6
DASHED2
  0
LAYER
  2
CENTER
 70
     0
 62
     3
  6
CENTER
  0
ENDTAB
  0
TABLE
  2
STYLE
 70
     3
  0
STYLE
  2
STANDARD
 70
     0
 40
5.0
 41
1.0
 50
0.0
 71
     0
 42
5.0
  3
txt.shx
  4
whgtxt.shx
  0
STYLE
  2
BIG
 70
     0
 40
20.0
 41
1.0
 50
0.0
 71
     0
 42
2.5
  3
txt
  4

  0
ENDTAB
  0
TABLE
  2
VIEW
 70
     0
  0
ENDTAB
  0
TABLE
  2
UCS
 70
     0
  0
ENDTAB
  0
TABLE
  2
APPID
 70
    18
  0
APPID
  2
ACAD
 70
     0
  0
APPID
  2
ACADANNOTATIVE
 70
     0
  0
APPID
  2
ACAD_EXEMPT_FROM_CAD_STANDARDS
 70
     0
  0
APPID
  2
ACAD_DSTYLE_DIMJOGGED_JOGA
 70
     0
  0
APPID
  2
ACAD_PSEXT
 70
     0
  0
APPID
  2
ACAECLAYERSTANDARD
 70
     0
  0
APPID
  2
DCO15
 70
     0
  0
APPID
  2
CONTENTBLOCKICON
 70
     0
  0
APPID
  2
ACAD_DSTYLE_DIMJAG
 70
     0
  0
APPID
  2
ACAD_DSTYLE_DIMBREAK
 70
     0
  0
APPID
  2
ACAD_DSTYLE_DIMTALN
 70
     0
  0
APPID
  2
ACAD_DSTYLE_DIMTEXT_FILL
 70
     0
  0
APPID
  2
ACAD_NAV_VCDISPLAY
 70
     0
  0
APPID
  2
ACDBDYNAMICBLOCKTRUENAME2
 70
     0
  0
APPID
  2
CAXA_DRAFT_DIMSTYLE_ANGTXTVPOS
 70
     0
  0
APPID
  2
CAXA_DRAFT_TXTSTYLE
 70
     0
  0
APPID
  2
ACAD_MLEADERVER
 70
     0
  0
APPID
  2
ACAD_DSTYLE_DIMRADIAL_EXTENSION
 70
     0
  0
ENDTAB
  0
TABLE
  2
DIMSTYLE
 70
     4
  0
DIMSTYLE
  2
DUKITEC
 70
     0
  3

  4

  5

  6

  7

 40
1.0
 41
3.0
 42
1.0
 43
0.0
 44
1.0
 45
0.0
 46
0.0
 47
0.0
 48
0.0
140
3.0
141
0.0
142
0.0
143
25.399999999999999
144
1.0
145
0.0
146
1.0
147
1.0
 71
     0
 72
     0
 73
     0
 74
     0
 75
     0
 76
     0
 77
     1
 78
     8
170
     0
171
     2
172
     1
173
     0
174
     1
175
     0
176
     5
177
     5
178
     0
  0
ENDTAB
  0
ENDSEC
  0
SECTION
  2
BLOCKS
  0
BLOCK
  8
0
  2
$MODEL_SPACE
 70
     0
 10
0.0
 20
0.0
 30
0.0
  3
$MODEL_SPACE
  1

  0
ENDBLK
  5
144EB
  8
0
  0
BLOCK
 67
     1
  8
0
  2
$PAPER_SPACE
 70
     0
 10
0.0
 20
0.0
 30
0.0
  3
$PAPER_SPACE
  1

  0
ENDBLK
  5
144E7
 67
     1
  8
0
  0
ENDSEC
  0
SECTION
  2
ENTITIES
  0
TEXT
  5
14014
  8
0
 10
2094.9841087984428
 20
1511.644513507611
 30
0.0
 40
20.0
  1
FK 25T
  7
BIG
  0
LINE
  5
1433A
  8
HIDE
 10
2190.4540029540722
 20
1585.2356251734141
 30
0.0
 11
2203.4540029540722
 21
1585.2356251734141
 31
0.0
  0
LINE
  5
1433B
  8
HIDE
 10
2203.4540029540722
 20
1582.2356251734141
 30
0.0
 11
2217.4539829540709
 21
1582.2356251734141
 31
0.0
  0
LINE
  5
1433C
  8
HIDE
 10
2203.4540029540722
 20
1573.2356251734141
 30
0.0
 11
2217.4539829540709
 21
1573.2356251734141
 31
0.0
  0
LINE
  5
1433D
  8
HIDE
 10
2190.4540029540722
 20
1570.2356251734141
 30
0.0
 11
2203.4540029540722
 21
1570.2356251734141
 31
0.0
  0
LINE
  5
14340
  8
HIDE
 10
2203.4540029540722
 20
1653.235625173415
 30
0.0
 11
2217.4539829540709
 21
1653.2356251734141
 31
0.0
  0
LINE
  5
14341
  8
HIDE
 10
2203.4540029540722
 20
1662.2356251734141
 30
0.0
 11
2217.4539829540709
 21
1662.2356251734141
 31
0.0
  0
LINE
  5
14342
  8
CENTER
 10
2186.9951290665358
 20
1577.7356251734141
 30
0.0
 11
2220.2543702052672
 21
1577.7356251734141
 31
0.0
  0
LINE
  5
14343
  8
CENTER
 10
2186.9951290665358
 20
1657.7356251734141
 30
0.0
 11
2220.2543702052672
 21
1657.7356251734141
 31
0.0
  0
LINE
  5
14344
  8
0
 10
2203.453922954071
 20
1568.7356251734241
 30
0.0
 11
2217.4539829540709
 21
1568.7356251734241
 31
0.0
  0
LINE
  5
14345
  8
0
 10
2190.4540029540722
 20
1568.7356251734241
 30
0.0
 11
2203.453922954071
 21
1568.7356251734241
 31
0.0
  0
LINE
  5
14346
  8
0
 10
2203.453922954071
 20
1666.7356251734029
 30
0.0
 11
2217.4539829540709
 21
1666.7356251734029
 31
0.0
  0
LINE
  5
14347
  8
0
 10
2190.4540029540722
 20
1666.7356251734029
 30
0.0
 11
2203.453922954071
 21
1666.7356251734029
 31
0.0
  0
LINE
  5
14348
  8
CENTER
 10
2175.5240710542489
 20
1617.7356251734141
 30
0.0
 11
2253.418990139241
 21
1617.7356251734141
 31
0.0
  0
LINE
  5
14349
  8
0
 10
2217.4539829540709
 20
1586.2356251734129
 30
0.0
 11
2247.4539829540709
 21
1586.2356251734141
 31
0.0
  0
LINE
  5
1434A
  8
0
 10
2217.4539829540709
 20
1649.2356251734141
 30
0.0
 11
2247.4539829540709
 21
1649.2356251734141
 31
0.0
  0
LINE
  5
1434B
  8
HIDE
 10
2193.4539229540701
 20
1605.2356251734141
 30
0.0
 11
2207.453922954071
 21
1605.2356251734141
 31
0.0
  0
LINE
  5
1434C
  8
HIDE
 10
2237.453922954071
 20
1605.2356251734141
 30
0.0
 11
2251.453922954071
 21
1605.2356251734141
 31
0.0
  0
LINE
  5
1434D
  8
HIDE
 10
2193.4539229540701
 20
1630.2356251734129
 30
0.0
 11
2207.453922954071
 21
1630.2356251734129
 31
0.0
  0
LINE
  5
1434E
  8
HIDE
 10
2237.453922954071
 20
1630.2356251734129
 30
0.0
 11
2251.453922954071
 21
1630.2356251734129
 31
0.0
  0
LINE
  5
1434F
  8
HIDE
 10
2193.4539229540701
 20
1602.4856251734129
 30
0.0
 11
2207.453922954071
 21
1602.4856251734129
 31
0.0
  0
LINE
  5
14350
  8
HIDE
 10
2237.453922954071
 20
1602.4856251734129
 30
0.0
 11
2247.4539229540701
 21
1602.4856251734129
 31
0.0
  0
LINE
  5
14351
  8
HIDE
 10
2193.4539229540701
 20
1632.9856251734141
 30
0.0
 11
2207.453922954071
 21
1632.9856251734141
 31
0.0
  0
LINE
  5
14352
  8
HIDE
 10
2237.453922954071
 20
1632.9856251734141
 30
0.0
 11
2247.4539229540701
 21
1632.9856251734141
 31
0.0
  0
LINE
  5
14353
  8
0
 10
2190.4540029540722
 20
1666.7356251734029
 30
0.0
 11
2190.4540029540722
 21
1568.7356251734241
 31
0.0
  0
LINE
  5
14354
  8
0
 10
2203.4540029540722
 20
1666.7356251734029
 30
0.0
 11
2203.4540029540722
 21
1568.7356251734241
 31
0.0
  0
LINE
  5
14355
  8
0
 10
2217.4539829540709
 20
1568.7356251734241
 30
0.0
 11
2217.4539829540709
 21
1666.7356251734029
 31
0.0
  0
LINE
  5
14357
  8
0
 10
2190.4540029540722
 20
1610.3079521734139
 30
0.0
 11
2217.4539829540709
 21
1610.3079521734139
 31
0.0
  0
LINE
  5
14358
  8
0
 10
2190.4540029540722
 20
1625.1632831734139
 30
0.0
 11
2217.4539829540709
 21
1625.1632831734139
 31
0.0
  0
CIRCLE
  5
14359
  8
HIDE
 10
2229.953922954071
 20
1598.4856251734141
 30
0.0
 40
4.049999999999998
  0
CIRCLE
  5
1435A
  8
HIDE
 10
2229.953922954071
 20
1636.9856251734141
 30
0.0
 40
4.049999999999998
  0
CIRCLE
  5
1435B
  8
HIDE
 10
2214.953922954071
 20
1598.4856251734141
 30
0.0
 40
4.049999999999998
  0
CIRCLE
  5
1435C
  8
HIDE
 10
2214.953922954071
 20
1636.9856251734141
 30
0.0
 40
4.049999999999998
  0
ARC
  5
1435D
  8
HIDE
 10
2221.853922954072
 20
1643.135625173413
 30
0.0
 40
0.5999999999999996
 50
0.0
 51
90.0
  0
ARC
  5
1435E
  8
HIDE
 10
2208.453922954071
 20
1642.7356251734141
 30
0.0
 40
1.0
 50
90.0
 51
180.0
  0
ARC
  5
1435F
  8
HIDE
 10
2221.453922954071
 20
1631.2356251734141
 30
0.0
 40
1.0
 50
270.0
 51
0.0
  0
ARC
  5
14360
  8
HIDE
 10
2221.453922954071
 20
1604.2356251734141
 30
0.0
 40
1.0
 50
0.0
 51
90.0
  0
ARC
  5
14361
  8
HIDE
 10
2208.0539229540709
 20
1630.835625173414
 30
0.0
 40
0.6000000000000015
 50
180.0
 51
270.0
  0
ARC
  5
14362
  8
HIDE
 10
2208.0539229540709
 20
1604.6356251734139
 30
0.0
 40
0.5999999999999996
 50
90.0
 51
180.0
  0
ARC
  5
14363
  8
HIDE
 10
2221.853922954072
 20
1592.335625173414
 30
0.0
 40
0.6000000000000015
 50
270.0
 51
0.0
  0
ARC
  5
14364
  8
HIDE
 10
2208.453922954071
 20
1592.7356251734141
 30
0.0
 40
1.0
 50
180.0
 51
270.0
  0
LINE
  5
14365
  8
HIDE
 10
2207.453922954071
 20
1638.6856251734141
 30
0.0
 11
2211.2779876989289
 21
1638.6856251734141
 31
0.0
  0
LINE
  5
14366
  8
HIDE
 10
2208.453922954071
 20
1643.7356251734141
 30
0.0
 11
2221.853922954072
 21
1643.7356251734141
 31
0.0
  0
LINE
  5
14367
  8
HIDE
 10
2222.453922954071
 20
1635.1856251734141
 30
0.0
 11
2218.5819389408061
 21
1635.1856251734141
 31
0.0
  0
LINE
  5
14368
  8
HIDE
 10
2216.4455164550141
 20
1640.7509470491559
 30
0.0
 11
2222.453922954071
 21
1641.2356251734141
 31
0.0
  0
LINE
  5
14369
  8
HIDE
 10
2207.453922954071
 20
1635.1856251734141
 30
0.0
 11
2211.3259069673368
 21
1635.1856251734141
 31
0.0
  0
LINE
  5
1436A
  8
HIDE
 10
2207.453922954071
 20
1600.285625173414
 30
0.0
 11
2211.3259069673368
 21
1600.285625173414
 31
0.0
  0
LINE
  5
1436B
  8
HIDE
 10
2208.0539229540709
 20
1630.2356251734141
 30
0.0
 11
2221.453922954071
 21
1630.2356251734141
 31
0.0
  0
LINE
  5
1436C
  8
HIDE
 10
2208.0539229540709
 20
1605.2356251734141
 30
0.0
 11
2221.453922954071
 21
1605.2356251734141
 31
0.0
  0
LINE
  5
1436D
  8
HIDE
 10
2222.453922954071
 20
1600.285625173414
 30
0.0
 11
2218.5819389408061
 21
1600.285625173414
 31
0.0
  0
LINE
  5
1436E
  8
HIDE
 10
2207.453922954071
 20
1596.785625173414
 30
0.0
 11
2211.2779876989289
 21
1596.785625173414
 31
0.0
  0
LINE
  5
1436F
  8
HIDE
 10
2221.853922954072
 20
1591.7356251734141
 30
0.0
 11
2208.453922954071
 21
1591.7356251734141
 31
0.0
  0
LINE
  5
14370
  8
HIDE
 10
2216.4455164550141
 20
1594.720303297672
 30
0.0
 11
2222.453922954071
 21
1594.2356251734141
 31
0.0
  0
LINE
  5
14371
  8
HIDE
 10
2207.453922954071
 20
1592.7356251734141
 30
0.0
 11
2207.453922954071
 21
1642.7356251734141
 31
0.0
  0
LINE
  5
14372
  8
HIDE
 10
2222.453922954071
 20
1643.135625173413
 30
0.0
 11
2222.453922954071
 21
1592.335625173414
 31
0.0
  0
LINE
  5
14373
  8
HIDE
 10
2211.0676135061808
 20
1638.6856251734141
 30
0.0
 11
2211.528679084433
 21
1639.1466907516649
 31
0.0
  0
ARC
  5
14374
  8
HIDE
 10
2223.0539229540718
 20
1592.335625173414
 30
0.0
 40
0.5999999999999996
 50
180.0
 51
270.0
  0
ARC
  5
14375
  8
HIDE
 10
2236.453922954071
 20
1592.7356251734141
 30
0.0
 40
1.0
 50
270.0
 51
0.0
  0
ARC
  5
14376
  8
HIDE
 10
2223.453922954071
 20
1604.2356251734141
 30
0.0
 40
1.0
 50
90.0
 51
180.0
  0
ARC
  5
14377
  8
HIDE
 10
2223.453922954071
 20
1631.2356251734141
 30
0.0
 40
1.0
 50
180.0
 51
270.0
  0
ARC
  5
14378
  8
HIDE
 10
2236.853922954072
 20
1604.6356251734139
 30
0.0
 40
0.6
 50
0.0
 51
90.0
  0
ARC
  5
14379
  8
HIDE
 10
2236.853922954072
 20
1630.835625173414
 30
0.0
 40
0.5999999999999996
 50
270.0
 51
0.0
  0
ARC
  5
1437A
  8
HIDE
 10
2223.0539229540718
 20
1643.1356251734151
 30
0.0
 40
0.6000000000000015
 50
90.0
 51
180.0
  0
ARC
  5
1437B
  8
HIDE
 10
2236.453922954071
 20
1642.7356251734141
 30
0.0
 40
1.0
 50
0.0
 51
90.0
  0
LINE
  5
1437C
  8
HIDE
 10
2237.453922954071
 20
1596.785625173414
 30
0.0
 11
2233.629858209214
 21
1596.785625173414
 31
0.0
  0
LINE
  5
1437D
  8
HIDE
 10
2236.453922954071
 20
1591.7356251734141
 30
0.0
 11
2223.0539229540718
 21
1591.7356251734141
 31
0.0
  0
LINE
  5
1437E
  8
HIDE
 10
2222.453922954071
 20
1600.285625173414
 30
0.0
 11
2226.3259069673368
 21
1600.285625173414
 31
0.0
  0
LINE
  5
1437F
  8
HIDE
 10
2228.4623294531289
 20
1594.720303297672
 30
0.0
 11
2222.453922954071
 21
1594.2356251734141
 31
0.0
  0
LINE
  5
14380
  8
HIDE
 10
2237.453922954071
 20
1600.285625173414
 30
0.0
 11
2233.5819389408061
 21
1600.285625173414
 31
0.0
  0
LINE
  5
14381
  8
HIDE
 10
2237.453922954071
 20
1635.1856251734141
 30
0.0
 11
2233.5819389408061
 21
1635.1856251734141
 31
0.0
  0
LINE
  5
14382
  8
HIDE
 10
2236.853922954072
 20
1605.2356251734141
 30
0.0
 11
2223.453922954071
 21
1605.2356251734141
 31
0.0
  0
LINE
  5
14383
  8
HIDE
 10
2236.853922954072
 20
1630.2356251734141
 30
0.0
 11
2223.453922954071
 21
1630.2356251734141
 31
0.0
  0
LINE
  5
14384
  8
HIDE
 10
2222.453922954071
 20
1635.1856251734141
 30
0.0
 11
2226.3259069673368
 21
1635.1856251734141
 31
0.0
  0
LINE
  5
14385
  8
HIDE
 10
2237.453922954071
 20
1638.6856251734141
 30
0.0
 11
2233.629858209214
 21
1638.6856251734141
 31
0.0
  0
LINE
  5
14386
  8
HIDE
 10
2223.0539229540718
 20
1643.7356251734141
 30
0.0
 11
2236.4539229540719
 21
1643.7356251734141
 31
0.0
  0
LINE
  5
14387
  8
HIDE
 10
2228.4623294531289
 20
1640.750947049157
 30
0.0
 11
2222.4539229540719
 21
1641.2356251734141
 31
0.0
  0
LINE
  5
14388
  8
HIDE
 10
2237.453922954071
 20
1642.7356251734141
 30
0.0
 11
2237.453922954071
 21
1592.7356251734141
 31
0.0
  0
LINE
  5
14389
  8
HIDE
 10
2233.3791668237091
 20
1639.146690751666
 30
0.0
 11
2233.8402324019612
 21
1638.6856251734141
 31
0.0
  0
LINE
  5
1438A
  8
0
 10
2247.453922954071
 20
1632.9856251734141
 30
0.0
 11
2251.453922954071
 21
1632.9856251734141
 31
0.0
  0
LINE
  5
1438B
  8
0
 10
2247.453922954071
 20
1602.4856251734129
 30
0.0
 11
2251.453922954071
 21
1602.4856251734129
 31
0.0
  0
LINE
  5
1438C
  8
0
 10
2251.453922954071
 20
1632.9856251734141
 30
0.0
 11
2251.453922954071
 21
1602.4856251734129
 31
0.0
  0
LINE
  5
1438D
  8
HIDE
 10
2193.4539229540701
 20
1634.2356251734129
 30
0.0
 11
2193.4539229540701
 21
1601.2356251734141
 31
0.0
  0
LINE
  5
1438E
  8
CENTER
 10
2187.4539229540701
 20
1638.2421693591871
 30
0.0
 11
2187.4539229540701
 21
1627.7109868447301
 31
0.0
  0
LINE
  5
1438F
  8
HIDE
 10
2190.4539229540701
 20
1636.7356251734141
 30
0.0
 11
2190.4539229540701
 21
1629.4856251734141
 31
0.0
  0
LINE
  5
14390
  8
HIDE
 10
2189.9539229540701
 20
1636.7356251734141
 30
0.0
 11
2189.9539229540701
 21
1629.4856251734141
 31
0.0
  0
LINE
  5
14391
  8
HIDE
 10
2184.4539229540701
 20
1636.7356251734141
 30
0.0
 11
2184.4539229540701
 21
1629.4856251734141
 31
0.0
  0
LINE
  5
14392
  8
HIDE
 10
2184.9539229540701
 20
1636.7356251734141
 30
0.0
 11
2184.9539229540701
 21
1629.4856251734141
 31
0.0
  0
LINE
  5
14393
  8
HIDE
 10
2192.9539229540701
 20
1636.7356251734141
 30
0.0
 11
2192.9539229540701
 21
1598.7356251734141
 31
0.0
  0
LINE
  5
14394
  8
0
 10
2181.4539229540701
 20
1636.7356251734141
 30
0.0
 11
2181.4539229540701
 21
1598.7356251734141
 31
0.0
  0
LINE
  5
14395
  8
0
 10
2190.4540029540722
 20
1636.7356251734141
 30
0.0
 11
2181.4539229540701
 21
1636.7356251734141
 31
0.0
  0
LINE
  5
14396
  8
CENTER
 10
2196.6471594150162
 20
1617.7356251734141
 30
0.0
 11
2179.625749357454
 21
1617.7356251734141
 31
0.0
  0
LINE
  5
14397
  8
HIDE
 10
2193.4539229540701
 20
1634.2356251734129
 30
0.0
 11
2192.9539229540701
 21
1634.5243003080079
 31
0.0
  0
LINE
  5
14398
  8
HIDE
 10
2193.4539229540701
 20
1629.4856251734141
 30
0.0
 11
2181.4539229540701
 21
1629.4856251734141
 31
0.0
  0
LINE
  5
14399
  8
HIDE
 10
2193.4539229540701
 20
1630.2356251734141
 30
0.0
 11
2181.4539229540701
 21
1630.2356251734141
 31
0.0
  0
LINE
  5
1439A
  8
0
 10
2190.4540029540722
 20
1623.7564404535849
 30
0.0
 11
2181.4539229540701
 21
1623.7564404535849
 31
0.0
  0
LINE
  5
1439B
  8
HIDE
 10
2190.4539229540701
 20
1636.440379479606
 30
0.0
 11
2184.4539229540701
 21
1636.440379479606
 31
0.0
  0
LINE
  5
1439C
  8
HIDE
 10
2190.4539229540701
 20
1631.440379479606
 30
0.0
 11
2184.4539229540701
 21
1631.440379479606
 31
0.0
  0
LINE
  5
1439D
  8
HIDE
 10
2190.4539229540701
 20
1631.440379479606
 30
0.0
 11
2189.9539229540701
 21
1631.1517043450119
 31
0.0
  0
LINE
  5
1439E
  8
HIDE
 10
2184.4539229540701
 20
1631.440379479606
 30
0.0
 11
2184.9539229540701
 21
1631.1517043450119
 31
0.0
  0
LINE
  5
1439F
  8
HIDE
 10
2184.9539229540701
 20
1631.1517043450119
 30
0.0
 11
2189.9539229540701
 21
1631.1517043450119
 31
0.0
  0
LINE
  5
143A0
  8
CENTER
 10
2187.4539229540701
 20
1597.2290809876411
 30
0.0
 11
2187.4539229540701
 21
1607.7602635020969
 31
0.0
  0
LINE
  5
143A1
  8
HIDE
 10
2190.4539229540701
 20
1598.7356251734141
 30
0.0
 11
2190.4539229540701
 21
1605.9856251734141
 31
0.0
  0
LINE
  5
143A2
  8
HIDE
 10
2189.9539229540701
 20
1598.7356251734141
 30
0.0
 11
2189.9539229540701
 21
1605.9856251734141
 31
0.0
  0
LINE
  5
143A3
  8
HIDE
 10
2184.4539229540701
 20
1598.7356251734141
 30
0.0
 11
2184.4539229540701
 21
1605.9856251734141
 31
0.0
  0
LINE
  5
143A4
  8
HIDE
 10
2184.9539229540701
 20
1598.7356251734141
 30
0.0
 11
2184.9539229540701
 21
1605.9856251734141
 31
0.0
  0
LINE
  5
143A5
  8
0
 10
2190.4539229540701
 20
1598.7356251734141
 30
0.0
 11
2181.4539229540701
 21
1598.7356251734141
 31
0.0
  0
LINE
  5
143A6
  8
HIDE
 10
2193.4539229540701
 20
1601.2356251734141
 30
0.0
 11
2192.9539229540701
 21
1600.94695003882
 31
0.0
  0
LINE
  5
143A7
  8
HIDE
 10
2193.4539229540701
 20
1605.9856251734141
 30
0.0
 11
2181.4539229540701
 21
1605.9856251734141
 31
0.0
  0
LINE
  5
143A8
  8
HIDE
 10
2193.4539229540701
 20
1605.2356251734141
 30
0.0
 11
2181.4539229540701
 21
1605.2356251734141
 31
0.0
  0
LINE
  5
143A9
  8
0
 10
2190.4540029540722
 20
1611.7148098932421
 30
0.0
 11
2181.4539229540701
 21
1611.7148098932421
 31
0.0
  0
LINE
  5
143AA
  8
HIDE
 10
2190.4539229540701
 20
1599.030870867221
 30
0.0
 11
2184.4539229540701
 21
1599.030870867221
 31
0.0
  0
LINE
  5
143AB
  8
HIDE
 10
2190.4539229540701
 20
1604.030870867221
 30
0.0
 11
2184.4539229540701
 21
1604.030870867221
 31
0.0
  0
LINE
  5
143AC
  8
HIDE
 10
2190.4539229540701
 20
1604.030870867221
 30
0.0
 11
2189.9539229540701
 21
1604.3195460018151
 31
0.0
  0
LINE
  5
143AD
  8
HIDE
 10
2184.4539229540701
 20
1604.030870867221
 30
0.0
 11
2184.9539229540701
 21
1604.3195460018151
 31
0.0
  0
LINE
  5
143AE
  8
HIDE
 10
2184.9539229540701
 20
1604.3195460018151
 30
0.0
 11
2189.9539229540701
 21
1604.3195460018151
 31
0.0
  0
LINE
  5
143AF
  8
HIDE
 10
2190.4540029540722
 20
1611.7148098932421
 30
0.0
 11
2192.9539229540701
 21
1611.7148098932421
 31
0.0
  0
LINE
  5
143B0
  8
HIDE
 10
2190.4539229540701
 20
1598.7356251734141
 30
0.0
 11
2192.9539229540701
 21
1598.7356251734141
 31
0.0
  0
LINE
  5
143B1
  8
HIDE
 10
2190.4540029540722
 20
1623.7564404535849
 30
0.0
 11
2192.9539229540701
 21
1623.7564404535849
 31
0.0
  0
LINE
  5
143B2
  8
HIDE
 10
2190.4540029540722
 20
1636.7356251734141
 30
0.0
 11
2192.9539229540701
 21
1636.7356251734141
 31
0.0
  0
LINE
  5
143B3
  8
HIDE
 10
2193.4539229540701
 20
1632.9856251734141
 30
0.0
 11
2193.4539229540701
 21
1602.4856251734129
 31
0.0
  0
CIRCLE
  5
143B8
  8
HIDE
 10
2098.514065515868
 20
1617.7356251734141
 30
0.0
 40
31.5
  0
ARC
  5
143B9
  8
0
 10
2098.514065515868
 20
1617.7356251734141
 30
0.0
 40
49.0
 50
81.281204102382674
 51
98.718795897617341
  0
ARC
  5
143BA
  8
0
 10
2098.514065515868
 20
1617.7356251734141
 30
0.0
 40
49.0
 50
351.28120410238472
 51
8.7187958976153581
  0
ARC
  5
143BB
  8
0
 10
2098.514065515868
 20
1617.7356251734141
 30
0.0
 40
49.0
 50
261.28120410238267
 51
278.71879589761733
  0
LINE
  5
143BC
  8
0
 10
2091.0863962128128
 20
1569.301858762733
 30
0.0
 11
2050.0802991051878
 21
1610.307955870358
 31
0.0
  0
LINE
  5
143BD
  8
0
 10
2146.94783192655
 20
1610.307955870358
 30
0.0
 11
2105.9417348189249
 21
1569.301858762733
 31
0.0
  0
LINE
  5
143BE
  8
0
 10
2105.9417348189249
 20
1666.1693915840949
 30
0.0
 11
2146.94783192655
 21
1625.1632944764699
 31
0.0
  0
LINE
  5
143BF
  8
0
 10
2050.0802991051878
 20
1625.1632944764699
 30
0.0
 11
2091.0863962128128
 21
1666.1693915840949
 31
0.0
  0
ARC
  5
143C0
  8
0
 10
2098.514065515868
 20
1617.7356251734141
 30
0.0
 40
49.0
 50
171.28120410238461
 51
188.71879589761539
  0
CIRCLE
  5
143C1
  8
0
 10
2084.5676355158689
 20
1647.643783173414
 30
0.0
 40
5.5
  0
CIRCLE
  5
143C2
  8
0
 10
2068.6058825158689
 20
1603.7892131734141
 30
0.0
 40
5.5
  0
CIRCLE
  5
143C3
  8
0
 10
2112.4604385158691
 20
1587.8274691734141
 30
0.0
 40
5.5
  0
CIRCLE
  5
143C4
  8
0
 10
2128.4221965158681
 20
1631.6820171734139
 30
0.0
 40
5.5
  0
ARC
  5
143C5
  8
CENTER
 10
2098.5140345158688
 20
1617.7356251734141
 30
0.0
 40
40.0
 50
75.627030000026906
 51
103.3092010000012
  0
ARC
  5
143C6
  8
CENTER
 10
2098.5140345158688
 20
1617.7356251734141
 30
0.0
 40
40.0
 50
346.06831799999992
 51
13.111203000003041
  0
ARC
  5
143C7
  8
CENTER
 10
2098.5140345158688
 20
1617.7356251734141
 30
0.0
 40
40.0
 50
256.34141500000948
 51
284.72988699999621
  0
ARC
  5
143C8
  8
CENTER
 10
2098.5140345158688
 20
1617.7356251734141
 30
0.0
 40
40.0
 50
166.05611499998511
 51
194.18230499999481
  0
CIRCLE
  5
143C9
  8
0
 10
2058.5140345158688
 20
1617.7356251734141
 30
0.0
 40
4.5
  0
CIRCLE
  5
143CA
  8
0
 10
2098.5140345158688
 20
1577.7356291734141
 30
0.0
 40
4.5
  0
CIRCLE
  5
143CB
  8
0
 10
2138.5140345158688
 20
1617.7356251734141
 30
0.0
 40
4.5
  0
CIRCLE
  5
143CC
  8
0
 10
2098.5140345158688
 20
1657.7356251734141
 30
0.0
 40
4.5
  0
CIRCLE
  5
143CD
  8
0
 10
2098.5140345158688
 20
1617.7356251734141
 30
0.0
 40
23.0
  0
ARC
  5
143CE
  8
CENTER
 10
2098.5140345158688
 20
1617.7356251734141
 30
0.0
 40
33.0
 50
278.55813999998003
 51
309.380889999972
  0
ARC
  5
143CF
  8
CENTER
 10
2098.5140345158688
 20
1617.7356251734141
 30
0.0
 40
33.0
 50
98.558134000009105
 51
129.380889999972
  0
ARC
  5
143D0
  8
CENTER
 10
2098.5140345158688
 20
1617.7356251734141
 30
0.0
 40
33.0
 50
8.5581369999955683
 51
39.380887000017218
  0
ARC
  5
143D1
  8
CENTER
 10
2098.5140345158688
 20
1617.7356251734141
 30
0.0
 40
33.0
 50
188.55814000000581
 51
219.38088000002301
  0
LINE
  5
143D2
  8
CENTER
 10
2043.5141265158691
 20
1617.7356251734141
 30
0.0
 11
2153.5140345158688
 21
1617.7356251734141
 31
0.0
  0
LINE
  5
143D3
  8
CENTER
 10
2109.0550965158691
 20
1595.130250173414
 30
0.0
 11
2115.8713625158689
 21
1580.5127171734141
 31
0.0
  0
LINE
  5
143D4
  8
0
 10
2109.009541515868
 20
1588.1293821734139
 30
0.0
 11
2110.9964655158692
 21
1590.9670041734139
 31
0.0
  0
LINE
  5
143D5
  8
0
 10
2113.9244535158691
 20
1584.6879221734141
 30
0.0
 11
2115.911377515868
 21
1587.5255461734141
 31
0.0
  0
LINE
  5
143D6
  8
0
 10
2114.447369515869
 20
1590.6650891734139
 30
0.0
 11
2115.911365515869
 21
1587.5255381734139
 31
0.0
  0
LINE
  5
143D7
  8
0
 10
2109.0095225158689
 20
1588.1293801734139
 30
0.0
 11
2110.4735195158692
 21
1584.9898291734139
 31
0.0
  0
LINE
  5
143D8
  8
0
 10
2110.996482515869
 20
1590.9669901734139
 30
0.0
 11
2114.4474105158688
 21
1590.665072173414
 31
0.0
  0
LINE
  5
143D9
  8
0
 10
2110.4735495158689
 20
1584.989836173414
 30
0.0
 11
2113.9244775158691
 21
1584.6879181734139
 31
0.0
  0
LINE
  5
143DA
  8
CENTER
 10
2087.9729875158691
 20
1640.3409811734141
 30
0.0
 11
2081.1567275158691
 21
1654.9584991734141
 31
0.0
  0
LINE
  5
143DB
  8
0
 10
2131.2598495158691
 20
1629.6950811734141
 30
0.0
 11
2131.5617635158692
 21
1633.1460071734141
 31
0.0
  0
LINE
  5
143DC
  8
0
 10
2125.2826805158688
 20
1630.2180161734141
 30
0.0
 11
2125.5845965158692
 21
1633.6689411734139
 31
0.0
  0
LINE
  5
143DD
  8
0
 10
2128.1202905158689
 20
1628.2311031734141
 30
0.0
 11
2131.259830515869
 21
1629.695094173414
 31
0.0
  0
LINE
  5
143DE
  8
0
 10
2125.5845815158691
 20
1633.668950173414
 30
0.0
 11
2128.7241215158688
 21
1635.1329411734141
 31
0.0
  0
LINE
  5
143DF
  8
0
 10
2131.5617715158692
 20
1633.146010173414
 30
0.0
 11
2128.7241365158688
 21
1635.1329431734141
 31
0.0
  0
LINE
  5
143E0
  8
0
 10
2128.120313515868
 20
1628.2310971734139
 30
0.0
 11
2125.2826785158691
 21
1630.2180311734139
 31
0.0
  0
LINE
  5
143E1
  8
CENTER
 10
2121.1194055158689
 20
1628.276670173414
 30
0.0
 11
2135.736938515869
 21
1635.092938173414
 31
0.0
  0
LINE
  5
143E2
  8
0
 10
2088.0185455158689
 20
1647.3418871734141
 30
0.0
 11
2086.0316175158691
 21
1644.504260173414
 31
0.0
  0
LINE
  5
143E3
  8
0
 10
2083.1036335158692
 20
1650.7833471734141
 30
0.0
 11
2081.1167055158689
 21
1647.945718173414
 31
0.0
  0
LINE
  5
143E4
  8
0
 10
2082.5807145158692
 20
1644.8061431734141
 30
0.0
 11
2081.1167185158688
 21
1647.9456931734139
 31
0.0
  0
LINE
  5
143E5
  8
0
 10
2088.0185615158689
 20
1647.3418531734139
 30
0.0
 11
2086.5545645158691
 21
1650.4814021734139
 31
0.0
  0
LINE
  5
143E6
  8
0
 10
2086.0316715158692
 20
1644.5042241734141
 30
0.0
 11
2082.580743515869
 21
1644.8061421734139
 31
0.0
  0
LINE
  5
143E7
  8
0
 10
2086.5546065158692
 20
1650.4813911734141
 30
0.0
 11
2083.1036775158691
 21
1650.783309173414
 31
0.0
  0
LINE
  5
143E8
  8
CENTER
 10
2075.908676515869
 20
1607.1945611734141
 30
0.0
 11
2061.2911725158692
 21
1600.3783081734141
 31
0.0
  0
LINE
  5
143E9
  8
0
 10
2068.9077985158692
 20
1607.240155173414
 30
0.0
 11
2071.7454325158692
 21
1605.2532221734141
 31
0.0
  0
LINE
  5
143EA
  8
0
 10
2065.4663395158682
 20
1602.325243173414
 30
0.0
 11
2068.303974515869
 21
1600.338311173414
 31
0.0
  0
LINE
  5
143EB
  8
0
 10
2071.4435145158682
 20
1601.8022881734139
 30
0.0
 11
2068.3039645158692
 21
1600.3382921734139
 31
0.0
  0
LINE
  5
143EC
  8
0
 10
2068.9078045158681
 20
1607.240135173414
 30
0.0
 11
2065.7682535158692
 21
1605.7761391734141
 31
0.0
  0
LINE
  5
143ED
  8
0
 10
2071.7454435158688
 20
1605.2532061734139
 30
0.0
 11
2071.4435275158689
 21
1601.802275173414
 31
0.0
  0
LINE
  5
143EE
  8
0
 10
2065.7682765158688
 20
1605.7761411734141
 30
0.0
 11
2065.4663585158692
 21
1602.3252091734139
 31
0.0
  0
LINE
  5
143EF
  8
CENTER
 10
2098.5140345158688
 20
1562.735610173414
 30
0.0
 11
2098.5140345158688
 21
1672.7356171734141
 31
0.0
  0
ARC
  5
143F0
  8
0
 10
2098.514080515869
 20
1617.7356251734141
 30
0.0
 40
19.0
 50
71.525352016448636
 51
108.47464798355129
  0
ARC
  5
143F1
  8
0
 10
2098.514080515869
 20
1617.7356251734141
 30
0.0
 40
19.0
 50
161.52535201657221
 51
198.4746479834277
  0
ARC
  5
143F2
  8
0
 10
2098.514080515869
 20
1617.7356251734141
 30
0.0
 40
19.0
 50
251.52535201644861
 51
288.47464798355139
  0
ARC
  5
143F3
  8
0
 10
2098.514080515869
 20
1617.7356251734141
 30
0.0
 40
19.0
 50
341.52535201657219
 51
18.474647983427769
  0
POLYLINE
  5
143F4
  8
0
 66
     1
 10
0.0
 20
0.0
 30
0.0
  0
VERTEX
  5
1467C
  8
0
 10
2092.4932652356979
 20
1635.756440453584
 30
0.0
  0
VERTEX
  5
1467D
  8
0
 10
2080.493265235697
 20
1623.7564404535849
 30
0.0
  0
SEQEND
  5
1467E
  8
0
  0
POLYLINE
  5
143F5
  8
0
 66
     1
 10
0.0
 20
0.0
 30
0.0
  0
VERTEX
  5
1467F
  8
0
 10
2080.493265235697
 20
1611.7148098932421
 30
0.0
  0
VERTEX
  5
14680
  8
0
 10
2092.4932652356979
 20
1599.7148098932421
 30
0.0
  0
SEQEND
  5
14681
  8
0
  0
POLYLINE
  5
143F6
  8
0
 66
     1
 10
0.0
 20
0.0
 30
0.0
  0
VERTEX
  5
14682
  8
0
 10
2104.5348957960409
 20
1599.7148098932421
 30
0.0
  0
VERTEX
  5
14683
  8
0
 10
2116.5348957960409
 20
1611.714809893241
 30
0.0
  0
SEQEND
  5
14684
  8
0
  0
POLYLINE
  5
143F7
  8
0
 66
     1
 10
0.0
 20
0.0
 30
0.0
  0
VERTEX
  5
14685
  8
0
 10
2116.5348957960409
 20
1623.756440453584
 30
0.0
  0
VERTEX
  5
14686
  8
0
 10
2104.5348957960409
 20
1635.756440453581
 30
0.0
  0
SEQEND
  5
14687
  8
0
  0
ARC
  5
143F8
  8
HIDE
 10
2098.514080515869
 20
1617.7356251734141
 30
0.0
 40
12.5
 50
270.0
 51
180.0
  0
CIRCLE
  5
143F9
  8
0
 10
2098.514080515869
 20
1617.7356251734141
 30
0.0
 40
11.75
  0
LINE
  5
143FA
  8
HIDE
 10
2095.514080515869
 20
1636.497288212709
 30
0.0
 11
2095.514080515869
 21
1629.0961929409141
 31
0.0
  0
LINE
  5
143FB
  8
HIDE
 10
2096.014080515869
 20
1636.5704333752519
 30
0.0
 11
2096.014080515869
 21
1629.2165876766189
 31
0.0
  0
LINE
  5
143FC
  8
HIDE
 10
2101.514080515869
 20
1636.497288212709
 30
0.0
 11
2101.514080515869
 21
1629.0961929409159
 31
0.0
  0
LINE
  5
143FD
  8
HIDE
 10
2101.014080515869
 20
1636.5704333752519
 30
0.0
 11
2101.014080515869
 21
1629.2165876766189
 31
0.0
  0
LINE
  5
143FE
  8
HIDE
 10
2095.514080515869
 20
1636.4403794796069
 30
0.0
 11
2101.514080515869
 21
1636.4403794796069
 31
0.0
  0
LINE
  5
143FF
  8
HIDE
 10
2095.514080515869
 20
1631.4403794796069
 30
0.0
 11
2101.514080515869
 21
1631.4403794796069
 31
0.0
  0
LINE
  5
14400
  8
HIDE
 10
2095.514080515869
 20
1631.4403794796069
 30
0.0
 11
2096.014080515869
 21
1631.1517043450119
 31
0.0
  0
LINE
  5
14401
  8
HIDE
 10
2101.514080515869
 20
1631.4403794796069
 30
0.0
 11
2101.014080515869
 21
1631.1517043450119
 31
0.0
  0
LINE
  5
14402
  8
HIDE
 10
2101.014080515869
 20
1631.1517043450119
 30
0.0
 11
2096.014080515869
 21
1631.1517043450119
 31
0.0
  0
LINE
  5
14403
  8
HIDE
 10
2095.514080515869
 20
1598.9739621341189
 30
0.0
 11
2095.514080515869
 21
1606.375057405912
 31
0.0
  0
LINE
  5
14404
  8
HIDE
 10
2096.014080515869
 20
1598.900816971576
 30
0.0
 11
2096.014080515869
 21
1606.254662670209
 31
0.0
  0
LINE
  5
14405
  8
HIDE
 10
2101.514080515869
 20
1598.9739621341189
 30
0.0
 11
2101.514080515869
 21
1606.375057405912
 31
0.0
  0
LINE
  5
14406
  8
HIDE
 10
2101.014080515869
 20
1598.900816971576
 30
0.0
 11
2101.014080515869
 21
1606.254662670209
 31
0.0
  0
LINE
  5
14407
  8
HIDE
 10
2095.514080515869
 20
1599.030870867221
 30
0.0
 11
2101.514080515869
 21
1599.030870867221
 31
0.0
  0
LINE
  5
14408
  8
HIDE
 10
2095.514080515869
 20
1604.030870867221
 30
0.0
 11
2101.514080515869
 21
1604.030870867221
 31
0.0
  0
LINE
  5
14409
  8
HIDE
 10
2095.514080515869
 20
1604.030870867221
 30
0.0
 11
2096.014080515869
 21
1604.3195460018151
 31
0.0
  0
LINE
  5
1440A
  8
HIDE
 10
2101.514080515869
 20
1604.030870867221
 30
0.0
 11
2101.014080515869
 21
1604.3195460018151
 31
0.0
  0
LINE
  5
1440B
  8
HIDE
 10
2101.014080515869
 20
1604.3195460018151
 30
0.0
 11
2096.014080515869
 21
1604.3195460018151
 31
0.0
  0
CIRCLE
  5
1452D
  8
0
 10
2098.5140345158688
 20
1657.7356251734141
 30
0.0
 40
7.5
  0
CIRCLE
  5
1452E
  8
0
 10
2058.5140345158688
 20
1617.7356251734141
 30
0.0
 40
7.5
  0
CIRCLE
  5
1452F
  8
0
 10
2098.5140345158688
 20
1577.7356251734141
 30
0.0
 40
7.5
  0
CIRCLE
  5
14530
  8
0
 10
2138.5140345158688
 20
1617.7356251734141
 30
0.0
 40
7.5
  0
LINE
  5
1459A
  8
0
 10
2247.4539829540709
 20
1586.2356251734141
 30
0.0
 11
2247.4539829540709
 21
1649.2356251734141
 31
0.0
  0
LINE
  5
14624
  8
HIDE
 10
2190.4540029540722
 20
1650.2356251734141
 30
0.0
 11
2203.4540029540722
 21
1650.2356251734141
 31
0.0
  0
LINE
  5
14625
  8
HIDE
 10
2190.4540029540722
 20
1665.2356251734141
 30
0.0
 11
2203.4540029540722
 21
1665.2356251734141
 31
0.0
  0
ENDSEC
  0
EOF
