  0
SECTION
  2
HEADER
  9
$ACADVER
  1
AC1009
  9
$INSBASE
 10
0.0
 20
0.0
 30
0.0
  9
$EXTMIN
 10
1900.3069617864239
 20
1456.208507502241
 30
0.0
  9
$EXTMAX
 10
4344.9165648949929
 20
3226.1406329889678
 30
0.0
  9
$LIMMIN
 10
0.0
 20
0.0
  9
$LIMMAX
 10
12.0
 20
9.0
  9
$ORTHOMODE
 70
     0
  9
$REGENMODE
 70
     1
  9
$FILLMODE
 70
     1
  9
$QTEXTMODE
 70
     0
  9
$MIRRTEXT
 70
     0
  9
$DRAGMODE
 70
     2
  9
$LTSCALE
 40
5.0
  9
$OSMODE
 70
  2495
  9
$ATTMODE
 70
     1
  9
$TEXTSIZE
 40
2.5
  9
$TRACEWID
 40
0.05
  9
$TEXTSTYLE
  7
BIG
  9
$CLAYER
  8
0
  9
$CELTYPE
  6
BYLAYER
  9
$CECOLOR
 62
   256
  9
$DIMSCALE
 40
1.0
  9
$DIMASZ
 40
3.0
  9
$DIMEXO
 40
1.0
  9
$DIMDLI
 40
0.0
  9
$DIMRND
 40
0.0
  9
$DIMDLE
 40
0.0
  9
$DIMEXE
 40
1.0
  9
$DIMTP
 40
0.0
  9
$DIMTM
 40
0.0
  9
$DIMTXT
 40
3.0
  9
$DIMCEN
 40
0.0
  9
$DIMTSZ
 40
0.0
  9
$DIMTOL
 70
     0
  9
$DIMLIM
 70
     0
  9
$DIMTIH
 70
     0
  9
$DIMTOH
 70
     0
  9
$DIMSE1
 70
     0
  9
$DIMSE2
 70
     0
  9
$DIMTAD
 70
     1
  9
$DIMZIN
 70
     8
  9
$DIMBLK
  1

  9
$DIMASO
 70
     1
  9
$DIMSHO
 70
     1
  9
$DIMPOST
  1

  9
$DIMAPOST
  1

  9
$DIMALT
 70
     0
  9
$DIMALTD
 70
     2
  9
$DIMALTF
 40
25.399999999999999
  9
$DIMLFAC
 40
1.0
  9
$DIMTOFL
 70
     1
  9
$DIMTVP
 40
0.0
  9
$DIMTIX
 70
     1
  9
$DIMSOXD
 70
     0
  9
$DIMSAH
 70
     0
  9
$DIMBLK1
  1

  9
$DIMBLK2
  1

  9
$DIMSTYLE
  2
DUKITEC
  9
$DIMCLRD
 70
     5
  9
$DIMCLRE
 70
     5
  9
$DIMCLRT
 70
     0
  9
$DIMTFAC
 40
1.0
  9
$DIMGAP
 40
1.0
  9
$LUNITS
 70
     2
  9
$LUPREC
 70
     4
  9
$SKETCHINC
 40
0.1
  9
$FILLETRAD
 40
0.2
  9
$AUNITS
 70
     0
  9
$AUPREC
 70
     0
  9
$MENU
  1
.
  9
$ELEVATION
 40
0.0
  9
$PELEVATION
 40
0.0
  9
$THICKNESS
 40
0.0
  9
$LIMCHECK
 70
     0
  9
$BLIPMODE
 70
     0
  9
$CHAMFERA
 40
0.5
  9
$CHAMFERB
 40
0.5
  9
$SKPOLY
 70
     0
  9
$TDCREATE
 40
2454396.751393762
  9
$TDUPDATE
 40
2457375.498281748
  9
$TDINDWG
 40
0.002616169
  9
$TDUSRTIMER
 40
0.002616169
  9
$USRTIMER
 70
     1
  9
$ANGBASE
 50
0.0
  9
$ANGDIR
 70
     0
  9
$PDMODE
 70
     0
  9
$PDSIZE
 40
0.0
  9
$PLINEWID
 40
0.0
  9
$COORDS
 70
     1
  9
$SPLFRAME
 70
     0
  9
$SPLINETYPE
 70
     6
  9
$SPLINESEGS
 70
     8
  9
$ATTDIA
 70
     0
  9
$ATTREQ
 70
     1
  9
$HANDLING
 70
     1
  9
$HANDSEED
  5
145E5
  9
$SURFTAB1
 70
     6
  9
$SURFTAB2
 70
     6
  9
$SURFTYPE
 70
     6
  9
$SURFU
 70
     6
  9
$SURFV
 70
     6
  9
$UCSNAME
  2

  9
$UCSORG
 10
0.0
 20
0.0
 30
0.0
  9
$UCSXDIR
 10
1.0
 20
0.0
 30
0.0
  9
$UCSYDIR
 10
0.0
 20
1.0
 30
0.0
  9
$PUCSNAME
  2

  9
$PUCSORG
 10
0.0
 20
0.0
 30
0.0
  9
$PUCSXDIR
 10
1.0
 20
0.0
 30
0.0
  9
$PUCSYDIR
 10
0.0
 20
1.0
 30
0.0
  9
$USERI1
 70
     0
  9
$USERI2
 70
     0
  9
$USERI3
 70
     0
  9
$USERI4
 70
     0
  9
$USERI5
 70
     0
  9
$USERR1
 40
0.0
  9
$USERR2
 40
0.0
  9
$USERR3
 40
0.0
  9
$USERR4
 40
0.0
  9
$USERR5
 40
0.0
  9
$WORLDVIEW
 70
     1
  9
$SHADEDGE
 70
     3
  9
$SHADEDIF
 70
    70
  9
$TILEMODE
 70
     1
  9
$MAXACTVP
 70
    64
  9
$PLIMCHECK
 70
     0
  9
$PEXTMIN
 10
0.0
 20
0.0
 30
0.0
  9
$PEXTMAX
 10
0.0
 20
0.0
 30
0.0
  9
$PLIMMIN
 10
0.0
 20
0.0
  9
$PLIMMAX
 10
12.0
 20
9.0
  9
$UNITMODE
 70
     0
  9
$VISRETAIN
 70
     1
  9
$PLINEGEN
 70
     0
  9
$PSLTSCALE
 70
     1
  0
ENDSEC
  0
SECTION
  2
TABLES
  0
TABLE
  2
VPORT
 70
     1
  0
VPORT
  2
*ACTIVE
 70
     0
 10
0.0
 20
0.0
 11
1.0
 21
1.0
 12
2090.482440478836
 22
1554.520919261505
 13
0.0
 23
0.0
 14
0.5
 24
0.5
 15
0.5
 25
0.5
 16
0.0
 26
0.0
 36
1.0
 17
0.0
 27
0.0
 37
0.0
 40
371.38669754666938
 41
2.2949367088607588
 42
50.0
 43
0.0
 44
0.0
 50
0.0
 51
0.0
 71
     0
 72
  2000
 73
     1
 74
     3
 75
     0
 76
     0
 77
     0
 78
     0
  0
ENDTAB
  0
TABLE
  2
LTYPE
 70
     4
  0
LTYPE
  2
CONTINUOUS
 70
     0
  3
Solid line
 72
    65
 73
     0
 40
0.0
  0
LTYPE
  2
PHANTOM2
 70
     0
  3
Phantom (.5x) ___ _ _ ___ _ _ ___ _ _ ___ _ _
 72
    65
 73
     6
 40
1.25
 49
0.625
 49
-0.125
 49
0.125
 49
-0.125
 49
0.125
 49
-0.125
  0
LTYPE
  2
CENTER
 70
     0
  3
___ _ ___ _ ___ _ ___ _ ___ _ ___ _ ___ _ ___ _
 72
    65
 73
     4
 40
0.95
 49
0.625
 49
-0.125
 49
0.075
 49
-0.125
  0
LTYPE
  2
DASHED2
 70
     0
  3
Dashed (.5x) _ _ _ _ _ _ _ _ _ _ _ _ _ _ _ _ _
 72
    65
 73
     2
 40
0.375
 49
0.25
 49
-0.125
  0
ENDTAB
  0
TABLE
  2
LAYER
 70
     3
  0
LAYER
  2
0
 70
     0
 62
     7
  6
CONTINUOUS
  0
LAYER
  2
HIDE
 70
     0
 62
     1
  6
DASHED2
  0
LAYER
  2
CENTER
 70
     0
 62
     3
  6
CENTER
  0
ENDTAB
  0
TABLE
  2
STYLE
 70
     2
  0
STYLE
  2
STANDARD
 70
     0
 40
5.0
 41
1.0
 50
0.0
 71
     0
 42
5.0
  3
txt.shx
  4
whgtxt.shx
  0
STYLE
  2
BIG
 70
     0
 40
20.0
 41
1.0
 50
0.0
 71
     0
 42
2.5
  3
txt
  4

  0
ENDTAB
  0
TABLE
  2
VIEW
 70
     0
  0
ENDTAB
  0
TABLE
  2
UCS
 70
     0
  0
ENDTAB
  0
TABLE
  2
APPID
 70
    18
  0
APPID
  2
ACAD
 70
     0
  0
APPID
  2
ACADANNOTATIVE
 70
     0
  0
APPID
  2
ACAD_EXEMPT_FROM_CAD_STANDARDS
 70
     0
  0
APPID
  2
ACAD_DSTYLE_DIMJOGGED_JOGA
 70
     0
  0
APPID
  2
ACAD_PSEXT
 70
     0
  0
APPID
  2
ACAECLAYERSTANDARD
 70
     0
  0
APPID
  2
DCO15
 70
     0
  0
APPID
  2
CONTENTBLOCKICON
 70
     0
  0
APPID
  2
ACAD_DSTYLE_DIMJAG
 70
     0
  0
APPID
  2
ACAD_DSTYLE_DIMBREAK
 70
     0
  0
APPID
  2
ACAD_DSTYLE_DIMTALN
 70
     0
  0
APPID
  2
ACAD_DSTYLE_DIMTEXT_FILL
 70
     0
  0
APPID
  2
ACAD_NAV_VCDISPLAY
 70
     0
  0
APPID
  2
ACDBDYNAMICBLOCKTRUENAME2
 70
     0
  0
APPID
  2
CAXA_DRAFT_DIMSTYLE_ANGTXTVPOS
 70
     0
  0
APPID
  2
CAXA_DRAFT_TXTSTYLE
 70
     0
  0
APPID
  2
ACAD_MLEADERVER
 70
     0
  0
APPID
  2
ACAD_DSTYLE_DIMRADIAL_EXTENSION
 70
     0
  0
ENDTAB
  0
TABLE
  2
DIMSTYLE
 70
     1
  0
DIMSTYLE
  2
DUKITEC
 70
     0
  3

  4

  5

  6

  7

 40
1.0
 41
3.0
 42
1.0
 43
0.0
 44
1.0
 45
0.0
 46
0.0
 47
0.0
 48
0.0
140
3.0
141
0.0
142
0.0
143
25.399999999999999
144
1.0
145
0.0
146
1.0
147
1.0
 71
     0
 72
     0
 73
     0
 74
     0
 75
     0
 76
     0
 77
     1
 78
     8
170
     0
171
     2
172
     1
173
     0
174
     1
175
     0
176
     5
177
     5
178
     0
  0
ENDTAB
  0
ENDSEC
  0
SECTION
  2
BLOCKS
  0
BLOCK
  8
0
  2
$MODEL_SPACE
 70
     0
 10
0.0
 20
0.0
 30
0.0
  3
$MODEL_SPACE
  1

  0
ENDBLK
  5
14392
  8
0
  0
BLOCK
 67
     1
  8
0
  2
$PAPER_SPACE
 70
     0
 10
0.0
 20
0.0
 30
0.0
  3
$PAPER_SPACE
  1

  0
ENDBLK
  5
1438E
 67
     1
  8
0
  0
ENDSEC
  0
SECTION
  2
ENTITIES
  0
TEXT
  5
14050
  8
0
 10
2064.4445106157282
 20
1456.2085075022419
 30
0.0
 40
20.0
  1
FK 40DFD
  7
BIG
  0
LINE
  5
1418D
  8
HIDE
 10
2178.2082824474969
 20
1557.0703164944889
 30
0.0
 11
2178.2082824474969
 21
1606.07031649448
 31
0.0
  0
LINE
  5
141AB
  8
HIDE
 10
2198.2082824474951
 20
1664.0147534944849
 30
0.0
 11
2198.2082824474951
 21
1644.0147534944849
 31
0.0
  0
LINE
  5
141AC
  8
HIDE
 10
2185.2082824474951
 20
1644.0147534944849
 30
0.0
 11
2198.2082824474951
 21
1644.0147534944849
 31
0.0
  0
LINE
  5
141AD
  8
HIDE
 10
2198.2082824474951
 20
1647.0147534944849
 30
0.0
 11
2203.2082824474951
 21
1647.0147534944849
 31
0.0
  0
LINE
  5
141AE
  8
HIDE
 10
2198.2082824474951
 20
1661.0147534944849
 30
0.0
 11
2203.2082824474951
 21
1661.0147534944849
 31
0.0
  0
LINE
  5
141AF
  8
HIDE
 10
2185.2082824474951
 20
1664.0147534944849
 30
0.0
 11
2198.2082824474951
 21
1664.0147534944849
 31
0.0
  0
LINE
  5
141B0
  8
CENTER
 10
2180.2094995203552
 20
1654.014753494484
 30
0.0
 11
2208.2662957608832
 21
1654.014753494484
 31
0.0
  0
LINE
  5
141B1
  8
0
 10
2185.2082824474951
 20
1669.570316494485
 30
0.0
 11
2203.2082824474951
 21
1669.570316494485
 31
0.0
  0
LINE
  5
141B2
  8
0
 10
2167.2082824474951
 20
1644.570316494485
 30
0.0
 11
2185.2082824474951
 21
1644.570316494485
 31
0.0
  0
LINE
  5
141B3
  8
0
 10
2264.2082824474951
 20
1641.570316494485
 30
0.0
 11
2203.2082824474951
 21
1641.570316494485
 31
0.0
  0
LINE
  5
141B4
  8
0
 10
2203.2082824474951
 20
1669.570316494485
 30
0.0
 11
2203.2082824474951
 21
1641.570316494485
 31
0.0
  0
LINE
  5
141B5
  8
0
 10
2185.2082824474951
 20
1669.570316494485
 30
0.0
 11
2185.2082824474951
 21
1493.570316494485
 31
0.0
  0
LINE
  5
141B6
  8
0
 10
2167.2082824474951
 20
1644.570316494485
 30
0.0
 11
2167.208282447501
 21
1518.570316494485
 31
0.0
  0
LINE
  5
141B7
  8
CENTER
 10
2151.185731473809
 20
1581.570316494485
 30
0.0
 11
2271.1229035897959
 21
1581.570316494485
 31
0.0
  0
LINE
  5
141B8
  8
HIDE
 10
2178.2082824474969
 20
1557.570316494485
 30
0.0
 11
2194.2082824474969
 21
1557.570316494485
 31
0.0
  0
LINE
  5
141B9
  8
HIDE
 10
2248.2082824474951
 20
1557.570316494485
 30
0.0
 11
2264.2082824474951
 21
1557.570316494485
 31
0.0
  0
LINE
  5
141BA
  8
HIDE
 10
2178.2082824474969
 20
1605.570316494485
 30
0.0
 11
2194.2082824474969
 21
1605.570316494485
 31
0.0
  0
LINE
  5
141BB
  8
HIDE
 10
2248.2082824474951
 20
1605.570316494485
 30
0.0
 11
2264.2082824474951
 21
1605.570316494485
 31
0.0
  0
LINE
  5
141BC
  8
CENTER
 10
2180.2094995203552
 20
1509.1258794944849
 30
0.0
 11
2208.2662957608832
 21
1509.1258794944849
 31
0.0
  0
LINE
  5
141BD
  8
HIDE
 10
2185.2082824474951
 20
1499.1258794944849
 30
0.0
 11
2198.2082824474951
 21
1499.1258794944849
 31
0.0
  0
LINE
  5
141BE
  8
HIDE
 10
2198.2082824474951
 20
1502.1258794944849
 30
0.0
 11
2203.2082824474951
 21
1502.1258794944849
 31
0.0
  0
LINE
  5
141BF
  8
HIDE
 10
2198.2082824474951
 20
1516.1258794944849
 30
0.0
 11
2203.2082824474951
 21
1516.1258794944849
 31
0.0
  0
LINE
  5
141C0
  8
HIDE
 10
2185.2082824474951
 20
1519.1258794944849
 30
0.0
 11
2198.2082824474951
 21
1519.1258794944849
 31
0.0
  0
LINE
  5
141C1
  8
HIDE
 10
2198.2082824474951
 20
1499.1258794944849
 30
0.0
 11
2198.2082824474951
 21
1519.1258794944849
 31
0.0
  0
LINE
  5
141C2
  8
0
 10
2185.2082824474951
 20
1493.570316494485
 30
0.0
 11
2203.2082824474951
 21
1493.570316494485
 31
0.0
  0
LINE
  5
141C3
  8
0
 10
2167.2082824474951
 20
1518.570316494485
 30
0.0
 11
2185.2082824474951
 21
1518.570316494485
 31
0.0
  0
LINE
  5
141C4
  8
0
 10
2264.2082824474951
 20
1521.570316494485
 30
0.0
 11
2203.2082824474951
 21
1521.570316494485
 31
0.0
  0
LINE
  5
141C5
  8
0
 10
2264.2082824474951
 20
1641.570316494485
 30
0.0
 11
2264.2082824474951
 21
1521.570316494485
 31
0.0
  0
CIRCLE
  5
141C6
  8
HIDE
 10
2221.2082824474969
 20
1551.570316494485
 30
0.0
 40
6.0
  0
CIRCLE
  5
141C7
  8
HIDE
 10
2221.2082824474969
 20
1611.570316494485
 30
0.0
 40
6.0
  0
CIRCLE
  5
141C8
  8
HIDE
 10
2203.2082824474969
 20
1551.570316494485
 30
0.0
 40
6.0
  0
CIRCLE
  5
141C9
  8
HIDE
 10
2203.2082824474969
 20
1611.570316494485
 30
0.0
 40
6.0
  0
ARC
  5
141CA
  8
HIDE
 10
2211.6082824474961
 20
1620.970316494484
 30
0.0
 40
0.6000000000000015
 50
0.0
 51
90.0
  0
ARC
  5
141CB
  8
HIDE
 10
2195.3082824474968
 20
1620.470316494484
 30
0.0
 40
1.1000000000000001
 50
90.0
 51
180.0
  0
ARC
  5
141CC
  8
HIDE
 10
2211.1082824474961
 20
1602.670316494485
 30
0.0
 40
1.1000000000000001
 50
270.0
 51
0.0
  0
ARC
  5
141CD
  8
HIDE
 10
2211.1082824474961
 20
1560.470316494484
 30
0.0
 40
1.1000000000000001
 50
0.0
 51
90.0
  0
ARC
  5
141CE
  8
HIDE
 10
2194.8082824474968
 20
1602.170316494485
 30
0.0
 40
0.6000000000000015
 50
180.0
 51
270.0
  0
ARC
  5
141CF
  8
HIDE
 10
2194.8082824474968
 20
1560.970316494484
 30
0.0
 40
0.6000000000000015
 50
90.0
 51
180.0
  0
ARC
  5
141D0
  8
HIDE
 10
2211.6082824474961
 20
1542.170316494485
 30
0.0
 40
0.6000000000000015
 50
270.0
 51
0.0
  0
ARC
  5
141D1
  8
HIDE
 10
2195.3082824474968
 20
1542.670316494485
 30
0.0
 40
1.1000000000000001
 50
180.0
 51
270.0
  0
LINE
  5
141D2
  8
HIDE
 10
2194.2082824474969
 20
1614.120316494485
 30
0.0
 11
2197.777122350426
 21
1614.120316494485
 31
0.0
  0
LINE
  5
141D3
  8
HIDE
 10
2195.3082824474968
 20
1621.570316494485
 30
0.0
 11
2211.6082824474961
 21
1621.570316494485
 31
0.0
  0
LINE
  5
141D4
  8
HIDE
 10
2212.208282447496
 20
1609.020316494484
 30
0.0
 11
2208.6394425445669
 21
1609.020316494484
 31
0.0
  0
LINE
  5
141D5
  8
HIDE
 10
2205.3551580916992
 20
1617.1730769719929
 30
0.0
 11
2212.208282447496
 21
1617.820316494485
 31
0.0
  0
LINE
  5
141D6
  8
HIDE
 10
2194.2082824474969
 20
1609.020316494484
 30
0.0
 11
2197.777122350426
 21
1609.020316494484
 31
0.0
  0
LINE
  5
141D7
  8
HIDE
 10
2194.2082824474969
 20
1554.120316494485
 30
0.0
 11
2197.777122350426
 21
1554.120316494485
 31
0.0
  0
LINE
  5
141D8
  8
HIDE
 10
2194.8082824474968
 20
1601.570316494485
 30
0.0
 11
2211.1082824474961
 21
1601.570316494485
 31
0.0
  0
LINE
  5
141D9
  8
HIDE
 10
2194.8082824474968
 20
1561.570316494485
 30
0.0
 11
2211.1082824474961
 21
1561.570316494485
 31
0.0
  0
LINE
  5
141DA
  8
HIDE
 10
2212.208282447496
 20
1554.120316494485
 30
0.0
 11
2208.6394425445669
 21
1554.120316494485
 31
0.0
  0
LINE
  5
141DB
  8
HIDE
 10
2194.2082824474969
 20
1549.020316494484
 30
0.0
 11
2197.777122350426
 21
1549.020316494484
 31
0.0
  0
LINE
  5
141DC
  8
HIDE
 10
2211.6082824474961
 20
1541.570316494485
 30
0.0
 11
2195.3082824474968
 21
1541.570316494485
 31
0.0
  0
LINE
  5
141DD
  8
HIDE
 10
2205.3551580916992
 20
1545.967556016976
 30
0.0
 11
2212.208282447496
 21
1545.320316494485
 31
0.0
  0
LINE
  5
141DE
  8
HIDE
 10
2194.2082824474969
 20
1542.670316494485
 30
0.0
 11
2194.2082824474969
 21
1620.470316494484
 31
0.0
  0
LINE
  5
141DF
  8
HIDE
 10
2212.208282447496
 20
1620.970316494484
 30
0.0
 11
2212.208282447496
 21
1542.170316494485
 31
0.0
  0
LINE
  5
141E0
  8
HIDE
 10
2212.0784921023019
 20
1617.8080585174389
 30
0.0
 11
2212.208282447496
 21
1617.9378488626321
 31
0.0
  0
ARC
  5
141E1
  8
HIDE
 10
2212.8082824474968
 20
1542.170316494485
 30
0.0
 40
0.6000000000000015
 50
180.0
 51
270.0
  0
ARC
  5
141E2
  8
HIDE
 10
2229.1082824474961
 20
1542.670316494485
 30
0.0
 40
1.1000000000000001
 50
270.0
 51
0.0
  0
ARC
  5
141E3
  8
HIDE
 10
2213.3082824474968
 20
1560.4703164944849
 30
0.0
 40
1.1000000000000001
 50
90.0
 51
180.0
  0
ARC
  5
141E4
  8
HIDE
 10
2213.3082824474968
 20
1602.670316494485
 30
0.0
 40
1.1000000000000001
 50
180.0
 51
270.0
  0
ARC
  5
141E5
  8
HIDE
 10
2229.6082824474961
 20
1560.970316494484
 30
0.0
 40
0.6
 50
0.0
 51
90.0
  0
ARC
  5
141E6
  8
HIDE
 10
2229.6082824474961
 20
1602.170316494485
 30
0.0
 40
0.6000000000000015
 50
270.0
 51
0.0
  0
ARC
  5
141E7
  8
HIDE
 10
2212.8082824474968
 20
1620.9703164944849
 30
0.0
 40
0.6000000000000015
 50
90.0
 51
180.0
  0
ARC
  5
141E8
  8
HIDE
 10
2229.1082824474961
 20
1620.470316494484
 30
0.0
 40
1.1000000000000001
 50
0.0
 51
90.0
  0
LINE
  5
141E9
  8
HIDE
 10
2230.2082824474969
 20
1549.020316494484
 30
0.0
 11
2226.639442544566
 21
1549.020316494484
 31
0.0
  0
LINE
  5
141EA
  8
HIDE
 10
2229.1082824474961
 20
1541.570316494485
 30
0.0
 11
2212.8082824474968
 21
1541.570316494485
 31
0.0
  0
LINE
  5
141EB
  8
HIDE
 10
2212.2082824474951
 20
1554.120316494485
 30
0.0
 11
2215.777122350426
 21
1554.120316494485
 31
0.0
  0
LINE
  5
141EC
  8
HIDE
 10
2219.0614068032951
 20
1545.967556016976
 30
0.0
 11
2212.2082824474951
 21
1545.320316494485
 31
0.0
  0
LINE
  5
141ED
  8
HIDE
 10
2230.2082824474969
 20
1554.120316494485
 30
0.0
 11
2226.639442544566
 21
1554.120316494485
 31
0.0
  0
LINE
  5
141EE
  8
HIDE
 10
2230.2082824474969
 20
1609.020316494484
 30
0.0
 11
2226.6394425445651
 21
1609.020316494484
 31
0.0
  0
LINE
  5
141EF
  8
HIDE
 10
2229.6082824474961
 20
1561.570316494485
 30
0.0
 11
2213.3082824474968
 21
1561.570316494485
 31
0.0
  0
LINE
  5
141F0
  8
HIDE
 10
2229.6082824474961
 20
1601.570316494485
 30
0.0
 11
2213.3082824474968
 21
1601.570316494485
 31
0.0
  0
LINE
  5
141F1
  8
HIDE
 10
2212.208282447496
 20
1609.020316494484
 30
0.0
 11
2215.777122350426
 21
1609.020316494484
 31
0.0
  0
LINE
  5
141F2
  8
HIDE
 10
2230.2082824474969
 20
1614.120316494485
 30
0.0
 11
2226.6394425445651
 21
1614.120316494485
 31
0.0
  0
LINE
  5
141F3
  8
HIDE
 10
2212.8082824474968
 20
1621.570316494485
 30
0.0
 11
2229.1082824474961
 21
1621.570316494485
 31
0.0
  0
LINE
  5
141F4
  8
HIDE
 10
2219.0614068032951
 20
1617.1730769719929
 30
0.0
 11
2212.208282447496
 21
1617.820316494485
 31
0.0
  0
LINE
  5
141F5
  8
HIDE
 10
2230.2082824474969
 20
1620.470316494484
 30
0.0
 11
2230.2082824474969
 21
1542.670316494485
 31
0.0
  0
LINE
  5
141F6
  8
HIDE
 10
2212.208282447496
 20
1617.9378488626321
 30
0.0
 11
2212.338072792691
 21
1617.8080585174389
 31
0.0
  0
CIRCLE
  5
141F7
  8
HIDE
 10
2239.2082824474951
 20
1551.570316494485
 30
0.0
 40
6.0
  0
CIRCLE
  5
141F8
  8
HIDE
 10
2239.2082824474951
 20
1611.570316494485
 30
0.0
 40
6.0
  0
LINE
  5
141F9
  8
HIDE
 10
2230.0784921023019
 20
1617.8080585174389
 30
0.0
 11
2230.2082824474951
 21
1617.9378488626321
 31
0.0
  0
ARC
  5
141FA
  8
HIDE
 10
2230.808282447495
 20
1542.170316494485
 30
0.0
 40
0.6000000000000015
 50
180.0
 51
270.0
  0
ARC
  5
141FB
  8
HIDE
 10
2247.1082824474961
 20
1542.670316494485
 30
0.0
 40
1.1000000000000001
 50
270.0
 51
0.0
  0
ARC
  5
141FC
  8
HIDE
 10
2231.308282447495
 20
1560.4703164944849
 30
0.0
 40
1.1000000000000001
 50
90.0
 51
180.0
  0
ARC
  5
141FD
  8
HIDE
 10
2231.3082824474968
 20
1602.670316494485
 30
0.0
 40
1.1000000000000001
 50
180.0
 51
270.0
  0
ARC
  5
141FE
  8
HIDE
 10
2247.6082824474961
 20
1560.970316494484
 30
0.0
 40
0.6
 50
0.0
 51
90.0
  0
ARC
  5
141FF
  8
HIDE
 10
2247.6082824474961
 20
1602.170316494485
 30
0.0
 40
0.6000000000000015
 50
270.0
 51
0.0
  0
ARC
  5
14200
  8
HIDE
 10
2230.8082824474968
 20
1620.9703164944849
 30
0.0
 40
0.6000000000000015
 50
90.0
 51
180.0
  0
ARC
  5
14201
  8
HIDE
 10
2247.1082824474961
 20
1620.470316494484
 30
0.0
 40
1.1000000000000001
 50
0.0
 51
90.0
  0
LINE
  5
14202
  8
HIDE
 10
2248.2082824474951
 20
1549.020316494484
 30
0.0
 11
2244.6394425445651
 21
1549.020316494484
 31
0.0
  0
LINE
  5
14203
  8
HIDE
 10
2247.1082824474961
 20
1541.570316494485
 30
0.0
 11
2230.808282447495
 21
1541.570316494485
 31
0.0
  0
LINE
  5
14204
  8
HIDE
 10
2230.2082824474951
 20
1554.120316494485
 30
0.0
 11
2233.777122350426
 21
1554.120316494485
 31
0.0
  0
LINE
  5
14205
  8
HIDE
 10
2237.0614068032919
 20
1545.967556016976
 30
0.0
 11
2230.2082824474951
 21
1545.320316494485
 31
0.0
  0
LINE
  5
14206
  8
HIDE
 10
2248.2082824474951
 20
1554.120316494485
 30
0.0
 11
2244.6394425445651
 21
1554.120316494485
 31
0.0
  0
LINE
  5
14207
  8
HIDE
 10
2248.2082824474951
 20
1609.020316494484
 30
0.0
 11
2244.6394425445628
 21
1609.020316494484
 31
0.0
  0
LINE
  5
14208
  8
HIDE
 10
2247.6082824474961
 20
1561.570316494485
 30
0.0
 11
2231.308282447495
 21
1561.570316494485
 31
0.0
  0
LINE
  5
14209
  8
HIDE
 10
2247.6082824474961
 20
1601.570316494485
 30
0.0
 11
2231.3082824474968
 21
1601.570316494485
 31
0.0
  0
LINE
  5
1420A
  8
HIDE
 10
2230.2082824474951
 20
1609.020316494484
 30
0.0
 11
2233.777122350426
 21
1609.020316494484
 31
0.0
  0
LINE
  5
1420B
  8
HIDE
 10
2248.2082824474951
 20
1614.120316494485
 30
0.0
 11
2244.6394425445628
 21
1614.120316494485
 31
0.0
  0
LINE
  5
1420C
  8
HIDE
 10
2230.8082824474968
 20
1621.570316494485
 30
0.0
 11
2247.1082824474961
 21
1621.570316494485
 31
0.0
  0
LINE
  5
1420D
  8
HIDE
 10
2237.0614068032919
 20
1617.1730769719929
 30
0.0
 11
2230.2082824474951
 21
1617.820316494485
 31
0.0
  0
LINE
  5
1420E
  8
HIDE
 10
2248.2082824474951
 20
1620.470316494484
 30
0.0
 11
2248.2082824474951
 21
1542.670316494485
 31
0.0
  0
LINE
  5
1420F
  8
HIDE
 10
2230.2082824474951
 20
1617.9378488626321
 30
0.0
 11
2230.3380727926892
 21
1617.8080585174389
 31
0.0
  0
LINE
  5
14210
  8
HIDE
 10
2248.2082824474951
 20
1601.570316494485
 30
0.0
 11
2264.2082824474951
 21
1601.570316494485
 31
0.0
  0
LINE
  5
14211
  8
HIDE
 10
2248.2082824474951
 20
1561.5703164944839
 30
0.0
 11
2264.2082824474951
 21
1561.570316494485
 31
0.0
  0
LINE
  5
14212
  8
HIDE
 10
2178.2082824474969
 20
1601.570316494485
 30
0.0
 11
2194.2082824474969
 21
1601.570316494485
 31
0.0
  0
LINE
  5
14213
  8
HIDE
 10
2178.2082824474969
 20
1561.5703164944839
 30
0.0
 11
2194.2082824474969
 21
1561.570316494485
 31
0.0
  0
LINE
  5
14214
  8
0
 10
2203.2082824474951
 20
1521.570316494485
 30
0.0
 11
2203.2082824474951
 21
1493.570316494485
 31
0.0
  0
ARC
  5
14247
  8
0
 10
2038.8121745016881
 20
1581.570316494485
 30
0.0
 40
75.0
 50
324.42138499997083
 51
324.48628199998677
  0
CIRCLE
  5
14248
  8
0
 10
2091.845183501689
 20
1528.537307494485
 30
0.0
 40
7.0
  0
ARC
  5
14249
  8
CENTER
 10
2038.8121745016881
 20
1581.570316494485
 30
0.0
 40
75.0
 50
305.45916899997462
 51
324.42138499997083
  0
LINE
  5
1424A
  8
CENTER
 10
2070.6443565016898
 20
1563.1919974944849
 30
0.0
 11
2091.5443415016889
 21
1551.125385494485
 31
0.0
  0
ARC
  5
1424B
  8
CENTER
 10
2038.8121745016881
 20
1581.570316494485
 30
0.0
 40
49.0
 50
316.03959599999507
 51
344.50192800002031
  0
LINE
  5
1424C
  8
CENTER
 10
2082.9422105016879
 20
1537.440280494485
 30
0.0
 11
2101.9535715016891
 21
1518.4289194944849
 31
0.0
  0
CIRCLE
  5
1424D
  8
0
 10
2091.845183501689
 20
1528.537307494485
 30
0.0
 40
10.0
  0
CIRCLE
  5
1424E
  8
0
 10
1985.779165501689
 20
1528.537307494485
 30
0.0
 40
7.0
  0
ARC
  5
1424F
  8
CENTER
 10
2038.8121745016881
 20
1581.570316494485
 30
0.0
 40
75.0
 50
216.10468599998759
 51
235.48657899998
  0
LINE
  5
14250
  8
CENTER
 10
2006.384100501688
 20
1562.8479594944849
 30
0.0
 11
1986.0749245016891
 21
1551.1224504944851
 31
0.0
  0
ARC
  5
14251
  8
CENTER
 10
2038.8121745016881
 20
1581.570316494485
 30
0.0
 40
49.0
 50
194.7326960000037
 51
224.4949260000117
  0
LINE
  5
14252
  8
CENTER
 10
1995.7472895016881
 20
1538.505431494485
 30
0.0
 11
1974.359579501689
 21
1517.1177214944851
 31
0.0
  0
CIRCLE
  5
14253
  8
0
 10
1985.779165501689
 20
1528.537307494485
 30
0.0
 40
10.0
  0
LINE
  5
14254
  8
0
 10
1974.812174501687
 20
1521.1716414944849
 30
0.0
 11
1974.812174501687
 21
1581.570316494485
 31
0.0
  0
LINE
  5
14255
  8
0
 10
2102.812174501687
 20
1521.1716414944849
 30
0.0
 11
2102.812174501687
 21
1581.570316494485
 31
0.0
  0
ARC
  5
14256
  8
CENTER
 10
2038.8121745016881
 20
1581.570316494485
 30
0.0
 40
49.0
 50
15.498071999979731
 51
43.960404000004999
  0
ARC
  5
14257
  8
CENTER
 10
2038.8121745016881
 20
1581.570316494485
 30
0.0
 40
49.0
 50
73.787716000017625
 51
104.34297299999579
  0
ARC
  5
14258
  8
CENTER
 10
2038.8121745016881
 20
1581.570316494485
 30
0.0
 40
49.0
 50
135.5050739999883
 51
165.2673039999963
  0
LINE
  5
14259
  8
CENTER
 10
2006.384100501688
 20
1600.2926734944849
 30
0.0
 11
1986.0749245016891
 21
1612.018182494485
 31
0.0
  0
LINE
  5
1425A
  8
CENTER
 10
2070.6443565016898
 20
1599.948635494485
 30
0.0
 11
2091.5443415016889
 21
1612.015247494485
 31
0.0
  0
CIRCLE
  5
1425B
  8
0
 10
2038.8121745016881
 20
1581.570316494485
 30
0.0
 40
36.0
  0
CIRCLE
  5
1425C
  8
0
 10
2038.8121745016881
 20
1581.570316494485
 30
0.0
 40
63.0
  0
ARC
  5
1425D
  8
0
 10
2038.8121745016881
 20
1581.570316494485
 30
0.0
 40
75.0
 50
35.513718000013192
 51
35.578615000029281
  0
ARC
  5
1425E
  8
CENTER
 10
2038.8121745016881
 20
1581.570316494485
 30
0.0
 40
75.0
 50
35.578615000029281
 51
54.540831000025342
  0
ARC
  5
1425F
  8
CENTER
 10
2038.8121745016881
 20
1581.570316494485
 30
0.0
 40
75.0
 50
65.229253999998463
 51
84.487400000006417
  0
ARC
  5
14260
  8
CENTER
 10
2038.8121745016881
 20
1581.570316494485
 30
0.0
 40
75.0
 50
95.362270000007044
 51
114.9121840000244
  0
ARC
  5
14261
  8
CENTER
 10
2038.8121745016881
 20
1581.570316494485
 30
0.0
 40
75.0
 50
124.51342100002
 51
143.89531400001241
  0
CIRCLE
  5
14262
  8
0
 10
1985.779165501689
 20
1634.603325494485
 30
0.0
 40
7.0
  0
CIRCLE
  5
14263
  8
0
 10
1985.779165501689
 20
1634.603325494485
 30
0.0
 40
10.0
  0
CIRCLE
  5
14264
  8
0
 10
2019.400746501688
 20
1654.014753494484
 30
0.0
 40
7.0
  0
CIRCLE
  5
14265
  8
0
 10
2019.400746501688
 20
1654.014753494484
 30
0.0
 40
10.0
  0
CIRCLE
  5
14266
  8
0
 10
2058.2236025016891
 20
1654.014753494484
 30
0.0
 40
7.0
  0
CIRCLE
  5
14267
  8
0
 10
2058.2236025016891
 20
1654.014753494484
 30
0.0
 40
10.0
  0
CIRCLE
  5
14268
  8
0
 10
2091.845183501689
 20
1634.603325494485
 30
0.0
 40
10.0
  0
CIRCLE
  5
14269
  8
0
 10
2091.845183501689
 20
1634.603325494485
 30
0.0
 40
7.0
  0
LINE
  5
1426A
  8
CENTER
 10
2082.9422105016879
 20
1625.7003524944851
 30
0.0
 11
2101.9535715016891
 21
1644.7117134944849
 31
0.0
  0
LINE
  5
1426B
  8
CENTER
 10
2054.9173745016901
 20
1641.6757414944841
 30
0.0
 11
2062.186296501689
 21
1668.8037284944839
 31
0.0
  0
LINE
  5
1426C
  8
CENTER
 10
1995.7472895016881
 20
1624.6352014944839
 30
0.0
 11
1974.359579501689
 21
1646.022911494485
 31
0.0
  0
LINE
  5
1426D
  8
CENTER
 10
2023.1350795016899
 20
1640.0780314944841
 30
0.0
 11
2015.3424645016889
 21
1669.1604674944849
 31
0.0
  0
ARC
  5
1426E
  8
0
 10
2038.8121745016881
 20
1581.570316494485
 30
0.0
 40
88.0
 50
43.34175800003846
 51
136.65824199996149
  0
LINE
  5
1426F
  8
0
 10
2102.812174501687
 20
1641.968991494485
 30
0.0
 11
2102.812174501687
 21
1581.570316494485
 31
0.0
  0
LINE
  5
14270
  8
0
 10
1974.812174501687
 20
1641.968991494485
 30
0.0
 11
1974.812174501687
 21
1581.570316494485
 31
0.0
  0
LINE
  5
14271
  8
CENTER
 10
1969.1765815016879
 20
1581.570316494485
 30
0.0
 11
2109.2564645016892
 21
1581.570316494485
 31
0.0
  0
LINE
  5
14272
  8
CENTER
 10
2038.8121745016881
 20
1488.921589494485
 30
0.0
 11
2038.8121745016881
 21
1673.845532494485
 31
0.0
  0
CIRCLE
  5
14273
  8
0
 10
2058.2236025016891
 20
1509.1258794944849
 30
0.0
 40
7.0
  0
LINE
  5
14274
  8
CENTER
 10
2054.9173745016901
 20
1521.4648914944851
 30
0.0
 11
2062.186296501689
 21
1494.336904494485
 31
0.0
  0
CIRCLE
  5
14275
  8
0
 10
2058.2236025016891
 20
1509.1258794944849
 30
0.0
 40
10.0
  0
ARC
  5
14276
  8
0
 10
2038.8121745016881
 20
1581.570316494485
 30
0.0
 40
88.0
 50
223.3417580000384
 51
316.65824199996149
  0
ARC
  5
14277
  8
CENTER
 10
2038.8121745016881
 20
1581.570316494485
 30
0.0
 40
75.0
 50
275.5125999999936
 51
294.77074600000151
  0
ARC
  5
14278
  8
CENTER
 10
2038.8121745016881
 20
1581.570316494485
 30
0.0
 40
49.0
 50
255.65702700000409
 51
286.21228399998239
  0
CIRCLE
  5
14279
  8
0
 10
2019.400746501688
 20
1509.1258794944849
 30
0.0
 40
7.0
  0
ARC
  5
1427A
  8
CENTER
 10
2038.8121745016881
 20
1581.570316494485
 30
0.0
 40
75.0
 50
245.08781599997559
 51
264.63772999999293
  0
LINE
  5
1427B
  8
CENTER
 10
2023.1350795016899
 20
1523.0626014944839
 30
0.0
 11
2015.3424645016889
 21
1493.9801654944849
 31
0.0
  0
CIRCLE
  5
1427C
  8
0
 10
2019.400746501688
 20
1509.1258794944849
 30
0.0
 40
10.0
  0
LINE
  5
1429E
  8
0
  6
CONTINUOUS
 62
     7
 10
2076.2285725016891
 20
1604.7249854944851
 30
0.0
 11
2079.9025575016881
 21
1601.051001494485
 31
0.0
  0
LINE
  5
1429F
  8
0
  6
CONTINUOUS
 62
     7
 10
2076.2285225016881
 20
1604.725023494484
 30
0.0
 11
2077.5734825016889
 21
1609.744490494485
 31
0.0
  0
LINE
  5
142A0
  8
0
  6
CONTINUOUS
 62
     7
 10
2077.573646501688
 20
1609.744516494485
 30
0.0
 11
2082.5924065016889
 21
1611.089289494485
 31
0.0
  0
LINE
  5
142A1
  8
0
  6
CONTINUOUS
 62
     7
 10
2082.5921895016891
 20
1611.0892924944851
 30
0.0
 11
2086.2668645016888
 21
1607.4146174944849
 31
0.0
  0
LINE
  5
142A2
  8
0
  6
CONTINUOUS
 62
     7
 10
2084.921956501687
 20
1602.3960364944851
 30
0.0
 11
2086.2667135016882
 21
1607.414736494484
 31
0.0
  0
CIRCLE
  5
142A3
  8
0
  6
CONTINUOUS
 62
     7
 10
2081.2475315016882
 20
1606.0701964944849
 30
0.0
 40
9.0
  0
LINE
  5
142A4
  8
0
  6
CONTINUOUS
 62
     7
 10
2079.9025495016881
 20
1601.0510584944841
 30
0.0
 11
2084.9217775016891
 21
1602.3959564944851
 31
0.0
  0
LINE
  5
142A5
  8
0
  6
CONTINUOUS
 62
     7
 10
2033.793327501689
 20
1629.2249854944851
 30
0.0
 11
2037.4673125016891
 21
1625.551001494485
 31
0.0
  0
LINE
  5
142A6
  8
0
  6
CONTINUOUS
 62
     7
 10
2033.79327750169
 20
1629.225023494485
 30
0.0
 11
2035.1382375016881
 21
1634.244490494485
 31
0.0
  0
LINE
  5
142A7
  8
0
  6
CONTINUOUS
 62
     7
 10
2035.1384015016899
 20
1634.244516494485
 30
0.0
 11
2040.1571615016881
 21
1635.5892894944841
 31
0.0
  0
LINE
  5
142A8
  8
0
  6
CONTINUOUS
 62
     7
 10
2040.156944501688
 20
1635.5892924944851
 30
0.0
 11
2043.8316195016889
 21
1631.9146174944849
 31
0.0
  0
LINE
  5
142A9
  8
0
  6
CONTINUOUS
 62
     7
 10
2042.486711501688
 20
1626.8960364944851
 30
0.0
 11
2043.831468501689
 21
1631.9147364944849
 31
0.0
  0
CIRCLE
  5
142AA
  8
0
  6
CONTINUOUS
 62
     7
 10
2038.812286501689
 20
1630.5701964944849
 30
0.0
 40
9.0
  0
LINE
  5
142AB
  8
0
  6
CONTINUOUS
 62
     7
 10
2037.4673045016889
 20
1625.551058494485
 30
0.0
 11
2042.4865325016881
 21
1626.8959564944839
 31
0.0
  0
LINE
  5
142AC
  8
0
  6
CONTINUOUS
 62
     7
 10
1991.358082501687
 20
1604.7249854944851
 30
0.0
 11
1995.032067501689
 21
1601.051001494485
 31
0.0
  0
LINE
  5
142AD
  8
0
  6
CONTINUOUS
 62
     7
 10
1991.358032501689
 20
1604.725023494484
 30
0.0
 11
1992.7029925016891
 21
1609.744490494485
 31
0.0
  0
LINE
  5
142AE
  8
0
  6
CONTINUOUS
 62
     7
 10
1992.703156501688
 20
1609.744516494485
 30
0.0
 11
1997.7219165016891
 21
1611.089289494485
 31
0.0
  0
LINE
  5
142AF
  8
0
  6
CONTINUOUS
 62
     7
 10
1997.7216995016879
 20
1611.0892924944851
 30
0.0
 11
2001.396374501689
 21
1607.4146174944849
 31
0.0
  0
LINE
  5
142B0
  8
0
  6
CONTINUOUS
 62
     7
 10
2000.051466501689
 20
1602.3960364944851
 30
0.0
 11
2001.3962235016891
 21
1607.414736494484
 31
0.0
  0
CIRCLE
  5
142B1
  8
0
  6
CONTINUOUS
 62
     7
 10
1996.3770415016879
 20
1606.0701964944849
 30
0.0
 40
9.0
  0
LINE
  5
142B2
  8
0
  6
CONTINUOUS
 62
     7
 10
1995.032059501689
 20
1601.0510584944841
 30
0.0
 11
2000.0512875016891
 21
1602.3959564944851
 31
0.0
  0
LINE
  5
142B3
  8
0
  6
CONTINUOUS
 62
     7
 10
2033.793327501689
 20
1533.915647494485
 30
0.0
 11
2037.4673125016891
 21
1537.5896314944839
 31
0.0
  0
LINE
  5
142B4
  8
0
  6
CONTINUOUS
 62
     7
 10
2033.79327750169
 20
1533.9156094944849
 30
0.0
 11
2035.1382375016881
 21
1528.896142494485
 31
0.0
  0
LINE
  5
142B5
  8
0
  6
CONTINUOUS
 62
     7
 10
2035.1384015016899
 20
1528.896116494484
 30
0.0
 11
2040.1571615016881
 21
1527.5513434944851
 31
0.0
  0
LINE
  5
142B6
  8
0
  6
CONTINUOUS
 62
     7
 10
2040.156944501688
 20
1527.551340494485
 30
0.0
 11
2043.8316195016889
 21
1531.226015494485
 31
0.0
  0
LINE
  5
142B7
  8
0
  6
CONTINUOUS
 62
     7
 10
2042.486711501688
 20
1536.244596494485
 30
0.0
 11
2043.831468501689
 21
1531.2258964944849
 31
0.0
  0
CIRCLE
  5
142B8
  8
0
  6
CONTINUOUS
 62
     7
 10
2038.812286501689
 20
1532.5704364944841
 30
0.0
 40
9.0
  0
LINE
  5
142B9
  8
0
  6
CONTINUOUS
 62
     7
 10
2037.4673045016889
 20
1537.5895744944851
 30
0.0
 11
2042.4865325016881
 21
1536.244676494485
 31
0.0
  0
LINE
  5
142BA
  8
0
  6
CONTINUOUS
 62
     7
 10
1991.358082501687
 20
1558.4156474944839
 30
0.0
 11
1995.032067501689
 21
1562.089631494485
 31
0.0
  0
LINE
  5
142BB
  8
0
  6
CONTINUOUS
 62
     7
 10
1991.358032501689
 20
1558.4156094944849
 30
0.0
 11
1992.7029925016891
 21
1553.396142494485
 31
0.0
  0
LINE
  5
142BC
  8
0
  6
CONTINUOUS
 62
     7
 10
1992.703156501688
 20
1553.396116494484
 30
0.0
 11
1997.7219165016891
 21
1552.0513434944851
 31
0.0
  0
LINE
  5
142BD
  8
0
  6
CONTINUOUS
 62
     7
 10
1997.7216995016879
 20
1552.051340494485
 30
0.0
 11
2001.396374501689
 21
1555.726015494485
 31
0.0
  0
LINE
  5
142BE
  8
0
  6
CONTINUOUS
 62
     7
 10
2000.051466501689
 20
1560.744596494485
 30
0.0
 11
2001.3962235016891
 21
1555.725896494484
 31
0.0
  0
CIRCLE
  5
142BF
  8
0
  6
CONTINUOUS
 62
     7
 10
1996.3770415016879
 20
1557.0704364944841
 30
0.0
 40
9.0
  0
LINE
  5
142C0
  8
0
  6
CONTINUOUS
 62
     7
 10
1995.032059501689
 20
1562.0895744944851
 30
0.0
 11
2000.0512875016891
 21
1560.744676494485
 31
0.0
  0
LINE
  5
142C1
  8
0
  6
CONTINUOUS
 62
     7
 10
2076.2285725016891
 20
1558.4156474944839
 30
0.0
 11
2079.9025575016881
 21
1562.089631494485
 31
0.0
  0
LINE
  5
142C2
  8
0
  6
CONTINUOUS
 62
     7
 10
2076.2285225016881
 20
1558.4156094944849
 30
0.0
 11
2077.5734825016889
 21
1553.396142494485
 31
0.0
  0
LINE
  5
142C3
  8
0
  6
CONTINUOUS
 62
     7
 10
2077.573646501688
 20
1553.396116494484
 30
0.0
 11
2082.5924065016889
 21
1552.0513434944851
 31
0.0
  0
LINE
  5
142C4
  8
0
  6
CONTINUOUS
 62
     7
 10
2082.5921895016891
 20
1552.051340494485
 30
0.0
 11
2086.2668645016888
 21
1555.726015494485
 31
0.0
  0
LINE
  5
142C5
  8
0
  6
CONTINUOUS
 62
     7
 10
2084.921956501687
 20
1560.744596494485
 30
0.0
 11
2086.2667135016882
 21
1555.725896494484
 31
0.0
  0
CIRCLE
  5
142C6
  8
0
  6
CONTINUOUS
 62
     7
 10
2081.2475315016882
 20
1557.0704364944841
 30
0.0
 40
9.0
  0
LINE
  5
142C7
  8
0
  6
CONTINUOUS
 62
     7
 10
2079.9025495016881
 20
1562.0895744944851
 30
0.0
 11
2084.9217775016891
 21
1560.744676494485
 31
0.0
  0
LINE
  5
142C9
  8
HIDE
 10
4334.4165648949929
 20
3226.1406329889678
 30
0.0
 11
4344.9165648949929
 21
3226.1406329889678
 31
0.0
  0
LINE
  5
1446B
  8
CENTER
 10
2154.2082824474969
 20
1581.570316494483
 30
0.0
 11
2181.2082824474969
 21
1581.570316494483
 31
0.0
  0
LINE
  5
1446C
  8
0
 10
2155.208282447496
 20
1550.070316494483
 30
0.0
 11
2155.2082824474892
 21
1613.070316494483
 31
0.0
  0
LINE
  5
1446D
  8
0
 10
2178.2082824474969
 20
1557.0703164944889
 30
0.0
 11
2178.2082824474969
 21
1606.07031649448
 31
0.0
  0
LINE
  5
1446E
  8
0
 10
2177.7082824474969
 20
1550.070316494483
 30
0.0
 11
2177.7082824474969
 21
1613.070316494483
 31
0.0
  0
LINE
  5
1446F
  8
0
 10
2177.7082824474892
 20
1606.570316494496
 30
0.0
 11
2178.2082824474892
 21
1606.070316494483
 31
0.0
  0
LINE
  5
14470
  8
HIDE
 10
2178.2082824474969
 20
1601.570316494483
 30
0.0
 11
2155.2082824475042
 21
1601.570316494483
 31
0.0
  0
LINE
  5
14471
  8
HIDE
 10
2178.2082824474969
 20
1600.8203164944821
 30
0.0
 11
2155.2082824475042
 21
1600.820316494485
 31
0.0
  0
LINE
  5
14472
  8
CENTER
 10
2162.2082824474969
 20
1614.0226628744681
 30
0.0
 11
2162.2082824474969
 21
1601.570316494483
 31
0.0
  0
LINE
  5
14473
  8
HIDE
 10
2166.2082824475042
 20
1613.070316494483
 30
0.0
 11
2166.2082824475178
 21
1601.5703164944821
 31
0.0
  0
LINE
  5
14474
  8
HIDE
 10
2158.2082824475042
 20
1613.070316494483
 30
0.0
 11
2158.2082824475042
 21
1601.570316494483
 31
0.0
  0
LINE
  5
14475
  8
HIDE
 10
2165.6082824474979
 20
1613.070316494483
 30
0.0
 11
2165.6082824475129
 21
1601.570316494483
 31
0.0
  0
LINE
  5
14476
  8
HIDE
 10
2158.8082824475018
 20
1613.070316494483
 30
0.0
 11
2158.808282447495
 21
1601.570316494483
 31
0.0
  0
LINE
  5
14477
  8
HIDE
 10
2165.6082824474979
 20
1602.5703164944839
 30
0.0
 11
2158.808282447495
 21
1602.5703164944839
 31
0.0
  0
LINE
  5
14478
  8
HIDE
 10
2165.6082824474979
 20
1602.5703164944839
 30
0.0
 11
2166.2082824475042
 21
1603.60954697902
 31
0.0
  0
LINE
  5
14479
  8
HIDE
 10
2158.808282447495
 20
1602.5703164944839
 30
0.0
 11
2158.2082824475042
 21
1603.60954697902
 31
0.0
  0
LINE
  5
1447A
  8
HIDE
 10
2166.2082824475042
 20
1603.60954697902
 30
0.0
 11
2158.2082824475042
 21
1603.60954697902
 31
0.0
  0
LINE
  5
1447B
  8
HIDE
 10
2166.2082824475042
 20
1611.60954697902
 30
0.0
 11
2158.2082824475042
 21
1611.60954697902
 31
0.0
  0
LINE
  5
1447C
  8
0
 10
2177.7082824474969
 20
1613.070316494483
 30
0.0
 11
2155.2082824474892
 21
1613.070316494483
 31
0.0
  0
LINE
  5
1447D
  8
0
 10
2177.7082824474892
 20
1556.5703164944709
 30
0.0
 11
2178.2082824474892
 21
1557.070316494483
 31
0.0
  0
LINE
  5
1447E
  8
0
 10
2177.7082824474969
 20
1550.070316494483
 30
0.0
 11
2155.2082824474892
 21
1550.070316494483
 31
0.0
  0
LINE
  5
1447F
  8
HIDE
 10
2178.2082824474969
 20
1561.570316494483
 30
0.0
 11
2155.2082824475042
 21
1561.57031649448
 31
0.0
  0
LINE
  5
14480
  8
HIDE
 10
2178.2082824474969
 20
1562.320316494485
 30
0.0
 11
2155.2082824475042
 21
1562.320316494478
 31
0.0
  0
LINE
  5
14481
  8
CENTER
 10
2162.2082824474969
 20
1549.1179701144961
 30
0.0
 11
2162.2082824474969
 21
1561.5703164944821
 31
0.0
  0
LINE
  5
14482
  8
HIDE
 10
2166.2082824475042
 20
1550.0703164944821
 30
0.0
 11
2166.2082824475178
 21
1561.570316494483
 31
0.0
  0
LINE
  5
14483
  8
HIDE
 10
2158.2082824475042
 20
1550.07031649448
 30
0.0
 11
2158.2082824475042
 21
1561.57031649448
 31
0.0
  0
LINE
  5
14484
  8
HIDE
 10
2165.6082824474979
 20
1550.0703164944821
 30
0.0
 11
2165.6082824475129
 21
1561.5703164944821
 31
0.0
  0
LINE
  5
14485
  8
HIDE
 10
2158.8082824475018
 20
1550.07031649448
 30
0.0
 11
2158.808282447495
 21
1561.57031649448
 31
0.0
  0
LINE
  5
14486
  8
HIDE
 10
2165.6082824474979
 20
1560.5703164944809
 30
0.0
 11
2158.808282447495
 21
1560.57031649448
 31
0.0
  0
LINE
  5
14487
  8
HIDE
 10
2165.6082824474979
 20
1560.5703164944809
 30
0.0
 11
2166.2082824475042
 21
1559.5310860099439
 31
0.0
  0
LINE
  5
14488
  8
HIDE
 10
2158.808282447495
 20
1560.57031649448
 30
0.0
 11
2158.2082824475042
 21
1559.5310860099421
 31
0.0
  0
LINE
  5
14489
  8
HIDE
 10
2166.2082824475042
 20
1559.5310860099439
 30
0.0
 11
2158.2082824475042
 21
1559.5310860099421
 31
0.0
  0
LINE
  5
1448A
  8
HIDE
 10
2166.2082824475042
 20
1551.5310860099439
 30
0.0
 11
2158.2082824475042
 21
1551.5310860099421
 31
0.0
  0
LINE
  5
1450F
  8
CENTER
 10
2004.4722817400229
 20
1581.570316494485
 30
0.0
 11
2073.1520672633528
 21
1581.570316494485
 31
0.0
  0
LINE
  5
14510
  8
0
 10
2042.9390137984931
 20
1550.341816731953
 30
0.0
 11
2070.040674264234
 21
1577.4434771977001
 31
0.0
  0
LINE
  5
14511
  8
0
 10
2007.5836747391711
 20
1585.697155791288
 30
0.0
 11
2034.6853352048761
 21
1612.7988162570109
 31
0.0
  0
LINE
  5
14512
  8
CENTER
 10
2038.8121745016881
 20
1547.230423732819
 30
0.0
 11
2038.8121745016881
 21
1615.91020925615
 31
0.0
  0
LINE
  5
14513
  8
0
 10
2034.6853352048979
 20
1550.3418167319539
 30
0.0
 11
2007.5836747391711
 21
1577.443477197698
 31
0.0
  0
LINE
  5
14514
  8
0
 10
2070.040674264234
 20
1585.6971557912841
 30
0.0
 11
2042.9390137984999
 21
1612.7988162570171
 31
0.0
  0
LINE
  5
14515
  8
HIDE
 10
2034.8121745016811
 20
1612.8153160944171
 30
0.0
 11
2034.812174501674
 21
1601.1662344367439
 31
0.0
  0
LINE
  5
14516
  8
HIDE
 10
2042.8121745016811
 20
1612.8153160944221
 30
0.0
 11
2042.8121745016811
 21
1601.1662344367539
 31
0.0
  0
LINE
  5
14517
  8
HIDE
 10
2035.412174501686
 20
1612.886286861054
 30
0.0
 11
2035.4121745016789
 21
1601.2791977412689
 31
0.0
  0
LINE
  5
14518
  8
HIDE
 10
2042.2121745016671
 20
1612.8862868610599
 30
0.0
 11
2042.21217450169
 21
1601.2791977412751
 31
0.0
  0
LINE
  5
14519
  8
HIDE
 10
2035.412174501686
 20
1602.570316494485
 30
0.0
 11
2042.21217450169
 21
1602.570316494485
 31
0.0
  0
LINE
  5
1451A
  8
HIDE
 10
2035.412174501686
 20
1602.570316494485
 30
0.0
 11
2034.8121745016811
 21
1603.6095469790221
 31
0.0
  0
LINE
  5
1451B
  8
HIDE
 10
2042.21217450169
 20
1602.570316494485
 30
0.0
 11
2042.8121745016811
 21
1603.6095469790221
 31
0.0
  0
LINE
  5
1451C
  8
HIDE
 10
2034.8121745016811
 20
1603.6095469790221
 30
0.0
 11
2042.8121745016811
 21
1603.6095469790221
 31
0.0
  0
LINE
  5
1451D
  8
HIDE
 10
2034.8121745016811
 20
1611.6095469790221
 30
0.0
 11
2042.8121745016811
 21
1611.6095469790221
 31
0.0
  0
ARC
  5
1451E
  8
0
 10
2038.812174501702
 20
1581.570316494485
 30
0.0
 40
31.5
 50
82.471995182696546
 51
97.528004817303454
  0
ARC
  5
1451F
  8
0
 10
2038.812174501702
 20
1581.570316494485
 30
0.0
 40
31.5
 50
172.4719951827889
 51
187.52800481721101
  0
ARC
  5
14520
  8
0
 10
2038.812174501702
 20
1581.570316494485
 30
0.0
 40
31.5
 50
262.4719951826965
 51
277.52800481730338
  0
ARC
  5
14521
  8
0
 10
2038.812174501702
 20
1581.570316494485
 30
0.0
 40
31.5
 50
352.47199518278887
 51
7.5280048172110741
  0
CIRCLE
  5
14522
  8
0
 10
2038.812174501702
 20
1581.570316494485
 30
0.0
 40
24.5
  0
LINE
  5
14523
  8
HIDE
 10
2034.812174501652
 20
1550.3253168945739
 30
0.0
 11
2034.812174501659
 21
1565.304939154898
 31
0.0
  0
LINE
  5
14524
  8
HIDE
 10
2042.812174501651
 20
1550.32531689456
 30
0.0
 11
2042.812174501666
 21
1565.3049391548809
 31
0.0
  0
LINE
  5
14525
  8
HIDE
 10
2035.412174501658
 20
1550.2543461279349
 30
0.0
 11
2035.412174501665
 21
1565.169020813981
 31
0.0
  0
LINE
  5
14526
  8
HIDE
 10
2042.2121745016391
 20
1550.254346127922
 30
0.0
 11
2042.2121745016821
 21
1565.1690208139739
 31
0.0
  0
LINE
  5
14527
  8
HIDE
 10
2035.412174501665
 20
1560.5703164945051
 30
0.0
 11
2042.2121745016671
 21
1560.5703164944971
 31
0.0
  0
LINE
  5
14528
  8
HIDE
 10
2035.412174501665
 20
1560.5703164945051
 30
0.0
 11
2034.812174501659
 21
1559.5310860099689
 31
0.0
  0
LINE
  5
14529
  8
HIDE
 10
2042.2121745016671
 20
1560.5703164944971
 30
0.0
 11
2042.812174501659
 21
1559.5310860099601
 31
0.0
  0
LINE
  5
1452A
  8
HIDE
 10
2034.812174501659
 20
1559.5310860099689
 30
0.0
 11
2042.812174501659
 21
1559.5310860099601
 31
0.0
  0
LINE
  5
1452B
  8
HIDE
 10
2034.812174501652
 20
1551.5310860099689
 30
0.0
 11
2042.812174501651
 21
1551.5310860099601
 31
0.0
  0
ARC
  5
1452C
  8
HIDE
 10
2038.812174501702
 20
1581.570316494485
 30
0.0
 40
20.0
 50
270.0
 51
180.0
  0
CIRCLE
  5
1452D
  8
0
 10
2038.812174501702
 20
1581.570316494486
 30
0.0
 40
19.25
  0
ENDSEC
  0
EOF
