  0
SECTION
  2
HEADER
  9
$ACADVER
  1
AC1009
  9
$INSBASE
 10
0.0
 20
0.0
 30
0.0
  9
$EXTMIN
 10
1827.5804026561809
 20
1469.155640030727
 30
0.0
  9
$EXTMAX
 10
2277.162961139481
 20
1723.0060302171389
 30
0.0
  9
$LIMMIN
 10
0.0
 20
0.0
  9
$LIMMAX
 10
12.0
 20
9.0
  9
$ORTHOMODE
 70
     1
  9
$REGENMODE
 70
     1
  9
$FILLMODE
 70
     1
  9
$QTEXTMODE
 70
     0
  9
$MIRRTEXT
 70
     0
  9
$DRAGMODE
 70
     2
  9
$LTSCALE
 40
5.0
  9
$OSMODE
 70
  2495
  9
$ATTMODE
 70
     1
  9
$TEXTSIZE
 40
2.5
  9
$TRACEWID
 40
0.05
  9
$TEXTSTYLE
  7
BIG
  9
$CLAYER
  8
0
  9
$CELTYPE
  6
BYLAYER
  9
$CECOLOR
 62
   256
  9
$DIMSCALE
 40
1.0
  9
$DIMASZ
 40
3.0
  9
$DIMEXO
 40
1.0
  9
$DIMDLI
 40
0.0
  9
$DIMRND
 40
0.0
  9
$DIMDLE
 40
0.0
  9
$DIMEXE
 40
1.0
  9
$DIMTP
 40
0.0
  9
$DIMTM
 40
0.0
  9
$DIMTXT
 40
3.0
  9
$DIMCEN
 40
0.0
  9
$DIMTSZ
 40
0.0
  9
$DIMTOL
 70
     0
  9
$DIMLIM
 70
     0
  9
$DIMTIH
 70
     0
  9
$DIMTOH
 70
     0
  9
$DIMSE1
 70
     0
  9
$DIMSE2
 70
     0
  9
$DIMTAD
 70
     1
  9
$DIMZIN
 70
     8
  9
$DIMBLK
  1

  9
$DIMASO
 70
     1
  9
$DIMSHO
 70
     1
  9
$DIMPOST
  1

  9
$DIMAPOST
  1

  9
$DIMALT
 70
     0
  9
$DIMALTD
 70
     2
  9
$DIMALTF
 40
25.399999999999999
  9
$DIMLFAC
 40
1.0
  9
$DIMTOFL
 70
     1
  9
$DIMTVP
 40
0.0
  9
$DIMTIX
 70
     1
  9
$DIMSOXD
 70
     0
  9
$DIMSAH
 70
     0
  9
$DIMBLK1
  1

  9
$DIMBLK2
  1

  9
$DIMSTYLE
  2
DUKITEC
  9
$DIMCLRD
 70
     5
  9
$DIMCLRE
 70
     5
  9
$DIMCLRT
 70
     0
  9
$DIMTFAC
 40
1.0
  9
$DIMGAP
 40
1.0
  9
$LUNITS
 70
     2
  9
$LUPREC
 70
     4
  9
$SKETCHINC
 40
0.1
  9
$FILLETRAD
 40
0.2
  9
$AUNITS
 70
     0
  9
$AUPREC
 70
     0
  9
$MENU
  1
.
  9
$ELEVATION
 40
0.0
  9
$PELEVATION
 40
0.0
  9
$THICKNESS
 40
0.0
  9
$LIMCHECK
 70
     0
  9
$BLIPMODE
 70
     0
  9
$CHAMFERA
 40
0.5
  9
$CHAMFERB
 40
0.5
  9
$SKPOLY
 70
     0
  9
$TDCREATE
 40
2454396.7546875002
  9
$TDUPDATE
 40
2457375.4970957641
  9
$TDINDWG
 40
0.0094308681
  9
$TDUSRTIMER
 40
0.0094305671
  9
$USRTIMER
 70
     1
  9
$ANGBASE
 50
0.0
  9
$ANGDIR
 70
     0
  9
$PDMODE
 70
     0
  9
$PDSIZE
 40
0.0
  9
$PLINEWID
 40
0.0
  9
$COORDS
 70
     1
  9
$SPLFRAME
 70
     0
  9
$SPLINETYPE
 70
     6
  9
$SPLINESEGS
 70
     8
  9
$ATTDIA
 70
     0
  9
$ATTREQ
 70
     1
  9
$HANDLING
 70
     1
  9
$HANDSEED
  5
146C8
  9
$SURFTAB1
 70
     6
  9
$SURFTAB2
 70
     6
  9
$SURFTYPE
 70
     6
  9
$SURFU
 70
     6
  9
$SURFV
 70
     6
  9
$UCSNAME
  2

  9
$UCSORG
 10
0.0
 20
0.0
 30
0.0
  9
$UCSXDIR
 10
1.0
 20
0.0
 30
0.0
  9
$UCSYDIR
 10
0.0
 20
1.0
 30
0.0
  9
$PUCSNAME
  2

  9
$PUCSORG
 10
0.0
 20
0.0
 30
0.0
  9
$PUCSXDIR
 10
1.0
 20
0.0
 30
0.0
  9
$PUCSYDIR
 10
0.0
 20
1.0
 30
0.0
  9
$USERI1
 70
     0
  9
$USERI2
 70
     0
  9
$USERI3
 70
     0
  9
$USERI4
 70
     0
  9
$USERI5
 70
     0
  9
$USERR1
 40
0.0
  9
$USERR2
 40
0.0
  9
$USERR3
 40
0.0
  9
$USERR4
 40
0.0
  9
$USERR5
 40
0.0
  9
$WORLDVIEW
 70
     1
  9
$SHADEDGE
 70
     3
  9
$SHADEDIF
 70
    70
  9
$TILEMODE
 70
     1
  9
$MAXACTVP
 70
    48
  9
$PLIMCHECK
 70
     0
  9
$PEXTMIN
 10
0.0
 20
0.0
 30
0.0
  9
$PEXTMAX
 10
0.0
 20
0.0
 30
0.0
  9
$PLIMMIN
 10
0.0
 20
0.0
  9
$PLIMMAX
 10
12.0
 20
9.0
  9
$UNITMODE
 70
     0
  9
$VISRETAIN
 70
     1
  9
$PLINEGEN
 70
     0
  9
$PSLTSCALE
 70
     1
  0
ENDSEC
  0
SECTION
  2
TABLES
  0
TABLE
  2
VPORT
 70
     1
  0
VPORT
  2
*ACTIVE
 70
     0
 10
0.0
 20
0.0
 11
1.0
 21
1.0
 12
2163.7994851670392
 22
1590.2338706154651
 13
0.0
 23
0.0
 14
0.5
 24
0.5
 15
0.5
 25
0.5
 16
0.0
 26
0.0
 36
1.0
 17
0.0
 27
0.0
 37
0.0
 40
401.7321653215165
 41
2.2949367088607588
 42
50.0
 43
0.0
 44
0.0
 50
0.0
 51
0.0
 71
     0
 72
  2000
 73
     1
 74
     3
 75
     0
 76
     0
 77
     0
 78
     0
  0
ENDTAB
  0
TABLE
  2
LTYPE
 70
     5
  0
LTYPE
  2
CONTINUOUS
 70
     0
  3
Solid line
 72
    65
 73
     0
 40
0.0
  0
LTYPE
  2
PHANTOM2
 70
     0
  3
Phantom (.5x) ___ _ _ ___ _ _ ___ _ _ ___ _ _
 72
    65
 73
     6
 40
1.25
 49
0.625
 49
-0.125
 49
0.125
 49
-0.125
 49
0.125
 49
-0.125
  0
LTYPE
  2
CENTER
 70
     0
  3
___ _ ___ _ ___ _ ___ _ ___ _ ___ _ ___ _ ___ _
 72
    65
 73
     4
 40
0.95
 49
0.625
 49
-0.125
 49
0.075
 49
-0.125
  0
LTYPE
  2
DASHED2
 70
     0
  3
Dashed (.5x) _ _ _ _ _ _ _ _ _ _ _ _ _ _ _ _ _
 72
    65
 73
     2
 40
0.375
 49
0.25
 49
-0.125
  0
ENDTAB
  0
TABLE
  2
LAYER
 70
     4
  0
LAYER
  2
0
 70
     0
 62
     7
  6
CONTINUOUS
  0
LAYER
  2
HIDE
 70
     0
 62
     1
  6
DASHED2
  0
LAYER
  2
CENTER
 70
     0
 62
     3
  6
CENTER
  0
LAYER
  2
DEFPOINTS
 70
     0
 62
     7
  6
CONTINUOUS
  0
ENDTAB
  0
TABLE
  2
STYLE
 70
    10
  0
STYLE
  2
STANDARD
 70
     0
 40
5.0
 41
1.0
 50
0.0
 71
     0
 42
5.0
  3
txt.shx
  4
whgtxt.shx
  0
STYLE
  2
BIG
 70
     0
 40
20.0
 41
1.0
 50
0.0
 71
     0
 42
2.5
  3
txt
  4

  0
STYLE
  2
DUKI2-1
 70
     0
 40
4.0
 41
1.0
 50
0.0
 71
     0
 42
4.0
  3
txt
  4

  0
STYLE
  2
DUKI_1
 70
     0
 40
2.0
 41
1.0
 50
0.0
 71
     0
 42
2.0
  3
txt
  4

  0
STYLE
  2
DUKI_2
 70
     0
 40
3.0
 41
1.0
 50
0.0
 71
     0
 42
3.0
  3
txt
  4

  0
STYLE
  2
DUKI_3
 70
     0
 40
6.0
 41
1.0
 50
0.0
 71
     0
 42
6.0
  3
txt
  4

  0
STYLE
  2
DUKI2-5
 70
     0
 40
5.0
 41
1.0
 50
0.0
 71
     0
 42
5.0
  3
txt
  4

  0
STYLE
  2
DUKI5
 70
     0
 40
11.0
 41
1.0
 50
0.0
 71
     0
 42
11.0
  3
txt
  4

  0
STYLE
  2
DUKI7
 70
     0
 40
20.0
 41
1.0
 50
0.0
 71
     0
 42
20.0
  3
txt
  4

  0
STYLE
  2
DUKI1-5
 70
     0
 40
2.5
 41
1.0
 50
0.0
 71
     0
 42
2.5
  3
txt
  4

  0
ENDTAB
  0
TABLE
  2
VIEW
 70
     0
  0
ENDTAB
  0
TABLE
  2
UCS
 70
     0
  0
ENDTAB
  0
TABLE
  2
APPID
 70
    16
  0
APPID
  2
ACAD
 70
     0
  0
APPID
  2
ACADANNOTATIVE
 70
     0
  0
APPID
  2
ACAD_EXEMPT_FROM_CAD_STANDARDS
 70
     0
  0
APPID
  2
ACAD_DSTYLE_DIMJOGGED_JOGA
 70
     0
  0
APPID
  2
ACAD_PSEXT
 70
     0
  0
APPID
  2
ACAECLAYERSTANDARD
 70
     0
  0
APPID
  2
DCO15
 70
     0
  0
APPID
  2
CONTENTBLOCKICON
 70
     0
  0
APPID
  2
ACAD_NAV_VCDISPLAY
 70
     0
  0
APPID
  2
ACAD_MLEADERVER
 70
     0
  0
APPID
  2
ACAD_DSTYLE_DIMJAG
 70
     0
  0
APPID
  2
ACAD_DSTYLE_DIMBREAK
 70
     0
  0
APPID
  2
ACAD_DSTYLE_DIMTALN
 70
     0
  0
APPID
  2
ACAD_DSTYLE_DIMTEXT_FILL
 70
     0
  0
APPID
  2
ACAD_DSTYLE_DIMRADIAL_EXTENSION
 70
     0
  0
APPID
  2
ACDBDYNAMICBLOCKTRUENAME2
 70
     0
  0
ENDTAB
  0
TABLE
  2
DIMSTYLE
 70
     8
  0
DIMSTYLE
  2
DUKITEC
 70
     0
  3

  4

  5

  6

  7

 40
1.0
 41
3.0
 42
1.0
 43
0.0
 44
1.0
 45
0.0
 46
0.0
 47
0.0
 48
0.0
140
3.0
141
0.0
142
0.0
143
25.399999999999999
144
1.0
145
0.0
146
1.0
147
1.0
 71
     0
 72
     0
 73
     0
 74
     0
 75
     0
 76
     0
 77
     1
 78
     8
170
     0
171
     2
172
     1
173
     0
174
     1
175
     0
176
     5
177
     5
178
     0
  0
DIMSTYLE
  2
DUKI2
 70
     0
  3

  4

  5

  6

  7

 40
1.0
 41
2.0
 42
0.8
 43
1.0
 44
0.6
 45
0.0
 46
0.0
 47
0.0
 48
0.000000001
140
3.0
141
1.0
142
0.0
143
25.399999999999999
144
1.0
145
0.0
146
0.5
147
1.0
 71
     0
 72
     0
 73
     0
 74
     0
 75
     0
 76
     0
 77
     1
 78
     8
170
     0
171
     2
172
     1
173
     0
174
     0
175
     0
176
     5
177
     5
178
     2
  0
DIMSTYLE
  2
DUKI3
 70
     0
  3

  4

  5

  6

  7

 40
1.0
 41
4.0
 42
1.0
 43
1.0
 44
1.0
 45
0.0
 46
0.0
 47
0.0
 48
0.000000001
140
6.0
141
1.0
142
0.0
143
25.399999999999999
144
1.0
145
0.0
146
0.5
147
2.2000000000000002
 71
     0
 72
     0
 73
     0
 74
     0
 75
     0
 76
     0
 77
     1
 78
     8
170
     0
171
     2
172
     1
173
     0
174
     0
175
     0
176
     5
177
     5
178
     2
  0
DIMSTYLE
  2
DUKI2-5
 70
     0
  3

  4

  5

  6

  7

 40
1.0
 41
3.0
 42
1.0
 43
1.0
 44
1.0
 45
0.0
 46
0.0
 47
0.0
 48
0.000000001
140
5.0
141
1.0
142
0.0
143
25.399999999999999
144
1.0
145
0.0
146
0.5
147
1.6000000000000001
 71
     0
 72
     0
 73
     0
 74
     0
 75
     0
 76
     0
 77
     1
 78
     8
170
     0
171
     2
172
     1
173
     0
174
     0
175
     0
176
     5
177
     5
178
     2
  0
DIMSTYLE
  2
DUKI5
 70
     0
  3

  4

  5

  6

  7

 40
1.0
 41
6.0
 42
2.0
 43
1.0
 44
1.0
 45
0.0
 46
0.0
 47
0.0
 48
0.000000001
140
11.0
141
1.0
142
0.0
143
25.399999999999999
144
1.0
145
0.0
146
0.5
147
3.399999999999999
 71
     0
 72
     0
 73
     0
 74
     0
 75
     0
 76
     0
 77
     1
 78
     8
170
     0
171
     2
172
     1
173
     0
174
     0
175
     0
176
     5
177
     5
178
     2
  0
DIMSTYLE
  2
DUKI7
 70
     0
  3

  4

  5

  6

  7

 40
1.0
 41
14.0
 42
9.0
 43
1.0
 44
4.0
 45
0.0
 46
0.0
 47
0.0
 48
0.000000001
140
20.0
141
1.0
142
0.0
143
25.399999999999999
144
1.0
145
0.0
146
0.5
147
7.0
 71
     0
 72
     0
 73
     0
 74
     0
 75
     0
 76
     0
 77
     1
 78
     8
170
     0
171
     2
172
     1
173
     0
174
     0
175
     0
176
     5
177
     5
178
     2
  0
DIMSTYLE
  2
DUKI1-5
 70
     0
  3

  4

  5

  6

  7

 40
1.0
 41
1.8
 42
0.5
 43
1.0
 44
0.5
 45
0.0
 46
0.0
 47
0.0
 48
0.000000001
140
2.5
141
1.0
142
0.0
143
25.399999999999999
144
1.0
145
0.0
146
0.5
147
0.8
 71
     0
 72
     0
 73
     0
 74
     0
 75
     0
 76
     0
 77
     1
 78
     8
170
     0
171
     2
172
     1
173
     0
174
     0
175
     0
176
     5
177
     5
178
     2
  0
ENDTAB
  0
ENDSEC
  0
SECTION
  2
BLOCKS
  0
BLOCK
  8
0
  2
$MODEL_SPACE
 70
     0
 10
0.0
 20
0.0
 30
0.0
  3
$MODEL_SPACE
  1

  0
ENDBLK
  5
143DA
  8
0
  0
BLOCK
 67
     1
  8
0
  2
$PAPER_SPACE
 70
     0
 10
0.0
 20
0.0
 30
0.0
  3
$PAPER_SPACE
  1

  0
ENDBLK
  5
143D6
 67
     1
  8
0
  0
BLOCK
  8
0
  2
*D0
 70
     1
 10
0.0
 20
0.0
 30
0.0
  3
*D0
  1

  0
LINE
  5
14553
  8
0
 62
     5
 10
-43917.783719477913
 20
11423.91787164792
 30
0.0
 11
-43936.291837575758
 21
11405.40975355007
 31
0.0
  0
LINE
  5
14554
  8
0
 62
     5
 10
-43882.428380418583
 20
11388.562532588579
 30
0.0
 11
-43900.936498516428
 21
11370.05441449074
 31
0.0
  0
LINE
  5
14555
  8
0
 62
     5
 10
-43933.463410451011
 20
11403.995539987691
 30
0.0
 11
-43902.350712078813
 21
11372.88284161549
 31
0.0
  0
SOLID
  5
14556
  8
0
 62
     5
 10
-43933.109857060423
 20
11404.34909337829
 30
0.0
 11
-43933.8169638416
 21
11403.6419865971
 31
0.0
 12
-43935.584730794573
 22
11406.11686033126
 32
0.0
 13
-43935.584730794573
 23
11406.11686033126
 33
0.0
  0
SOLID
  5
14557
  8
0
 62
     5
 10
-43901.997158688209
 20
11373.236395006081
 30
0.0
 11
-43902.704265469401
 21
11372.52928822489
 31
0.0
 12
-43900.229391735251
 22
11370.761521271919
 32
0.0
 13
-43900.229391735251
 23
11370.761521271919
 33
0.0
  0
INSERT
  5
14558
  8
0
  2
*U8
 10
0.0
 20
0.0
 30
0.0
  0
POINT
  5
14559
  8
DEFPOINTS
 62
     0
 10
-43917.076612696721
 20
11424.624978429099
 30
0.0
  0
POINT
  5
1455A
  8
DEFPOINTS
 62
     0
 10
-43881.721273637391
 20
11389.26963936977
 30
0.0
  0
POINT
  5
1455B
  8
DEFPOINTS
 62
     0
 10
-43900.229391735251
 20
11370.761521271919
 30
0.0
  0
ENDBLK
  5
1455C
  8
0
  0
BLOCK
  8
0
  2
*D1
 70
     1
 10
0.0
 20
0.0
 30
0.0
  3
*D1
  1

  0
LINE
  5
1455F
  8
0
 62
     5
 10
-43846.642054357428
 20
11435.90948428887
 30
0.0
 11
-43862.319097292711
 21
11429.32391153479
 31
0.0
  0
LINE
  5
14560
  8
0
 62
     5
 10
-43913.026710242259
 20
11408.0227850632
 30
0.0
 11
-43915.792580039502
 21
11406.86090543747
 31
0.0
  0
INSERT
  5
14561
  8
0
  2
*U9
 10
0.0
 20
0.0
 30
0.0
  0
LINE
  5
14563
  8
0
 62
     5
 10
-43910.260840445007
 20
11409.184664688921
 30
0.0
 11
-43865.084967089948
 21
11428.162031909071
 31
0.0
  0
SOLID
  5
14564
  8
0
 62
     5
 10
-43913.220356846541
 20
11408.483763362739
 30
0.0
 11
-43912.833063637969
 21
11407.561806763661
 31
0.0
 12
-43910.260840445007
 22
11409.184664688921
 32
0.0
 13
-43910.260840445007
 23
11409.184664688921
 33
0.0
  0
SOLID
  5
14565
  8
0
 62
     5
 10
-43862.512743896987
 20
11429.78488983434
 30
0.0
 11
-43862.125450688422
 21
11428.86293323525
 31
0.0
 12
-43865.084967089948
 22
11428.162031909071
 32
0.0
 13
-43865.084967089948
 23
11428.162031909071
 33
0.0
  0
POINT
  5
14566
  8
DEFPOINTS
 62
     0
 10
-43865.084967089948
 20
11428.162031909071
 30
0.0
  0
POINT
  5
14567
  8
DEFPOINTS
 62
     0
 10
-43910.260840445007
 20
11409.184664688921
 30
0.0
  0
ENDBLK
  5
14568
  8
0
  0
BLOCK
  8
0
  2
*D2
 70
     1
 10
0.0
 20
0.0
 30
0.0
  3
*D2
  1

  0
LINE
  5
1456B
  8
0
 62
     5
 10
-43837.020854517032
 20
11427.11849658543
 30
0.0
 11
-43853.642655561118
 21
11424.34716597429
 31
0.0
  0
LINE
  5
1456C
  8
0
 62
     5
 10
-43921.703151973859
 20
11412.9995306237
 30
0.0
 11
-43924.662303991812
 21
11412.506155173671
 31
0.0
  0
INSERT
  5
1456D
  8
0
  2
*U10
 10
0.0
 20
0.0
 30
0.0
  0
LINE
  5
1456F
  8
0
 62
     5
 10
-43918.743999955921
 20
11413.492906073719
 30
0.0
 11
-43856.601807579063
 21
11423.853790524259
 31
0.0
  0
SOLID
  5
14570
  8
0
 62
     5
 10
-43921.78538121553
 20
11413.49272262669
 30
0.0
 11
-43921.620922732203
 21
11412.5063386207
 31
0.0
 12
-43918.743999955921
 22
11413.492906073719
 32
0.0
 13
-43918.743999955921
 23
11413.492906073719
 33
0.0
  0
SOLID
  5
14571
  8
0
 62
     5
 10
-43853.724884802781
 20
11424.84035797728
 30
0.0
 11
-43853.56042631944
 21
11423.8539739713
 31
0.0
 12
-43856.601807579063
 22
11423.853790524259
 32
0.0
 13
-43856.601807579063
 23
11423.853790524259
 33
0.0
  0
ARC
  5
14572
  8
0
 62
     5
 10
-43887.672903767481
 20
11418.673348298989
 30
0.0
 40
31.5
 50
9.3469184525219458
 51
11.284691753673251
  0
POINT
  5
14573
  8
DEFPOINTS
 62
     0
 10
-43856.601807579063
 20
11423.853790524259
 30
0.0
  0
POINT
  5
14574
  8
DEFPOINTS
 62
     0
 10
-43918.743999955921
 20
11413.492906073719
 30
0.0
  0
ENDBLK
  5
14575
  8
0
  0
BLOCK
  8
0
  2
*D4
 70
     1
 10
0.0
 20
0.0
 30
0.0
  3
*D4
  1

  0
LINE
  5
145EE
  8
0
 62
     5
 10
1846.088520754033
 20
1634.019540696677
 30
0.0
 11
1827.5804026561809
 21
1615.5114225988291
 31
0.0
  0
LINE
  5
145EF
  8
0
 62
     5
 10
1881.4438598133549
 20
1598.664201637348
 30
0.0
 11
1862.9357417155029
 21
1580.1560835394989
 31
0.0
  0
LINE
  5
145F0
  8
0
 62
     5
 10
1830.4088297809269
 20
1614.0972090364551
 30
0.0
 11
1861.52152815313
 21
1582.9845106642449
 31
0.0
  0
SOLID
  5
145F1
  8
0
 62
     5
 10
1830.76238317152
 20
1614.4507624270479
 30
0.0
 11
1830.055276390334
 21
1613.743655645862
 31
0.0
 12
1828.2875094373669
 22
1616.2185293800151
 32
0.0
 13
1828.2875094373669
 23
1616.2185293800151
 33
0.0
  0
SOLID
  5
145F2
  8
0
 62
     5
 10
1861.875081543724
 20
1583.3380640548389
 30
0.0
 11
1861.1679747625369
 21
1582.630957273652
 31
0.0
 12
1863.64284849669
 22
1580.863190320686
 32
0.0
 13
1863.64284849669
 23
1580.863190320686
 33
0.0
  0
INSERT
  5
145F3
  8
0
  2
*U11
 10
0.0
 20
0.0
 30
0.0
  0
POINT
  5
145F4
  8
DEFPOINTS
 62
     0
 10
1846.7956275352201
 20
1634.7266474778639
 30
0.0
  0
POINT
  5
145F5
  8
DEFPOINTS
 62
     0
 10
1882.1509665945421
 20
1599.371308418534
 30
0.0
  0
POINT
  5
145F6
  8
DEFPOINTS
 62
     0
 10
1863.64284849669
 20
1580.863190320686
 30
0.0
  0
ENDBLK
  5
145E4
  8
0
  0
BLOCK
  8
0
  2
*D5
 70
     1
 10
0.0
 20
0.0
 30
0.0
  3
*D5
  1

  0
LINE
  5
14617
  8
0
 62
     5
 10
1917.230185874515
 20
1646.0111533376351
 30
0.0
 11
1901.5531429392331
 21
1639.4255805835539
 31
0.0
  0
LINE
  5
14618
  8
0
 62
     5
 10
1850.845529989685
 20
1618.124454111959
 30
0.0
 11
1848.0796601924369
 21
1616.962574486236
 31
0.0
  0
INSERT
  5
14619
  8
0
  2
*U13
 10
0.0
 20
0.0
 30
0.0
  0
LINE
  5
1461A
  8
0
 62
     5
 10
1853.6113997869329
 20
1619.2863337376821
 30
0.0
 11
1898.787273141985
 21
1638.2637009578309
 31
0.0
  0
SOLID
  5
1461B
  8
0
 62
     5
 10
1850.6518833853979
 20
1618.5854324115001
 30
0.0
 11
1851.0391765939719
 21
1617.663475812418
 31
0.0
 12
1853.6113997869329
 22
1619.2863337376821
 32
0.0
 13
1853.6113997869329
 23
1619.2863337376821
 33
0.0
  0
SOLID
  5
1461C
  8
0
 62
     5
 10
1901.359496334946
 20
1639.8865588830961
 30
0.0
 11
1901.74678954352
 21
1638.9646022840129
 31
0.0
 12
1898.787273141985
 22
1638.2637009578309
 32
0.0
 13
1898.787273141985
 23
1638.2637009578309
 33
0.0
  0
POINT
  5
1461D
  8
DEFPOINTS
 62
     0
 10
1898.787273141985
 20
1638.2637009578309
 30
0.0
  0
POINT
  5
1461E
  8
DEFPOINTS
 62
     0
 10
1853.6113997869329
 20
1619.2863337376821
 30
0.0
  0
ENDBLK
  5
145F9
  8
0
  0
BLOCK
  8
0
  2
*D6
 70
     1
 10
0.0
 20
0.0
 30
0.0
  3
*D6
  1

  0
LINE
  5
1460E
  8
0
 62
     5
 10
1926.8513857149169
 20
1637.2201656341981
 30
0.0
 11
1910.2295846708339
 21
1634.4488350230531
 31
0.0
  0
LINE
  5
1460F
  8
0
 62
     5
 10
1842.1690882580849
 20
1623.101199672461
 30
0.0
 11
1839.20993624014
 21
1622.6078242224351
 31
0.0
  0
INSERT
  5
14610
  8
0
  2
*U12
 10
0.0
 20
0.0
 30
0.0
  0
LINE
  5
14611
  8
0
 62
     5
 10
1845.128240276031
 20
1623.594575122486
 30
0.0
 11
1907.270432652889
 21
1633.9554595730281
 31
0.0
  0
SOLID
  5
14612
  8
0
 62
     5
 10
1842.086859016415
 20
1623.594391675452
 30
0.0
 11
1842.2513174997559
 21
1622.6080076694691
 31
0.0
 12
1845.128240276031
 22
1623.594575122486
 32
0.0
 13
1845.128240276031
 23
1623.594575122486
 33
0.0
  0
SOLID
  5
14613
  8
0
 62
     5
 10
1910.1473554291631
 20
1634.9420270260439
 30
0.0
 11
1910.3118139125049
 21
1633.9556430200621
 31
0.0
 12
1907.270432652889
 22
1633.9554595730281
 32
0.0
 13
1907.270432652889
 23
1633.9554595730281
 33
0.0
  0
ARC
  5
14614
  8
0
 62
     5
 10
1876.19933646446
 20
1628.7750173477571
 30
0.0
 40
31.499999999999321
 50
9.3469184525470848
 51
11.28469175367025
  0
POINT
  5
14615
  8
DEFPOINTS
 62
     0
 10
1907.270432652889
 20
1633.9554595730281
 30
0.0
  0
POINT
  5
14616
  8
DEFPOINTS
 62
     0
 10
1845.128240276031
 20
1623.594575122486
 30
0.0
  0
ENDBLK
  5
14604
  8
0
  0
BLOCK
  8
0
  2
*U8
 70
     1
 10
0.0
 20
0.0
 30
0.0
  3
*U8
  1

  0
TEXT
  5
146A9
  8
0
 62
     2
 10
-43919.522214206743
 20
11392.437178306869
 30
0.0
 40
5.0
  1
50
 50
314.99999999999409
  7
DUKI2-5
  0
ENDBLK
  5
146AB
  8
0
  0
BLOCK
  8
0
  2
*U9
 70
     1
 10
0.0
 20
0.0
 30
0.0
  3
*U9
  1

  0
TEXT
  5
146AD
  8
0
 62
     2
 10
-43858.861614164751
 20
11432.60386876433
 30
0.0
 40
5.0
  1
\U+2205
 50
22.786179436704241
  7
DUKI2-5
  0
TEXT
  5
146AE
  8
0
 62
     2
 10
-43855.509044713537
 20
11434.0122077046
 30
0.0
 40
5.0
  1
49
 50
22.786179436704241
  7
DUKI2-5
  0
ENDBLK
  5
146B0
  8
0
  0
BLOCK
  8
0
  2
*U10
 70
     1
 10
0.0
 20
0.0
 30
0.0
  3
*U10
  1

  0
TEXT
  5
146B2
  8
0
 62
     2
 10
-43849.522499635561
 20
11426.74229105598
 30
0.0
 40
5.0
  1
\U+2205
 50
9.4657781183351766
  7
DUKI2-5
  0
TEXT
  5
146B3
  8
0
 62
     2
 10
-43845.935648704719
 20
11427.340321904499
 30
0.0
 40
5.0
  1
63
 50
9.4657781183351766
  7
DUKI2-5
  0
ENDBLK
  5
146B5
  8
0
  0
BLOCK
  8
0
  2
*U11
 70
     1
 10
0.0
 20
0.0
 30
0.0
  3
*U11
  1

  0
TEXT
  5
146B8
  8
0
 62
     2
 10
1844.3500260251919
 20
1602.538847355637
 30
0.0
 40
5.0
  1
50
 50
314.99999999999409
  7
DUKI2-5
  0
ENDBLK
  5
146BA
  8
0
  0
BLOCK
  8
0
  2
*U12
 70
     1
 10
0.0
 20
0.0
 30
0.0
  3
*U12
  1

  0
TEXT
  5
146BC
  8
0
 62
     2
 10
1914.3497405963751
 20
1636.843960104746
 30
0.0
 40
5.0
  1
\U+2205
 50
9.4657781183344145
  7
DUKI2-5
  0
TEXT
  5
146BD
  8
0
 62
     2
 10
1917.9365915272181
 20
1637.4419909532619
 30
0.0
 40
5.0
  1
63
 50
9.4657781183344145
  7
DUKI2-5
  0
ENDBLK
  5
146BF
  8
0
  0
BLOCK
  8
0
  2
*U13
 70
     1
 10
0.0
 20
0.0
 30
0.0
  3
*U13
  1

  0
TEXT
  5
146C1
  8
0
 62
     2
 10
1905.0106260671939
 20
1642.705537813091
 30
0.0
 40
5.0
  1
\U+2205
 50
22.786179436704241
  7
DUKI2-5
  0
TEXT
  5
146C2
  8
0
 62
     2
 10
1908.363195518403
 20
1644.1138767533621
 30
0.0
 40
5.0
  1
49
 50
22.786179436704241
  7
DUKI2-5
  0
ENDBLK
  5
146C4
  8
0
  0
ENDSEC
  0
SECTION
  2
ENTITIES
  0
TEXT
  5
14069
  8
0
 10
2053.6060301980028
 20
1469.155640030727
 30
0.0
 40
20.0
  1
FK 40DFT
  7
BIG
  0
LINE
  5
141AC
  8
HIDE
 10
2187.369802029767
 20
1713.1752512171381
 30
0.0
 11
2187.369802029767
 21
1693.175251217139
 31
0.0
  0
LINE
  5
141AD
  8
HIDE
 10
2174.369802029767
 20
1693.175251217139
 30
0.0
 11
2187.369802029767
 21
1693.175251217139
 31
0.0
  0
LINE
  5
141AE
  8
HIDE
 10
2187.369802029767
 20
1696.175251217139
 30
0.0
 11
2192.369802029767
 21
1696.175251217139
 31
0.0
  0
LINE
  5
141AF
  8
HIDE
 10
2187.369802029767
 20
1710.175251217139
 30
0.0
 11
2192.369802029767
 21
1710.175251217139
 31
0.0
  0
LINE
  5
141B0
  8
HIDE
 10
2174.369802029767
 20
1713.1752512171381
 30
0.0
 11
2187.369802029767
 21
1713.1752512171381
 31
0.0
  0
LINE
  5
141B1
  8
CENTER
 10
2169.371019102628
 20
1703.1752512171381
 30
0.0
 11
2197.4278153431551
 21
1703.1752512171381
 31
0.0
  0
LINE
  5
141B2
  8
0
 10
2174.369802029767
 20
1718.730814217138
 30
0.0
 11
2192.369802029767
 21
1718.730814217138
 31
0.0
  0
LINE
  5
141B3
  8
0
 10
2156.369802029767
 20
1693.730814217138
 30
0.0
 11
2174.369802029767
 21
1693.730814217138
 31
0.0
  0
LINE
  5
141B4
  8
0
 10
2271.369802029767
 20
1690.730814217138
 30
0.0
 11
2192.369802029767
 21
1690.7308142171389
 31
0.0
  0
LINE
  5
141B5
  8
0
 10
2192.369802029767
 20
1718.730814217138
 30
0.0
 11
2192.369802029767
 21
1690.7308142171389
 31
0.0
  0
LINE
  5
141B6
  8
0
 10
2174.369802029767
 20
1718.730814217138
 30
0.0
 11
2174.369802029767
 21
1542.730814217138
 31
0.0
  0
LINE
  5
141B7
  8
0
 10
2156.369802029767
 20
1693.730814217138
 30
0.0
 11
2156.3698020297729
 21
1567.7308142171389
 31
0.0
  0
LINE
  5
141B8
  8
CENTER
 10
2140.3472510560809
 20
1630.7308142171389
 30
0.0
 11
2277.162961139481
 21
1630.7308142171389
 31
0.0
  0
LINE
  5
141B9
  8
CENTER
 10
2169.371019102628
 20
1558.286377217139
 30
0.0
 11
2197.4278153431551
 21
1558.286377217139
 31
0.0
  0
LINE
  5
141BA
  8
HIDE
 10
2174.369802029767
 20
1548.286377217139
 30
0.0
 11
2187.369802029767
 21
1548.286377217139
 31
0.0
  0
LINE
  5
141BB
  8
HIDE
 10
2187.369802029767
 20
1551.286377217139
 30
0.0
 11
2192.369802029767
 21
1551.286377217139
 31
0.0
  0
LINE
  5
141BC
  8
HIDE
 10
2187.369802029767
 20
1565.2863772171379
 30
0.0
 11
2192.369802029767
 21
1565.2863772171379
 31
0.0
  0
LINE
  5
141BD
  8
HIDE
 10
2174.369802029767
 20
1568.286377217139
 30
0.0
 11
2187.369802029767
 21
1568.286377217139
 31
0.0
  0
LINE
  5
141BE
  8
HIDE
 10
2187.369802029767
 20
1548.286377217139
 30
0.0
 11
2187.369802029767
 21
1568.286377217139
 31
0.0
  0
LINE
  5
141BF
  8
0
 10
2174.369802029767
 20
1542.730814217138
 30
0.0
 11
2192.369802029767
 21
1542.730814217138
 31
0.0
  0
LINE
  5
141C0
  8
0
 10
2156.369802029767
 20
1567.7308142171389
 30
0.0
 11
2174.369802029767
 21
1567.7308142171389
 31
0.0
  0
LINE
  5
141C1
  8
0
 10
2271.369802029767
 20
1570.730814217138
 30
0.0
 11
2192.369802029767
 21
1570.7308142171389
 31
0.0
  0
LINE
  5
141C2
  8
0
 10
2271.369802029767
 20
1690.7308142171389
 30
0.0
 11
2271.369802029767
 21
1570.7308142171389
 31
0.0
  0
CIRCLE
  5
141C3
  8
HIDE
 10
2228.3698020297688
 20
1600.730814217138
 30
0.0
 40
6.0
  0
CIRCLE
  5
141C4
  8
HIDE
 10
2228.3698020297688
 20
1660.7308142171389
 30
0.0
 40
6.0
  0
LINE
  5
141C5
  8
HIDE
 10
2219.3698020297688
 20
1670.1308142171381
 30
0.0
 11
2219.3698020297688
 21
1591.3308142171391
 31
0.0
  0
LINE
  5
141C6
  8
HIDE
 10
2219.2400116845761
 20
1666.968556240093
 30
0.0
 11
2219.3698020297688
 21
1667.098346585286
 31
0.0
  0
ARC
  5
141C7
  8
HIDE
 10
2219.9698020297692
 20
1591.3308142171391
 30
0.0
 40
0.6000000000000015
 50
180.0
 51
270.0
  0
ARC
  5
141C8
  8
HIDE
 10
2236.269802029768
 20
1591.8308142171391
 30
0.0
 40
1.1000000000000001
 50
270.0
 51
0.0
  0
ARC
  5
141C9
  8
HIDE
 10
2220.4698020297692
 20
1609.630814217139
 30
0.0
 40
1.1000000000000001
 50
90.0
 51
180.0
  0
ARC
  5
141CA
  8
HIDE
 10
2220.4698020297692
 20
1651.8308142171391
 30
0.0
 40
1.1000000000000001
 50
180.0
 51
270.0
  0
ARC
  5
141CB
  8
HIDE
 10
2236.7698020297689
 20
1610.1308142171381
 30
0.0
 40
0.6
 50
0.0
 51
90.0
  0
ARC
  5
141CC
  8
HIDE
 10
2236.7698020297689
 20
1651.3308142171391
 30
0.0
 40
0.6000000000000015
 50
270.0
 51
0.0
  0
ARC
  5
141CD
  8
HIDE
 10
2219.9698020297692
 20
1670.130814217139
 30
0.0
 40
0.6000000000000015
 50
90.0
 51
180.0
  0
ARC
  5
141CE
  8
HIDE
 10
2236.269802029768
 20
1669.6308142171381
 30
0.0
 40
1.1000000000000001
 50
0.0
 51
90.0
  0
LINE
  5
141CF
  8
HIDE
 10
2237.3698020297688
 20
1598.180814217138
 30
0.0
 11
2233.8009621268388
 21
1598.180814217138
 31
0.0
  0
LINE
  5
141D0
  8
HIDE
 10
2236.269802029768
 20
1590.730814217138
 30
0.0
 11
2219.9698020297692
 21
1590.730814217138
 31
0.0
  0
LINE
  5
141D1
  8
HIDE
 10
2219.369802029767
 20
1603.2808142171391
 30
0.0
 11
2222.9386419326988
 21
1603.2808142171391
 31
0.0
  0
LINE
  5
141D2
  8
HIDE
 10
2226.2229263855661
 20
1595.1280537396301
 30
0.0
 11
2219.369802029767
 21
1594.4808142171389
 31
0.0
  0
LINE
  5
141D3
  8
HIDE
 10
2237.3698020297688
 20
1603.2808142171391
 30
0.0
 11
2233.8009621268388
 21
1603.2808142171391
 31
0.0
  0
LINE
  5
141D4
  8
HIDE
 10
2237.3698020297688
 20
1658.180814217138
 30
0.0
 11
2233.8009621268379
 21
1658.180814217138
 31
0.0
  0
LINE
  5
141D5
  8
HIDE
 10
2236.7698020297689
 20
1610.7308142171389
 30
0.0
 11
2220.4698020297692
 21
1610.7308142171389
 31
0.0
  0
LINE
  5
141D6
  8
HIDE
 10
2236.7698020297689
 20
1650.730814217138
 30
0.0
 11
2220.4698020297692
 21
1650.730814217138
 31
0.0
  0
LINE
  5
141D7
  8
HIDE
 10
2219.3698020297688
 20
1658.180814217138
 30
0.0
 11
2222.9386419326988
 21
1658.180814217138
 31
0.0
  0
LINE
  5
141D8
  8
HIDE
 10
2237.3698020297688
 20
1663.2808142171391
 30
0.0
 11
2233.8009621268379
 21
1663.2808142171391
 31
0.0
  0
LINE
  5
141D9
  8
HIDE
 10
2219.9698020297692
 20
1670.7308142171389
 30
0.0
 11
2236.269802029768
 21
1670.7308142171389
 31
0.0
  0
LINE
  5
141DA
  8
HIDE
 10
2226.2229263855661
 20
1666.333574694647
 30
0.0
 11
2219.3698020297688
 21
1666.980814217138
 31
0.0
  0
LINE
  5
141DB
  8
HIDE
 10
2237.3698020297688
 20
1669.6308142171381
 30
0.0
 11
2237.3698020297688
 21
1591.8308142171391
 31
0.0
  0
LINE
  5
141DC
  8
HIDE
 10
2219.3698020297688
 20
1667.098346585286
 30
0.0
 11
2219.499592374963
 21
1666.968556240093
 31
0.0
  0
CIRCLE
  5
141DD
  8
HIDE
 10
2246.369802029767
 20
1600.730814217138
 30
0.0
 40
6.0
  0
CIRCLE
  5
141DE
  8
HIDE
 10
2246.369802029767
 20
1660.7308142171389
 30
0.0
 40
6.0
  0
LINE
  5
141DF
  8
HIDE
 10
2237.2400116845738
 20
1666.968556240093
 30
0.0
 11
2237.369802029767
 21
1667.098346585286
 31
0.0
  0
ARC
  5
141E0
  8
HIDE
 10
2237.9698020297678
 20
1591.3308142171391
 30
0.0
 40
0.6000000000000015
 50
180.0
 51
270.0
  0
ARC
  5
141E1
  8
HIDE
 10
2254.2698020297689
 20
1591.8308142171391
 30
0.0
 40
1.1000000000000001
 50
270.0
 51
0.0
  0
ARC
  5
141E2
  8
HIDE
 10
2238.4698020297669
 20
1609.630814217139
 30
0.0
 40
1.1000000000000001
 50
90.0
 51
180.0
  0
ARC
  5
141E3
  8
HIDE
 10
2238.4698020297692
 20
1651.8308142171391
 30
0.0
 40
1.1000000000000001
 50
180.0
 51
270.0
  0
ARC
  5
141E4
  8
HIDE
 10
2254.769802029768
 20
1610.1308142171381
 30
0.0
 40
0.6
 50
0.0
 51
90.0
  0
ARC
  5
141E5
  8
HIDE
 10
2254.769802029768
 20
1651.3308142171391
 30
0.0
 40
0.6000000000000015
 50
270.0
 51
0.0
  0
ARC
  5
141E6
  8
HIDE
 10
2237.9698020297692
 20
1670.130814217139
 30
0.0
 40
0.6000000000000015
 50
90.0
 51
180.0
  0
ARC
  5
141E7
  8
HIDE
 10
2254.2698020297689
 20
1669.6308142171381
 30
0.0
 40
1.1000000000000001
 50
0.0
 51
90.0
  0
LINE
  5
141E8
  8
HIDE
 10
2255.369802029767
 20
1598.180814217138
 30
0.0
 11
2251.8009621268379
 21
1598.180814217138
 31
0.0
  0
LINE
  5
141E9
  8
HIDE
 10
2254.2698020297689
 20
1590.730814217138
 30
0.0
 11
2237.9698020297678
 21
1590.730814217138
 31
0.0
  0
LINE
  5
141EA
  8
HIDE
 10
2237.369802029767
 20
1603.2808142171391
 30
0.0
 11
2240.938641932697
 21
1603.2808142171391
 31
0.0
  0
LINE
  5
141EB
  8
HIDE
 10
2244.2229263855638
 20
1595.1280537396301
 30
0.0
 11
2237.369802029767
 21
1594.4808142171389
 31
0.0
  0
LINE
  5
141EC
  8
HIDE
 10
2255.369802029767
 20
1603.2808142171391
 30
0.0
 11
2251.8009621268379
 21
1603.2808142171391
 31
0.0
  0
LINE
  5
141ED
  8
HIDE
 10
2255.369802029767
 20
1658.180814217138
 30
0.0
 11
2251.8009621268361
 21
1658.180814217138
 31
0.0
  0
LINE
  5
141EE
  8
HIDE
 10
2254.769802029768
 20
1610.7308142171389
 30
0.0
 11
2238.4698020297669
 21
1610.7308142171389
 31
0.0
  0
LINE
  5
141EF
  8
HIDE
 10
2254.769802029768
 20
1650.730814217138
 30
0.0
 11
2238.4698020297692
 21
1650.730814217138
 31
0.0
  0
LINE
  5
141F0
  8
HIDE
 10
2237.369802029767
 20
1658.180814217138
 30
0.0
 11
2240.938641932697
 21
1658.180814217138
 31
0.0
  0
LINE
  5
141F1
  8
HIDE
 10
2255.369802029767
 20
1663.2808142171391
 30
0.0
 11
2251.8009621268361
 21
1663.2808142171391
 31
0.0
  0
LINE
  5
141F2
  8
HIDE
 10
2237.9698020297692
 20
1670.7308142171389
 30
0.0
 11
2254.2698020297689
 21
1670.7308142171389
 31
0.0
  0
LINE
  5
141F3
  8
HIDE
 10
2244.2229263855638
 20
1666.333574694647
 30
0.0
 11
2237.369802029767
 21
1666.980814217138
 31
0.0
  0
LINE
  5
141F4
  8
HIDE
 10
2255.369802029767
 20
1669.6308142171381
 30
0.0
 11
2255.369802029767
 21
1591.8308142171391
 31
0.0
  0
LINE
  5
141F5
  8
HIDE
 10
2237.369802029767
 20
1667.098346585286
 30
0.0
 11
2237.4995923749611
 21
1666.968556240093
 31
0.0
  0
LINE
  5
141F6
  8
HIDE
 10
2255.369802029767
 20
1650.730814217138
 30
0.0
 11
2271.369802029767
 21
1650.730814217138
 31
0.0
  0
LINE
  5
141F7
  8
HIDE
 10
2255.369802029767
 20
1654.7308142171389
 30
0.0
 11
2271.369802029767
 21
1654.7308142171389
 31
0.0
  0
LINE
  5
141F8
  8
HIDE
 10
2255.369802029767
 20
1610.730814217138
 30
0.0
 11
2271.369802029767
 21
1610.7308142171389
 31
0.0
  0
LINE
  5
141F9
  8
HIDE
 10
2255.369802029767
 20
1606.730814217138
 30
0.0
 11
2271.369802029767
 21
1606.730814217138
 31
0.0
  0
LINE
  5
141FA
  8
HIDE
 10
2167.3698020297688
 20
1650.730814217138
 30
0.0
 11
2183.3698020297711
 21
1650.730814217138
 31
0.0
  0
LINE
  5
141FB
  8
HIDE
 10
2167.3698020297688
 20
1654.7308142171389
 30
0.0
 11
2183.3698020297711
 21
1654.7308142171389
 31
0.0
  0
LINE
  5
141FC
  8
HIDE
 10
2167.3698020297688
 20
1610.730814217138
 30
0.0
 11
2183.3698020297711
 21
1610.7308142171389
 31
0.0
  0
LINE
  5
141FD
  8
HIDE
 10
2167.3698020297688
 20
1606.730814217138
 30
0.0
 11
2183.3698020297711
 21
1606.730814217138
 31
0.0
  0
CIRCLE
  5
141FE
  8
HIDE
 10
2192.3698020297688
 20
1600.730814217138
 30
0.0
 40
6.0
  0
CIRCLE
  5
141FF
  8
HIDE
 10
2192.3698020297688
 20
1660.7308142171389
 30
0.0
 40
6.0
  0
ARC
  5
14200
  8
HIDE
 10
2200.7698020297689
 20
1670.1308142171381
 30
0.0
 40
0.6000000000000015
 50
0.0
 51
90.0
  0
ARC
  5
14201
  8
HIDE
 10
2184.4698020297692
 20
1669.6308142171381
 30
0.0
 40
1.1000000000000001
 50
90.0
 51
180.0
  0
ARC
  5
14202
  8
HIDE
 10
2200.2698020297689
 20
1651.8308142171379
 30
0.0
 40
1.1000000000000001
 50
270.0
 51
0.0
  0
ARC
  5
14203
  8
HIDE
 10
2200.2698020297689
 20
1609.6308142171381
 30
0.0
 40
1.1000000000000001
 50
0.0
 51
90.0
  0
ARC
  5
14204
  8
HIDE
 10
2183.9698020297692
 20
1651.3308142171391
 30
0.0
 40
0.6000000000000015
 50
180.0
 51
270.0
  0
ARC
  5
14205
  8
HIDE
 10
2183.9698020297692
 20
1610.1308142171381
 30
0.0
 40
0.6000000000000015
 50
90.0
 51
180.0
  0
ARC
  5
14206
  8
HIDE
 10
2200.7698020297689
 20
1591.3308142171391
 30
0.0
 40
0.6000000000000015
 50
270.0
 51
0.0
  0
ARC
  5
14207
  8
HIDE
 10
2184.4698020297692
 20
1591.8308142171391
 30
0.0
 40
1.1000000000000001
 50
180.0
 51
270.0
  0
LINE
  5
14208
  8
HIDE
 10
2183.3698020297688
 20
1663.2808142171391
 30
0.0
 11
2186.9386419326979
 21
1663.2808142171391
 31
0.0
  0
LINE
  5
14209
  8
HIDE
 10
2184.4698020297692
 20
1670.7308142171389
 30
0.0
 11
2200.7698020297689
 21
1670.7308142171389
 31
0.0
  0
LINE
  5
1420A
  8
HIDE
 10
2201.3698020297688
 20
1658.180814217138
 30
0.0
 11
2197.8009621268388
 21
1658.180814217138
 31
0.0
  0
LINE
  5
1420B
  8
HIDE
 10
2194.516677673972
 20
1666.333574694647
 30
0.0
 11
2201.3698020297688
 21
1666.980814217138
 31
0.0
  0
LINE
  5
1420C
  8
HIDE
 10
2183.3698020297688
 20
1658.180814217138
 30
0.0
 11
2186.9386419326979
 21
1658.180814217138
 31
0.0
  0
LINE
  5
1420D
  8
HIDE
 10
2183.3698020297688
 20
1603.2808142171391
 30
0.0
 11
2186.9386419326979
 21
1603.2808142171391
 31
0.0
  0
LINE
  5
1420E
  8
HIDE
 10
2183.9698020297692
 20
1650.730814217138
 30
0.0
 11
2200.2698020297689
 21
1650.730814217138
 31
0.0
  0
LINE
  5
1420F
  8
HIDE
 10
2183.9698020297692
 20
1610.7308142171389
 30
0.0
 11
2200.2698020297689
 21
1610.7308142171389
 31
0.0
  0
LINE
  5
14210
  8
HIDE
 10
2201.3698020297688
 20
1603.2808142171391
 30
0.0
 11
2197.8009621268388
 21
1603.2808142171391
 31
0.0
  0
LINE
  5
14211
  8
HIDE
 10
2183.3698020297688
 20
1598.180814217138
 30
0.0
 11
2186.9386419326979
 21
1598.180814217138
 31
0.0
  0
LINE
  5
14212
  8
HIDE
 10
2200.7698020297689
 20
1590.730814217138
 30
0.0
 11
2184.4698020297692
 21
1590.730814217138
 31
0.0
  0
LINE
  5
14213
  8
HIDE
 10
2194.516677673972
 20
1595.1280537396301
 30
0.0
 11
2201.3698020297688
 21
1594.4808142171389
 31
0.0
  0
LINE
  5
14214
  8
HIDE
 10
2183.3698020297688
 20
1591.8308142171391
 30
0.0
 11
2183.3698020297688
 21
1669.6308142171381
 31
0.0
  0
CIRCLE
  5
14215
  8
HIDE
 10
2210.3698020297688
 20
1600.730814217138
 30
0.0
 40
6.0
  0
CIRCLE
  5
14216
  8
HIDE
 10
2210.3698020297688
 20
1660.7308142171389
 30
0.0
 40
6.0
  0
LINE
  5
14217
  8
HIDE
 10
2201.3698020297688
 20
1670.1308142171381
 30
0.0
 11
2201.3698020297688
 21
1591.3308142171391
 31
0.0
  0
LINE
  5
14218
  8
HIDE
 10
2201.2400116845752
 20
1666.968556240093
 30
0.0
 11
2201.3698020297688
 21
1667.098346585286
 31
0.0
  0
ARC
  5
14219
  8
HIDE
 10
2201.9698020297692
 20
1591.3308142171391
 30
0.0
 40
0.6000000000000015
 50
180.0
 51
270.0
  0
ARC
  5
1421A
  8
HIDE
 10
2218.2698020297689
 20
1591.8308142171391
 30
0.0
 40
1.1000000000000001
 50
270.0
 51
0.0
  0
ARC
  5
1421B
  8
HIDE
 10
2202.4698020297692
 20
1609.630814217139
 30
0.0
 40
1.1000000000000001
 50
90.0
 51
180.0
  0
ARC
  5
1421C
  8
HIDE
 10
2202.4698020297692
 20
1651.8308142171391
 30
0.0
 40
1.1000000000000001
 50
180.0
 51
270.0
  0
ARC
  5
1421D
  8
HIDE
 10
2218.769802029768
 20
1610.1308142171381
 30
0.0
 40
0.6
 50
0.0
 51
90.0
  0
ARC
  5
1421E
  8
HIDE
 10
2218.769802029768
 20
1651.3308142171391
 30
0.0
 40
0.6000000000000015
 50
270.0
 51
0.0
  0
ARC
  5
1421F
  8
HIDE
 10
2201.9698020297692
 20
1670.130814217139
 30
0.0
 40
0.6000000000000015
 50
90.0
 51
180.0
  0
ARC
  5
14220
  8
HIDE
 10
2218.2698020297689
 20
1669.6308142171381
 30
0.0
 40
1.1000000000000001
 50
0.0
 51
90.0
  0
LINE
  5
14221
  8
HIDE
 10
2219.3698020297688
 20
1598.180814217138
 30
0.0
 11
2215.8009621268402
 21
1598.180814217138
 31
0.0
  0
LINE
  5
14222
  8
HIDE
 10
2218.2698020297689
 20
1590.730814217138
 30
0.0
 11
2201.9698020297692
 21
1590.730814217138
 31
0.0
  0
LINE
  5
14223
  8
HIDE
 10
2201.369802029767
 20
1603.2808142171391
 30
0.0
 11
2204.9386419326988
 21
1603.2808142171391
 31
0.0
  0
LINE
  5
14224
  8
HIDE
 10
2208.2229263855661
 20
1595.1280537396301
 30
0.0
 11
2201.369802029767
 21
1594.4808142171389
 31
0.0
  0
LINE
  5
14225
  8
HIDE
 10
2219.3698020297688
 20
1603.2808142171391
 30
0.0
 11
2215.8009621268402
 21
1603.2808142171391
 31
0.0
  0
LINE
  5
14226
  8
HIDE
 10
2219.3698020297688
 20
1658.180814217138
 30
0.0
 11
2215.800962126837
 21
1658.180814217138
 31
0.0
  0
LINE
  5
14227
  8
HIDE
 10
2218.769802029768
 20
1610.7308142171389
 30
0.0
 11
2202.4698020297692
 21
1610.7308142171389
 31
0.0
  0
LINE
  5
14228
  8
HIDE
 10
2218.769802029768
 20
1650.730814217138
 30
0.0
 11
2202.4698020297692
 21
1650.730814217138
 31
0.0
  0
LINE
  5
14229
  8
HIDE
 10
2201.3698020297688
 20
1658.180814217138
 30
0.0
 11
2204.9386419326988
 21
1658.180814217138
 31
0.0
  0
LINE
  5
1422A
  8
HIDE
 10
2219.3698020297688
 20
1663.2808142171391
 30
0.0
 11
2215.800962126837
 21
1663.2808142171391
 31
0.0
  0
LINE
  5
1422B
  8
HIDE
 10
2201.9698020297692
 20
1670.7308142171389
 30
0.0
 11
2218.2698020297689
 21
1670.7308142171389
 31
0.0
  0
LINE
  5
1422C
  8
HIDE
 10
2208.2229263855661
 20
1666.333574694647
 30
0.0
 11
2201.3698020297688
 21
1666.980814217138
 31
0.0
  0
LINE
  5
1422D
  8
HIDE
 10
2201.3698020297688
 20
1667.098346585286
 30
0.0
 11
2201.499592374963
 21
1666.968556240093
 31
0.0
  0
LINE
  5
1422E
  8
0
 10
2192.369802029767
 20
1570.7308142171389
 30
0.0
 11
2192.369802029767
 21
1542.730814217138
 31
0.0
  0
ARC
  5
14261
  8
0
 10
2027.9736940839609
 20
1630.7308142171389
 30
0.0
 40
75.0
 50
324.42138499997083
 51
324.48628199998677
  0
CIRCLE
  5
14262
  8
0
 10
2081.0067030839618
 20
1577.6978052171389
 30
0.0
 40
7.0
  0
ARC
  5
14263
  8
CENTER
 10
2027.9736940839609
 20
1630.7308142171389
 30
0.0
 40
75.0
 50
305.45916899997462
 51
324.42138499997083
  0
LINE
  5
14264
  8
CENTER
 10
2059.8058760839631
 20
1612.352495217139
 30
0.0
 11
2080.7058610839631
 21
1600.2858832171389
 31
0.0
  0
ARC
  5
14265
  8
CENTER
 10
2027.9736940839609
 20
1630.7308142171389
 30
0.0
 40
49.0
 50
316.03959599999507
 51
344.50192800003282
  0
LINE
  5
14266
  8
CENTER
 10
2072.1037300839612
 20
1586.600778217138
 30
0.0
 11
2091.115091083961
 21
1567.5894172171379
 31
0.0
  0
CIRCLE
  5
14267
  8
0
 10
2081.0067030839618
 20
1577.6978052171389
 30
0.0
 40
10.0
  0
CIRCLE
  5
14268
  8
0
 10
1974.9406850839621
 20
1577.6978052171389
 30
0.0
 40
7.0
  0
ARC
  5
14269
  8
CENTER
 10
2027.9736940839609
 20
1630.7308142171389
 30
0.0
 40
75.0
 50
216.10468599998759
 51
235.48657899998
  0
LINE
  5
1426A
  8
CENTER
 10
1995.5456200839619
 20
1612.0084572171379
 30
0.0
 11
1975.2364440839631
 21
1600.282948217138
 31
0.0
  0
ARC
  5
1426B
  8
CENTER
 10
2027.9736940839609
 20
1630.7308142171389
 30
0.0
 40
49.0
 50
194.7326960000037
 51
224.4949260000117
  0
LINE
  5
1426C
  8
CENTER
 10
1984.9088090839609
 20
1587.6659292171389
 30
0.0
 11
1963.5210990839621
 21
1566.2782192171389
 31
0.0
  0
CIRCLE
  5
1426D
  8
0
 10
1974.9406850839621
 20
1577.6978052171389
 30
0.0
 40
10.0
  0
LINE
  5
1426E
  8
0
 10
1963.9736940839609
 20
1570.3321392171381
 30
0.0
 11
1963.9736940839609
 21
1630.7308142171389
 31
0.0
  0
LINE
  5
1426F
  8
0
 10
2091.9736940839612
 20
1570.3321392171381
 30
0.0
 11
2091.9736940839612
 21
1630.7308142171389
 31
0.0
  0
ARC
  5
14270
  8
CENTER
 10
2027.9736940839609
 20
1630.7308142171389
 30
0.0
 40
49.0
 50
15.498071999967181
 51
43.960404000004999
  0
ARC
  5
14271
  8
CENTER
 10
2027.9736940839609
 20
1630.7308142171389
 30
0.0
 40
49.0
 50
73.787716000017625
 51
104.34297299999579
  0
ARC
  5
14272
  8
CENTER
 10
2027.9736940839609
 20
1630.7308142171389
 30
0.0
 40
49.0
 50
135.5050739999883
 51
165.2673039999963
  0
LINE
  5
14273
  8
CENTER
 10
1995.5456200839619
 20
1649.4531712171381
 30
0.0
 11
1975.2364440839631
 21
1661.1786802171389
 31
0.0
  0
LINE
  5
14274
  8
CENTER
 10
2059.8058760839631
 20
1649.1091332171379
 30
0.0
 11
2080.7058610839631
 21
1661.175745217138
 31
0.0
  0
CIRCLE
  5
14275
  8
0
 10
2027.9736940839609
 20
1630.7308142171389
 30
0.0
 40
36.0
  0
CIRCLE
  5
14276
  8
0
 10
2027.9736940839609
 20
1630.7308142171389
 30
0.0
 40
63.0
  0
ARC
  5
14277
  8
0
 10
2027.9736940839609
 20
1630.7308142171389
 30
0.0
 40
75.0
 50
35.513718000013192
 51
35.578615000029281
  0
ARC
  5
14278
  8
CENTER
 10
2027.9736940839609
 20
1630.7308142171389
 30
0.0
 40
75.0
 50
35.578615000029281
 51
54.540831000025342
  0
ARC
  5
14279
  8
CENTER
 10
2027.9736940839609
 20
1630.7308142171389
 30
0.0
 40
75.0
 50
65.229253999998463
 51
84.487400000006417
  0
ARC
  5
1427A
  8
CENTER
 10
2027.9736940839609
 20
1630.7308142171389
 30
0.0
 40
75.0
 50
95.362270000007044
 51
114.9121840000244
  0
ARC
  5
1427B
  8
CENTER
 10
2027.9736940839609
 20
1630.7308142171389
 30
0.0
 40
75.0
 50
124.51342100002
 51
143.89531400001241
  0
CIRCLE
  5
1427C
  8
0
 10
1974.9406850839621
 20
1683.763823217138
 30
0.0
 40
7.0
  0
CIRCLE
  5
1427D
  8
0
 10
1974.9406850839621
 20
1683.763823217138
 30
0.0
 40
10.0
  0
CIRCLE
  5
1427E
  8
0
 10
2008.562266083961
 20
1703.1752512171381
 30
0.0
 40
7.0
  0
CIRCLE
  5
1427F
  8
0
 10
2008.562266083961
 20
1703.1752512171381
 30
0.0
 40
10.0
  0
CIRCLE
  5
14280
  8
0
 10
2047.385122083962
 20
1703.1752512171381
 30
0.0
 40
7.0
  0
CIRCLE
  5
14281
  8
0
 10
2047.385122083962
 20
1703.1752512171381
 30
0.0
 40
10.0
  0
CIRCLE
  5
14282
  8
0
 10
2081.0067030839618
 20
1683.763823217138
 30
0.0
 40
10.0
  0
CIRCLE
  5
14283
  8
0
 10
2081.0067030839618
 20
1683.763823217138
 30
0.0
 40
7.0
  0
LINE
  5
14284
  8
CENTER
 10
2072.1037300839612
 20
1674.860850217138
 30
0.0
 11
2091.115091083961
 21
1693.8722112171381
 31
0.0
  0
LINE
  5
14285
  8
CENTER
 10
2044.078894083963
 20
1690.836239217138
 30
0.0
 11
2051.3478160839609
 21
1717.964226217139
 31
0.0
  0
LINE
  5
14286
  8
CENTER
 10
1984.9088090839609
 20
1673.795699217138
 30
0.0
 11
1963.5210990839621
 21
1695.1834092171389
 31
0.0
  0
LINE
  5
14287
  8
CENTER
 10
2012.2965990839621
 20
1689.2385292171391
 30
0.0
 11
2004.503984083962
 21
1718.320965217139
 31
0.0
  0
ARC
  5
14288
  8
0
 10
2027.9736940839609
 20
1630.7308142171389
 30
0.0
 40
88.0
 50
43.34175800003846
 51
136.65824199996149
  0
LINE
  5
14289
  8
0
 10
2091.9736940839612
 20
1691.1294892171391
 30
0.0
 11
2091.9736940839612
 21
1630.7308142171389
 31
0.0
  0
LINE
  5
1428A
  8
0
 10
1963.9736940839609
 20
1691.1294892171391
 30
0.0
 11
1963.9736940839609
 21
1630.7308142171389
 31
0.0
  0
LINE
  5
1428B
  8
CENTER
 10
1958.3381010839621
 20
1630.7308142171389
 30
0.0
 11
2098.4179840839629
 21
1630.7308142171389
 31
0.0
  0
LINE
  5
1428C
  8
CENTER
 10
2027.9736940839609
 20
1538.0820872171389
 30
0.0
 11
2027.9736940839609
 21
1723.0060302171389
 31
0.0
  0
CIRCLE
  5
1428D
  8
0
 10
2047.385122083962
 20
1558.286377217139
 30
0.0
 40
7.0
  0
LINE
  5
1428E
  8
CENTER
 10
2044.078894083963
 20
1570.6253892171389
 30
0.0
 11
2051.3478160839609
 21
1543.4974022171391
 31
0.0
  0
CIRCLE
  5
1428F
  8
0
 10
2047.385122083962
 20
1558.286377217139
 30
0.0
 40
10.0
  0
ARC
  5
14290
  8
0
 10
2027.9736940839609
 20
1630.7308142171389
 30
0.0
 40
88.0
 50
223.3417580000384
 51
316.65824199996149
  0
ARC
  5
14291
  8
CENTER
 10
2027.9736940839609
 20
1630.7308142171389
 30
0.0
 40
75.0
 50
275.5125999999936
 51
294.77074600000151
  0
ARC
  5
14292
  8
CENTER
 10
2027.9736940839609
 20
1630.7308142171389
 30
0.0
 40
49.0
 50
255.65702700000409
 51
286.21228399998239
  0
CIRCLE
  5
14293
  8
0
 10
2008.562266083961
 20
1558.286377217139
 30
0.0
 40
7.0
  0
ARC
  5
14294
  8
CENTER
 10
2027.9736940839609
 20
1630.7308142171389
 30
0.0
 40
75.0
 50
245.08781599997559
 51
264.63772999999293
  0
LINE
  5
14295
  8
CENTER
 10
2012.2965990839621
 20
1572.223099217139
 30
0.0
 11
2004.503984083962
 21
1543.1406632171379
 31
0.0
  0
CIRCLE
  5
14296
  8
0
 10
2008.562266083961
 20
1558.286377217139
 30
0.0
 40
10.0
  0
LINE
  5
142B8
  8
0
  6
CONTINUOUS
 62
     7
 10
2065.3900920839619
 20
1653.8854832171389
 30
0.0
 11
2069.0640770839609
 21
1650.211499217138
 31
0.0
  0
LINE
  5
142B9
  8
0
  6
CONTINUOUS
 62
     7
 10
2065.3900420839609
 20
1653.8855212171391
 30
0.0
 11
2066.7350020839631
 21
1658.9049882171389
 31
0.0
  0
LINE
  5
142BA
  8
0
  6
CONTINUOUS
 62
     7
 10
2066.7351660839622
 20
1658.9050142171391
 30
0.0
 11
2071.7539260839621
 21
1660.2497872171391
 31
0.0
  0
LINE
  5
142BB
  8
0
  6
CONTINUOUS
 62
     7
 10
2071.753709083961
 20
1660.2497902171381
 30
0.0
 11
2075.4283840839612
 21
1656.575115217139
 31
0.0
  0
LINE
  5
142BC
  8
0
  6
CONTINUOUS
 62
     7
 10
2074.0834760839612
 20
1651.556534217139
 30
0.0
 11
2075.428233083961
 21
1656.5752342171379
 31
0.0
  0
CIRCLE
  5
142BD
  8
0
  6
CONTINUOUS
 62
     7
 10
2070.409051083961
 20
1655.230694217139
 30
0.0
 40
9.0
  0
LINE
  5
142BE
  8
0
  6
CONTINUOUS
 62
     7
 10
2069.0640690839609
 20
1650.211556217138
 30
0.0
 11
2074.083297083962
 21
1651.556454217138
 31
0.0
  0
LINE
  5
142BF
  8
0
  6
CONTINUOUS
 62
     7
 10
2022.954847083962
 20
1678.385483217138
 30
0.0
 11
2026.6288320839631
 21
1674.7114992171389
 31
0.0
  0
LINE
  5
142C0
  8
0
  6
CONTINUOUS
 62
     7
 10
2022.9547970839631
 20
1678.3855212171379
 30
0.0
 11
2024.2997570839609
 21
1683.4049882171389
 31
0.0
  0
LINE
  5
142C1
  8
0
  6
CONTINUOUS
 62
     7
 10
2024.2999210839621
 20
1683.4050142171379
 30
0.0
 11
2029.318681083962
 21
1684.7497872171391
 31
0.0
  0
LINE
  5
142C2
  8
0
  6
CONTINUOUS
 62
     7
 10
2029.31846408396
 20
1684.749790217139
 30
0.0
 11
2032.9931390839629
 21
1681.0751152171381
 31
0.0
  0
LINE
  5
142C3
  8
0
  6
CONTINUOUS
 62
     7
 10
2031.648231083961
 20
1676.0565342171381
 30
0.0
 11
2032.9929880839629
 21
1681.075234217139
 31
0.0
  0
CIRCLE
  5
142C4
  8
0
  6
CONTINUOUS
 62
     7
 10
2027.9738060839629
 20
1679.730694217139
 30
0.0
 40
9.0
  0
LINE
  5
142C5
  8
0
  6
CONTINUOUS
 62
     7
 10
2026.6288240839619
 20
1674.7115562171391
 30
0.0
 11
2031.6480520839609
 21
1676.0564542171389
 31
0.0
  0
LINE
  5
142C6
  8
0
  6
CONTINUOUS
 62
     7
 10
1980.519602083961
 20
1653.8854832171389
 30
0.0
 11
1984.193587083962
 21
1650.211499217138
 31
0.0
  0
LINE
  5
142C7
  8
0
  6
CONTINUOUS
 62
     7
 10
1980.519552083962
 20
1653.8855212171391
 30
0.0
 11
1981.864512083961
 21
1658.9049882171389
 31
0.0
  0
LINE
  5
142C8
  8
0
  6
CONTINUOUS
 62
     7
 10
1981.8646760839611
 20
1658.9050142171391
 30
0.0
 11
1986.883436083961
 21
1660.2497872171391
 31
0.0
  0
LINE
  5
142C9
  8
0
  6
CONTINUOUS
 62
     7
 10
1986.8832190839621
 20
1660.2497902171381
 30
0.0
 11
1990.5578940839621
 21
1656.575115217139
 31
0.0
  0
LINE
  5
142CA
  8
0
  6
CONTINUOUS
 62
     7
 10
1989.212986083963
 20
1651.556534217139
 30
0.0
 11
1990.557743083961
 21
1656.5752342171379
 31
0.0
  0
CIRCLE
  5
142CB
  8
0
  6
CONTINUOUS
 62
     7
 10
1985.538561083961
 20
1655.230694217139
 30
0.0
 40
9.0
  0
LINE
  5
142CC
  8
0
  6
CONTINUOUS
 62
     7
 10
1984.193579083963
 20
1650.211556217138
 30
0.0
 11
1989.212807083961
 21
1651.556454217138
 31
0.0
  0
LINE
  5
142CD
  8
0
  6
CONTINUOUS
 62
     7
 10
2022.954847083962
 20
1583.0761452171389
 30
0.0
 11
2026.6288320839631
 21
1586.750129217138
 31
0.0
  0
LINE
  5
142CE
  8
0
  6
CONTINUOUS
 62
     7
 10
2022.9547970839631
 20
1583.0761072171381
 30
0.0
 11
2024.2997570839609
 21
1578.0566402171389
 31
0.0
  0
LINE
  5
142CF
  8
0
  6
CONTINUOUS
 62
     7
 10
2024.2999210839621
 20
1578.0566142171381
 30
0.0
 11
2029.318681083962
 21
1576.711841217139
 31
0.0
  0
LINE
  5
142D0
  8
0
  6
CONTINUOUS
 62
     7
 10
2029.31846408396
 20
1576.7118382171379
 30
0.0
 11
2032.9931390839629
 21
1580.3865132171391
 31
0.0
  0
LINE
  5
142D1
  8
0
  6
CONTINUOUS
 62
     7
 10
2031.648231083961
 20
1585.405094217138
 30
0.0
 11
2032.9929880839629
 21
1580.3863942171381
 31
0.0
  0
CIRCLE
  5
142D2
  8
0
  6
CONTINUOUS
 62
     7
 10
2027.9738060839629
 20
1581.7309342171379
 30
0.0
 40
9.0
  0
LINE
  5
142D3
  8
0
  6
CONTINUOUS
 62
     7
 10
2026.6288240839619
 20
1586.7500722171389
 30
0.0
 11
2031.6480520839609
 21
1585.4051742171389
 31
0.0
  0
LINE
  5
142D4
  8
0
  6
CONTINUOUS
 62
     7
 10
1980.519602083961
 20
1607.5761452171389
 30
0.0
 11
1984.193587083962
 21
1611.2501292171389
 31
0.0
  0
LINE
  5
142D5
  8
0
  6
CONTINUOUS
 62
     7
 10
1980.519552083962
 20
1607.5761072171381
 30
0.0
 11
1981.864512083961
 21
1602.556640217138
 31
0.0
  0
LINE
  5
142D6
  8
0
  6
CONTINUOUS
 62
     7
 10
1981.8646760839611
 20
1602.5566142171381
 30
0.0
 11
1986.883436083961
 21
1601.211841217138
 31
0.0
  0
LINE
  5
142D7
  8
0
  6
CONTINUOUS
 62
     7
 10
1986.8832190839621
 20
1601.2118382171379
 30
0.0
 11
1990.5578940839621
 21
1604.8865132171379
 31
0.0
  0
LINE
  5
142D8
  8
0
  6
CONTINUOUS
 62
     7
 10
1989.212986083963
 20
1609.9050942171391
 30
0.0
 11
1990.557743083961
 21
1604.8863942171381
 31
0.0
  0
CIRCLE
  5
142D9
  8
0
  6
CONTINUOUS
 62
     7
 10
1985.538561083961
 20
1606.2309342171379
 30
0.0
 40
9.0
  0
LINE
  5
142DA
  8
0
  6
CONTINUOUS
 62
     7
 10
1984.193579083963
 20
1611.2500722171389
 30
0.0
 11
1989.212807083961
 21
1609.9051742171389
 31
0.0
  0
LINE
  5
142DB
  8
0
  6
CONTINUOUS
 62
     7
 10
2065.3900920839619
 20
1607.5761452171389
 30
0.0
 11
2069.0640770839609
 21
1611.2501292171389
 31
0.0
  0
LINE
  5
142DC
  8
0
  6
CONTINUOUS
 62
     7
 10
2065.3900420839609
 20
1607.5761072171381
 30
0.0
 11
2066.7350020839631
 21
1602.556640217138
 31
0.0
  0
LINE
  5
142DD
  8
0
  6
CONTINUOUS
 62
     7
 10
2066.7351660839622
 20
1602.5566142171381
 30
0.0
 11
2071.7539260839621
 21
1601.211841217138
 31
0.0
  0
LINE
  5
142DE
  8
0
  6
CONTINUOUS
 62
     7
 10
2071.753709083961
 20
1601.2118382171379
 30
0.0
 11
2075.4283840839612
 21
1604.8865132171379
 31
0.0
  0
LINE
  5
142DF
  8
0
  6
CONTINUOUS
 62
     7
 10
2074.0834760839612
 20
1609.9050942171391
 30
0.0
 11
2075.428233083961
 21
1604.8863942171381
 31
0.0
  0
CIRCLE
  5
142E0
  8
0
  6
CONTINUOUS
 62
     7
 10
2070.409051083961
 20
1606.2309342171379
 30
0.0
 40
9.0
  0
LINE
  5
142E1
  8
0
  6
CONTINUOUS
 62
     7
 10
2069.0640690839609
 20
1611.2500722171389
 30
0.0
 11
2074.083297083962
 21
1609.9051742171389
 31
0.0
  0
LINE
  5
14479
  8
0
 10
2144.3698020297688
 20
1599.230814217138
 30
0.0
 11
2144.369802029762
 21
1662.230814217138
 31
0.0
  0
LINE
  5
1447A
  8
0
 10
2167.3698020297688
 20
1606.2308142171439
 30
0.0
 11
2167.3698020297688
 21
1655.2308142171339
 31
0.0
  0
LINE
  5
1447B
  8
0
 10
2166.8698020297688
 20
1599.230814217138
 30
0.0
 11
2166.8698020297688
 21
1662.230814217138
 31
0.0
  0
LINE
  5
1447C
  8
0
 10
2166.8698020297611
 20
1655.730814217151
 30
0.0
 11
2167.369802029762
 21
1655.230814217138
 31
0.0
  0
LINE
  5
1447D
  8
HIDE
 10
2167.3698020297688
 20
1650.730814217138
 30
0.0
 11
2144.369802029777
 21
1650.730814217138
 31
0.0
  0
LINE
  5
1447E
  8
HIDE
 10
2167.3698020297688
 20
1649.980814217136
 30
0.0
 11
2144.369802029777
 21
1649.9808142171401
 31
0.0
  0
LINE
  5
1447F
  8
CENTER
 10
2151.3698020297688
 20
1663.1831605971231
 30
0.0
 11
2151.3698020297688
 21
1650.730814217138
 31
0.0
  0
LINE
  5
14480
  8
HIDE
 10
2155.3698020297761
 20
1662.230814217138
 30
0.0
 11
2155.3698020297911
 21
1650.730814217136
 31
0.0
  0
LINE
  5
14481
  8
HIDE
 10
2147.3698020297761
 20
1662.230814217138
 30
0.0
 11
2147.3698020297761
 21
1650.730814217138
 31
0.0
  0
LINE
  5
14482
  8
HIDE
 10
2154.7698020297698
 20
1662.230814217138
 30
0.0
 11
2154.7698020297848
 21
1650.730814217138
 31
0.0
  0
LINE
  5
14483
  8
HIDE
 10
2147.9698020297751
 20
1662.230814217138
 30
0.0
 11
2147.9698020297678
 21
1650.730814217138
 31
0.0
  0
LINE
  5
14484
  8
HIDE
 10
2154.7698020297698
 20
1651.730814217138
 30
0.0
 11
2147.9698020297678
 21
1651.730814217138
 31
0.0
  0
LINE
  5
14485
  8
HIDE
 10
2154.7698020297698
 20
1651.730814217138
 30
0.0
 11
2155.3698020297761
 21
1652.770044701675
 31
0.0
  0
LINE
  5
14486
  8
HIDE
 10
2147.9698020297678
 20
1651.730814217138
 30
0.0
 11
2147.3698020297761
 21
1652.770044701675
 31
0.0
  0
LINE
  5
14487
  8
HIDE
 10
2155.3698020297761
 20
1652.770044701675
 30
0.0
 11
2147.3698020297761
 21
1652.770044701675
 31
0.0
  0
LINE
  5
14488
  8
HIDE
 10
2155.3698020297761
 20
1660.770044701675
 30
0.0
 11
2147.3698020297761
 21
1660.770044701675
 31
0.0
  0
LINE
  5
14489
  8
0
 10
2166.8698020297688
 20
1662.230814217138
 30
0.0
 11
2144.369802029762
 21
1662.230814217138
 31
0.0
  0
LINE
  5
1448A
  8
0
 10
2166.8698020297611
 20
1605.730814217125
 30
0.0
 11
2167.369802029762
 21
1606.230814217138
 31
0.0
  0
LINE
  5
1448B
  8
0
 10
2166.8698020297688
 20
1599.230814217138
 30
0.0
 11
2144.369802029762
 21
1599.230814217138
 31
0.0
  0
LINE
  5
1448C
  8
HIDE
 10
2167.3698020297688
 20
1610.730814217138
 30
0.0
 11
2144.369802029777
 21
1610.7308142171339
 31
0.0
  0
LINE
  5
1448D
  8
HIDE
 10
2167.3698020297688
 20
1611.4808142171401
 30
0.0
 11
2144.369802029777
 21
1611.480814217133
 31
0.0
  0
LINE
  5
1448E
  8
CENTER
 10
2151.3698020297688
 20
1598.2784678371511
 30
0.0
 11
2151.3698020297688
 21
1610.730814217136
 31
0.0
  0
LINE
  5
1448F
  8
HIDE
 10
2155.3698020297761
 20
1599.230814217136
 30
0.0
 11
2155.3698020297911
 21
1610.730814217138
 31
0.0
  0
LINE
  5
14490
  8
HIDE
 10
2147.3698020297761
 20
1599.2308142171339
 30
0.0
 11
2147.3698020297761
 21
1610.7308142171339
 31
0.0
  0
LINE
  5
14491
  8
HIDE
 10
2154.7698020297698
 20
1599.230814217136
 30
0.0
 11
2154.7698020297848
 21
1610.730814217136
 31
0.0
  0
LINE
  5
14492
  8
HIDE
 10
2147.9698020297751
 20
1599.2308142171339
 30
0.0
 11
2147.9698020297678
 21
1610.7308142171339
 31
0.0
  0
LINE
  5
14493
  8
HIDE
 10
2154.7698020297698
 20
1609.730814217136
 30
0.0
 11
2147.9698020297678
 21
1609.7308142171339
 31
0.0
  0
LINE
  5
14494
  8
HIDE
 10
2154.7698020297698
 20
1609.730814217136
 30
0.0
 11
2155.3698020297761
 21
1608.6915837325989
 31
0.0
  0
LINE
  5
14495
  8
HIDE
 10
2147.9698020297678
 20
1609.7308142171339
 30
0.0
 11
2147.3698020297761
 21
1608.6915837325971
 31
0.0
  0
LINE
  5
14496
  8
HIDE
 10
2155.3698020297761
 20
1608.6915837325989
 30
0.0
 11
2147.3698020297761
 21
1608.6915837325971
 31
0.0
  0
LINE
  5
14497
  8
HIDE
 10
2155.3698020297761
 20
1600.6915837325989
 30
0.0
 11
2147.3698020297761
 21
1600.6915837325971
 31
0.0
  0
LINE
  5
1449E
  8
0
 10
2167.3698020297688
 20
1654.7308142171389
 30
0.0
 11
2167.3698020297688
 21
1606.730814217138
 31
0.0
  0
LINE
  5
145BC
  8
CENTER
 10
1993.6338013222951
 20
1630.7308142171389
 30
0.0
 11
2062.313586845627
 21
1630.7308142171389
 31
0.0
  0
LINE
  5
145BD
  8
0
 10
2032.1005333807659
 20
1599.502314454606
 30
0.0
 11
2059.2021938465082
 21
1626.603974920353
 31
0.0
  0
LINE
  5
145BE
  8
0
 10
1996.745194321443
 20
1634.8576535139421
 30
0.0
 11
2023.8468547871489
 21
1661.959313979665
 31
0.0
  0
LINE
  5
145BF
  8
CENTER
 10
2027.9736940839609
 20
1596.3909214554731
 30
0.0
 11
2027.9736940839609
 21
1665.0707069788041
 31
0.0
  0
LINE
  5
145C0
  8
0
 10
2023.846854787171
 20
1599.502314454608
 30
0.0
 11
1996.745194321443
 21
1626.603974920351
 31
0.0
  0
LINE
  5
145C1
  8
0
 10
2059.2021938465082
 20
1634.857653513938
 30
0.0
 11
2032.1005333807741
 21
1661.95931397967
 31
0.0
  0
LINE
  5
145C3
  8
HIDE
 10
2023.9736940839539
 20
1661.975813817071
 30
0.0
 11
2023.9736940839471
 21
1650.3267321593969
 31
0.0
  0
LINE
  5
145C4
  8
HIDE
 10
2031.9736940839539
 20
1661.975813817076
 30
0.0
 11
2031.9736940839539
 21
1650.326732159408
 31
0.0
  0
LINE
  5
145C5
  8
HIDE
 10
2024.5736940839599
 20
1662.0467845837079
 30
0.0
 11
2024.573694083952
 21
1650.439695463923
 31
0.0
  0
LINE
  5
145C6
  8
HIDE
 10
2031.3736940839401
 20
1662.0467845837129
 30
0.0
 11
2031.3736940839631
 21
1650.439695463928
 31
0.0
  0
LINE
  5
145C7
  8
HIDE
 10
2024.5736940839599
 20
1651.730814217138
 30
0.0
 11
2031.3736940839631
 21
1651.730814217138
 31
0.0
  0
LINE
  5
145C8
  8
HIDE
 10
2024.5736940839599
 20
1651.730814217138
 30
0.0
 11
2023.9736940839539
 21
1652.7700447016759
 31
0.0
  0
LINE
  5
145C9
  8
HIDE
 10
2031.3736940839631
 20
1651.730814217138
 30
0.0
 11
2031.9736940839539
 21
1652.7700447016759
 31
0.0
  0
LINE
  5
145CA
  8
HIDE
 10
2023.9736940839539
 20
1652.7700447016759
 30
0.0
 11
2031.9736940839539
 21
1652.7700447016759
 31
0.0
  0
LINE
  5
145CB
  8
HIDE
 10
2023.9736940839539
 20
1660.7700447016759
 30
0.0
 11
2031.9736940839539
 21
1660.7700447016759
 31
0.0
  0
ARC
  5
145CC
  8
0
 10
2027.973694083975
 20
1630.7308142171389
 30
0.0
 40
31.5
 50
82.471995182697356
 51
97.52800481730263
  0
ARC
  5
145CD
  8
0
 10
2027.973694083975
 20
1630.7308142171389
 30
0.0
 40
31.5
 50
172.4719951827889
 51
187.5280048172111
  0
ARC
  5
145CE
  8
0
 10
2027.973694083975
 20
1630.7308142171389
 30
0.0
 40
31.5
 50
262.4719951826973
 51
277.52800481730259
  0
ARC
  5
145CF
  8
0
 10
2027.973694083975
 20
1630.7308142171389
 30
0.0
 40
31.5
 50
352.47199518278887
 51
7.5280048172111238
  0
CIRCLE
  5
145D0
  8
0
 10
2027.973694083975
 20
1630.7308142171389
 30
0.0
 40
24.5
  0
LINE
  5
145D7
  8
HIDE
 10
2023.973694083925
 20
1599.485814617228
 30
0.0
 11
2023.9736940839321
 21
1614.4654368775521
 31
0.0
  0
LINE
  5
145D8
  8
HIDE
 10
2031.973694083925
 20
1599.485814617213
 30
0.0
 11
2031.9736940839391
 21
1614.465436877535
 31
0.0
  0
LINE
  5
145D9
  8
HIDE
 10
2024.5736940839299
 20
1599.414843850589
 30
0.0
 11
2024.5736940839381
 21
1614.3295185366351
 31
0.0
  0
LINE
  5
145DA
  8
HIDE
 10
2031.373694083911
 20
1599.4148438505761
 30
0.0
 11
2031.3736940839549
 21
1614.3295185366269
 31
0.0
  0
LINE
  5
145DB
  8
HIDE
 10
2024.5736940839381
 20
1609.7308142171589
 30
0.0
 11
2031.3736940839401
 21
1609.730814217151
 31
0.0
  0
LINE
  5
145DC
  8
HIDE
 10
2024.5736940839381
 20
1609.7308142171589
 30
0.0
 11
2023.9736940839321
 21
1608.691583732623
 31
0.0
  0
LINE
  5
145DD
  8
HIDE
 10
2031.3736940839401
 20
1609.730814217151
 30
0.0
 11
2031.9736940839321
 21
1608.6915837326139
 31
0.0
  0
LINE
  5
145DE
  8
HIDE
 10
2023.9736940839321
 20
1608.691583732623
 30
0.0
 11
2031.9736940839321
 21
1608.6915837326139
 31
0.0
  0
LINE
  5
145DF
  8
HIDE
 10
2023.973694083925
 20
1600.691583732623
 30
0.0
 11
2031.973694083925
 21
1600.6915837326139
 31
0.0
  0
ARC
  5
145E0
  8
HIDE
 10
2027.973694083975
 20
1630.7308142171389
 30
0.0
 40
20.0
 50
270.0
 51
180.0
  0
CIRCLE
  5
145E1
  8
0
 10
2027.973694083975
 20
1630.7308142171401
 30
0.0
 40
19.25
  0
ENDSEC
  0
EOF
