  0
SECTION
  2
HEADER
  9
$ACADVER
  1
AC1009
  9
$INSBASE
 10
0.0
 20
0.0
 30
0.0
  9
$EXTMIN
 10
2046.3653312498479
 20
1531.530809788886
 30
0.0
  9
$EXTMAX
 10
2224.565331249848
 20
1657.530809788886
 30
0.0
  9
$LIMMIN
 10
0.0
 20
0.0
  9
$LIMMAX
 10
12.0
 20
9.0
  9
$ORTHOMODE
 70
     0
  9
$REGENMODE
 70
     1
  9
$FILLMODE
 70
     1
  9
$QTEXTMODE
 70
     0
  9
$MIRRTEXT
 70
     0
  9
$DRAGMODE
 70
     2
  9
$LTSCALE
 40
5.0
  9
$OSMODE
 70
  2239
  9
$ATTMODE
 70
     1
  9
$TEXTSIZE
 40
2.5
  9
$TRACEWID
 40
0.05
  9
$TEXTSTYLE
  7
BIG
  9
$CLAYER
  8
0
  9
$CELTYPE
  6
BYLAYER
  9
$CECOLOR
 62
   256
  9
$DIMSCALE
 40
1.0
  9
$DIMASZ
 40
3.0
  9
$DIMEXO
 40
1.0
  9
$DIMDLI
 40
0.0
  9
$DIMRND
 40
0.0
  9
$DIMDLE
 40
0.0
  9
$DIMEXE
 40
1.0
  9
$DIMTP
 40
0.0
  9
$DIMTM
 40
0.0
  9
$DIMTXT
 40
3.0
  9
$DIMCEN
 40
0.0
  9
$DIMTSZ
 40
0.0
  9
$DIMTOL
 70
     0
  9
$DIMLIM
 70
     0
  9
$DIMTIH
 70
     0
  9
$DIMTOH
 70
     0
  9
$DIMSE1
 70
     0
  9
$DIMSE2
 70
     0
  9
$DIMTAD
 70
     1
  9
$DIMZIN
 70
     8
  9
$DIMBLK
  1

  9
$DIMASO
 70
     1
  9
$DIMSHO
 70
     1
  9
$DIMPOST
  1

  9
$DIMAPOST
  1

  9
$DIMALT
 70
     0
  9
$DIMALTD
 70
     2
  9
$DIMALTF
 40
25.399999999999999
  9
$DIMLFAC
 40
1.0
  9
$DIMTOFL
 70
     1
  9
$DIMTVP
 40
0.0
  9
$DIMTIX
 70
     1
  9
$DIMSOXD
 70
     0
  9
$DIMSAH
 70
     0
  9
$DIMBLK1
  1

  9
$DIMBLK2
  1

  9
$DIMSTYLE
  2
DUKITEC
  9
$DIMCLRD
 70
     5
  9
$DIMCLRE
 70
     5
  9
$DIMCLRT
 70
     0
  9
$DIMTFAC
 40
1.0
  9
$DIMGAP
 40
1.0
  9
$LUNITS
 70
     2
  9
$LUPREC
 70
     4
  9
$SKETCHINC
 40
0.1
  9
$FILLETRAD
 40
0.2
  9
$AUNITS
 70
     0
  9
$AUPREC
 70
     0
  9
$MENU
  1
.
  9
$ELEVATION
 40
0.0
  9
$PELEVATION
 40
0.0
  9
$THICKNESS
 40
0.0
  9
$LIMCHECK
 70
     0
  9
$BLIPMODE
 70
     0
  9
$CHAMFERA
 40
0.5
  9
$CHAMFERB
 40
0.5
  9
$SKPOLY
 70
     0
  9
$TDCREATE
 40
2454396.73183684
  9
$TDUPDATE
 40
2456630.7240369101
  9
$TDINDWG
 40
0.0056025926
  9
$TDUSRTIMER
 40
0.005602338
  9
$USRTIMER
 70
     1
  9
$ANGBASE
 50
0.0
  9
$ANGDIR
 70
     0
  9
$PDMODE
 70
     0
  9
$PDSIZE
 40
0.0
  9
$PLINEWID
 40
0.0
  9
$COORDS
 70
     1
  9
$SPLFRAME
 70
     0
  9
$SPLINETYPE
 70
     6
  9
$SPLINESEGS
 70
     8
  9
$ATTDIA
 70
     0
  9
$ATTREQ
 70
     1
  9
$HANDLING
 70
     1
  9
$HANDSEED
  5
14373
  9
$SURFTAB1
 70
     6
  9
$SURFTAB2
 70
     6
  9
$SURFTYPE
 70
     6
  9
$SURFU
 70
     6
  9
$SURFV
 70
     6
  9
$UCSNAME
  2

  9
$UCSORG
 10
0.0
 20
0.0
 30
0.0
  9
$UCSXDIR
 10
1.0
 20
0.0
 30
0.0
  9
$UCSYDIR
 10
0.0
 20
1.0
 30
0.0
  9
$PUCSNAME
  2

  9
$PUCSORG
 10
0.0
 20
0.0
 30
0.0
  9
$PUCSXDIR
 10
1.0
 20
0.0
 30
0.0
  9
$PUCSYDIR
 10
0.0
 20
1.0
 30
0.0
  9
$USERI1
 70
     0
  9
$USERI2
 70
     0
  9
$USERI3
 70
     0
  9
$USERI4
 70
     0
  9
$USERI5
 70
     0
  9
$USERR1
 40
0.0
  9
$USERR2
 40
0.0
  9
$USERR3
 40
0.0
  9
$USERR4
 40
0.0
  9
$USERR5
 40
0.0
  9
$WORLDVIEW
 70
     1
  9
$SHADEDGE
 70
     3
  9
$SHADEDIF
 70
    70
  9
$TILEMODE
 70
     1
  9
$MAXACTVP
 70
    64
  9
$PLIMCHECK
 70
     0
  9
$PEXTMIN
 10
0.0
 20
0.0
 30
0.0
  9
$PEXTMAX
 10
0.0
 20
0.0
 30
0.0
  9
$PLIMMIN
 10
0.0
 20
0.0
  9
$PLIMMAX
 10
12.0
 20
9.0
  9
$UNITMODE
 70
     0
  9
$VISRETAIN
 70
     1
  9
$PLINEGEN
 70
     0
  9
$PSLTSCALE
 70
     1
  0
ENDSEC
  0
SECTION
  2
TABLES
  0
TABLE
  2
VPORT
 70
     1
  0
VPORT
  2
*ACTIVE
 70
     0
 10
0.0
 20
0.0
 11
1.0
 21
1.0
 12
2129.6004720542719
 22
1604.258136642374
 13
0.0
 23
0.0
 14
0.5
 24
0.5
 15
0.5
 25
0.5
 16
0.0
 26
0.0
 36
1.0
 17
0.0
 27
0.0
 37
0.0
 40
125.4561190730487
 41
2.1408934707903771
 42
50.0
 43
0.0
 44
0.0
 50
0.0
 51
0.0
 71
     0
 72
  2000
 73
     1
 74
     3
 75
     0
 76
     0
 77
     0
 78
     0
  0
ENDTAB
  0
TABLE
  2
LTYPE
 70
     5
  0
LTYPE
  2
CONTINUOUS
 70
     0
  3
Solid line
 72
    65
 73
     0
 40
0.0
  0
LTYPE
  2
PHANTOM2
 70
     0
  3
Phantom (.5x) ___ _ _ ___ _ _ ___ _ _ ___ _ _
 72
    65
 73
     6
 40
1.25
 49
0.625
 49
-0.125
 49
0.125
 49
-0.125
 49
0.125
 49
-0.125
  0
LTYPE
  2
CENTER
 70
     0
  3
___ _ ___ _ ___ _ ___ _ ___ _ ___ _ ___ _ ___ _
 72
    65
 73
     4
 40
0.95
 49
0.625
 49
-0.125
 49
0.075
 49
-0.125
  0
LTYPE
  2
DASHED2
 70
     0
  3
Dashed (.5x) _ _ _ _ _ _ _ _ _ _ _ _ _ _ _ _ _
 72
    65
 73
     2
 40
0.375
 49
0.25
 49
-0.125
  0
ENDTAB
  0
TABLE
  2
LAYER
 70
     3
  0
LAYER
  2
0
 70
     0
 62
     7
  6
CONTINUOUS
  0
LAYER
  2
HIDE
 70
     0
 62
     1
  6
DASHED2
  0
LAYER
  2
CENTER
 70
     0
 62
     3
  6
CENTER
  0
ENDTAB
  0
TABLE
  2
STYLE
 70
     2
  0
STYLE
  2
STANDARD
 70
     0
 40
5.0
 41
1.0
 50
0.0
 71
     0
 42
5.0
  3
txt.shx
  4
whgtxt.shx
  0
STYLE
  2
BIG
 70
     0
 40
20.0
 41
1.0
 50
0.0
 71
     0
 42
2.5
  3
txt
  4

  0
ENDTAB
  0
TABLE
  2
VIEW
 70
     0
  0
ENDTAB
  0
TABLE
  2
UCS
 70
     0
  0
ENDTAB
  0
TABLE
  2
APPID
 70
    11
  0
APPID
  2
ACAD
 70
     0
  0
APPID
  2
ACADANNOTATIVE
 70
     0
  0
APPID
  2
ACAD_EXEMPT_FROM_CAD_STANDARDS
 70
     0
  0
APPID
  2
ACAD_DSTYLE_DIMJOGGED_JOGA
 70
     0
  0
APPID
  2
ACAD_PSEXT
 70
     0
  0
APPID
  2
ACAECLAYERSTANDARD
 70
     0
  0
APPID
  2
DCO15
 70
     0
  0
APPID
  2
CONTENTBLOCKICON
 70
     0
  0
APPID
  2
ACAD_DSTYLE_DIMRADIAL_EXTENSION
 70
     0
  0
APPID
  2
ACAD_NAV_VCDISPLAY
 70
     0
  0
APPID
  2
ACAD_MLEADERVER
 70
     0
  0
ENDTAB
  0
TABLE
  2
DIMSTYLE
 70
     2
  0
DIMSTYLE
  2
DUKITEC
 70
     0
  3

  4

  5

  6

  7

 40
1.0
 41
3.0
 42
1.0
 43
0.0
 44
1.0
 45
0.0
 46
0.0
 47
0.0
 48
0.0
140
3.0
141
0.0
142
0.0
143
25.399999999999999
144
1.0
145
0.0
146
1.0
147
1.0
 71
     0
 72
     0
 73
     0
 74
     0
 75
     0
 76
     0
 77
     1
 78
     8
170
     0
171
     2
172
     1
173
     0
174
     1
175
     0
176
     5
177
     5
178
     0
  0
ENDTAB
  0
ENDSEC
  0
SECTION
  2
BLOCKS
  0
BLOCK
  8
0
  2
$MODEL_SPACE
 70
     0
 10
0.0
 20
0.0
 30
0.0
  3
$MODEL_SPACE
  1

  0
ENDBLK
  5
14075
  8
0
  0
BLOCK
 67
     1
  8
0
  2
$PAPER_SPACE
 70
     0
 10
0.0
 20
0.0
 30
0.0
  3
$PAPER_SPACE
  1

  0
ENDBLK
  5
14071
 67
     1
  8
0
  0
ENDSEC
  0
SECTION
  2
ENTITIES
  0
POLYLINE
  5
13E1C
  8
0
 66
     1
 10
0.0
 20
0.0
 30
0.0
 70
     1
  0
VERTEX
  5
1432F
  8
0
 10
2046.3653312498479
 20
1531.530809788886
 30
0.0
  0
VERTEX
  5
14330
  8
0
 10
2046.3653312498479
 20
1657.530809788886
 30
0.0
  0
VERTEX
  5
14331
  8
0
 10
2224.565331249848
 20
1657.530809788886
 30
0.0
  0
VERTEX
  5
14332
  8
0
 10
2224.565331249848
 20
1531.530809788886
 30
0.0
  0
VERTEX
  5
14333
  8
0
 10
2046.3653312498479
 20
1531.530809788886
 30
0.0
  0
SEQEND
  5
14334
  8
0
  0
TEXT
  5
13FE2
  8
0
 10
2080.1465337468799
 20
1557.507999966029
 30
0.0
 40
20.0
  1
FK 4 P5
  7
BIG
  0
ARC
  5
140BA
  8
CENTER
 10
2106.04512410198
 20
1615.4406990185309
 30
0.0
 40
12.0
 50
68.893021000000644
 51
109.8171169999938
  0
ARC
  5
140BB
  8
CENTER
 10
2106.04512410198
 20
1615.4406990185309
 30
0.0
 40
12.0
 50
339.32215999998812
 51
20.04079699999248
  0
ARC
  5
140BC
  8
CENTER
 10
2106.04512410198
 20
1615.4406990185309
 30
0.0
 40
12.0
 50
249.7172929999895
 51
289.54653200000843
  0
ARC
  5
140BD
  8
CENTER
 10
2106.04512410198
 20
1615.4406990185309
 30
0.0
 40
12.0
 50
160.33437300001069
 51
198.8802669999981
  0
ARC
  5
140BE
  8
0
 10
2106.04512410198
 20
1615.4406990185309
 30
0.0
 40
16.0
 50
263.6248400000166
 51
276.37516999999508
  0
ARC
  5
140BF
  8
0
 10
2106.04512410198
 20
1615.4406990185309
 30
0.0
 40
16.0
 50
353.62483000000492
 51
6.375167000010002
  0
ARC
  5
140C0
  8
0
 10
2106.04512410198
 20
1615.4406990185309
 30
0.0
 40
16.0
 50
173.62483000000489
 51
186.37516999999511
  0
CIRCLE
  5
140C1
  8
0
 10
2094.04512410198
 20
1615.4406990185309
 30
0.0
 40
1.7
  0
CIRCLE
  5
140C2
  8
0
 10
2106.04512410198
 20
1627.4406990185309
 30
0.0
 40
1.7
  0
CIRCLE
  5
140C3
  8
0
 10
2118.04512410198
 20
1615.4406990185309
 30
0.0
 40
1.7
  0
CIRCLE
  5
140C4
  8
0
 10
2106.04512410198
 20
1603.4406990185309
 30
0.0
 40
1.7
  0
CIRCLE
  5
140C5
  8
0
 10
2106.04512410198
 20
1603.4406990185309
 30
0.0
 40
3.25
  0
CIRCLE
  5
140C6
  8
0
 10
2094.04512410198
 20
1615.4406990185309
 30
0.0
 40
3.25
  0
CIRCLE
  5
140C7
  8
0
 10
2106.04512410198
 20
1627.4406990185309
 30
0.0
 40
3.25
  0
CIRCLE
  5
140C8
  8
0
 10
2118.04512410198
 20
1615.4406990185309
 30
0.0
 40
3.25
  0
LINE
  5
140CA
  8
0
 10
2104.268512101979
 20
1599.539641018531
 30
0.0
 11
2090.144072101979
 21
1613.664082018531
 31
0.0
  0
LINE
  5
140CB
  8
CENTER
 10
2106.04512410198
 20
1633.4407070185309
 30
0.0
 11
2106.04512410198
 21
1597.4407030185309
 31
0.0
  0
LINE
  5
140CC
  8
CENTER
 10
2088.0051151019802
 20
1615.4406990185309
 30
0.0
 11
2124.0851331019799
 21
1615.4406990185309
 31
0.0
  0
LINE
  5
140CD
  8
0
 10
2104.26852310198
 20
1631.341762018531
 30
0.0
 11
2090.144072101979
 21
1617.2173110185311
 31
0.0
  0
LINE
  5
140CE
  8
0
 10
2121.94619310198
 20
1613.664093018531
 30
0.0
 11
2107.82174110198
 21
1599.539641018531
 31
0.0
  0
LINE
  5
140CF
  8
0
 10
2121.94618210198
 20
1617.2173110185311
 30
0.0
 11
2107.82174110198
 21
1631.3417510185311
 31
0.0
  0
ARC
  5
140D0
  8
0
 10
2106.04512410198
 20
1615.4406990185309
 30
0.0
 40
16.0
 50
83.624833999994621
 51
96.375163999998989
  0
LINE
  5
140D1
  8
0
 10
2107.572860707382
 20
1609.8973738120701
 30
0.0
 11
2111.5884553084388
 21
1613.912968413124
 31
0.0
  0
LINE
  5
140D2
  8
0
 10
2100.5017928955208
 20
1616.9684416239361
 30
0.0
 11
2104.5173874965722
 21
1620.984036224989
 31
0.0
  0
LINE
  5
140D3
  8
0
 10
2100.5017928955199
 20
1613.912968413121
 30
0.0
 11
2104.5173874965722
 21
1609.8973738120719
 31
0.0
  0
LINE
  5
140D4
  8
0
 10
2107.572860707387
 20
1620.9840362249879
 30
0.0
 11
2111.5884553084388
 21
1616.968441623935
 31
0.0
  0
ARC
  5
140D5
  8
0
 10
2106.0451241019791
 20
1615.44070501853
 30
0.0
 40
5.75
 50
164.5918457939751
 51
195.4081542060249
  0
ARC
  5
140D6
  8
0
 10
2106.0451241019791
 20
1615.44070501853
 30
0.0
 40
5.75
 50
254.5918457939465
 51
285.4081542060535
  0
ARC
  5
140D7
  8
0
 10
2106.0451241019791
 20
1615.44070501853
 30
0.0
 40
5.75
 50
344.59184579391791
 51
15.408154206024911
  0
ARC
  5
140D8
  8
0
 10
2106.0451241019791
 20
1615.44070501853
 30
0.0
 40
5.75
 50
74.591845793975097
 51
105.4081542060249
  0
ARC
  5
140D9
  8
HIDE
 10
2106.04512410198
 20
1615.44070501853
 30
0.0
 40
2.0
 50
270.0
 51
180.0
  0
LINE
  5
140DA
  8
HIDE
 10
2107.0451241019791
 20
1616.8768456801661
 30
0.0
 11
2107.04512410198
 21
1621.103080844983
 31
0.0
  0
LINE
  5
140DB
  8
HIDE
 10
2105.04512410198
 20
1616.8768456801649
 30
0.0
 11
2105.04512410198
 21
1621.103080844983
 31
0.0
  0
LINE
  5
140DC
  8
HIDE
 10
2107.3451241019789
 20
1616.612242469917
 30
0.0
 11
2107.3451241019802
 21
1621.0418209787649
 31
0.0
  0
LINE
  5
140DD
  8
HIDE
 10
2104.7451241019789
 20
1616.6122424699161
 30
0.0
 11
2104.7451241019789
 21
1621.0418209787649
 31
0.0
  0
LINE
  5
140DE
  8
HIDE
 10
2104.7451241019749
 20
1620.9517359879169
 30
0.0
 11
2107.3451241019789
 21
1620.9517359879169
 31
0.0
  0
LINE
  5
140DF
  8
HIDE
 10
2104.7451241019749
 20
1618.4517359879169
 30
0.0
 11
2107.3451241019789
 21
1618.4517359879169
 31
0.0
  0
LINE
  5
140E0
  8
HIDE
 10
2105.0390175543421
 20
1618.2766415347439
 30
0.0
 11
2104.739017554341
 21
1618.449846615501
 31
0.0
  0
LINE
  5
140E1
  8
HIDE
 10
2107.0390175543421
 20
1618.2750052902379
 30
0.0
 11
2107.3451241019802
 21
1618.4517359879169
 31
0.0
  0
LINE
  5
140E2
  8
HIDE
 10
2105.0390175543421
 20
1618.2766415347439
 30
0.0
 11
2107.0390175543421
 21
1618.2750052902379
 31
0.0
  0
CIRCLE
  5
140E3
  8
0
 10
2106.04512410198
 20
1615.44070501853
 30
0.0
 40
1.75
  0
LINE
  5
140E6
  8
HIDE
 10
2158.4931620875
 20
1630.6906990185309
 30
0.0
 11
2158.4931620875
 21
1624.1906990185309
 31
0.0
  0
LINE
  5
140E7
  8
HIDE
 10
2154.4931620874991
 20
1624.1906990185309
 30
0.0
 11
2158.4931620875
 21
1624.1906990185309
 31
0.0
  0
LINE
  5
140E8
  8
HIDE
 10
2158.4931620875
 20
1625.7406990185309
 30
0.0
 11
2160.4931620875
 21
1625.7406990185309
 31
0.0
  0
LINE
  5
140E9
  8
HIDE
 10
2158.4931620875
 20
1629.140699018531
 30
0.0
 11
2160.4931620875
 21
1629.140699018531
 31
0.0
  0
LINE
  5
140EA
  8
HIDE
 10
2154.4931620874991
 20
1630.6906990185309
 30
0.0
 11
2158.4931620875
 21
1630.6906990185309
 31
0.0
  0
LINE
  5
140EB
  8
CENTER
 10
2153.294481931388
 20
1603.4406990185309
 30
0.0
 11
2162.1807233104942
 21
1603.4406990185309
 31
0.0
  0
LINE
  5
140EC
  8
CENTER
 10
2153.294481931388
 20
1627.4406990185309
 30
0.0
 11
2162.1807233104942
 21
1627.4406990185309
 31
0.0
  0
LINE
  5
140ED
  8
0
 10
2154.4931620874991
 20
1631.4406990185309
 30
0.0
 11
2160.4931620875
 21
1631.4406990185309
 31
0.0
  0
LINE
  5
140EE
  8
0
 10
2154.4931620874991
 20
1599.4406990185309
 30
0.0
 11
2160.4931620875
 21
1599.4406990185309
 31
0.0
  0
LINE
  5
140EF
  8
CENTER
 10
2147.137086357006
 20
1615.4406990185309
 30
0.0
 11
2172.9702754641371
 21
1615.4406990185309
 31
0.0
  0
LINE
  5
140F0
  8
HIDE
 10
2153.9931620875
 20
1613.44069901853
 30
0.0
 11
2158.4931620875
 21
1613.44069901853
 31
0.0
  0
LINE
  5
140F2
  8
HIDE
 10
2153.9931620875
 20
1617.4406990185309
 30
0.0
 11
2158.4931620875
 21
1617.4406990185309
 31
0.0
  0
LINE
  5
140F4
  8
HIDE
 10
2154.4931620874991
 20
1612.5406990185311
 30
0.0
 11
2158.4931620875
 21
1612.5406990185299
 31
0.0
  0
LINE
  5
140F5
  8
HIDE
 10
2166.4931620874991
 20
1612.5406990185299
 30
0.0
 11
2169.4931620874991
 21
1612.5406990185299
 31
0.0
  0
LINE
  5
140F6
  8
HIDE
 10
2154.4931620874991
 20
1618.340699018531
 30
0.0
 11
2158.4931620875
 21
1618.340699018531
 31
0.0
  0
LINE
  5
140F7
  8
HIDE
 10
2166.4931620874991
 20
1618.340699018531
 30
0.0
 11
2169.4931620874991
 21
1618.340699018531
 31
0.0
  0
LINE
  5
140F8
  8
0
 10
2154.4931620874991
 20
1617.217310018531
 30
0.0
 11
2160.4931620875
 21
1617.217310018531
 31
0.0
  0
LINE
  5
140F9
  8
0
 10
2154.4931620874991
 20
1613.6640880185309
 30
0.0
 11
2160.4931620875
 21
1613.6640880185309
 31
0.0
  0
LINE
  5
140FA
  8
0
 10
2154.4931620874991
 20
1631.4406990185309
 30
0.0
 11
2154.4931620874991
 21
1599.4406990185309
 31
0.0
  0
LINE
  5
140FB
  8
0
 10
2169.4931620874991
 20
1624.4406990185309
 30
0.0
 11
2169.4931620874991
 21
1606.4406990185309
 31
0.0
  0
LINE
  5
140FC
  8
0
 10
2160.4931620875
 20
1631.4406990185309
 30
0.0
 11
2160.4931620875
 21
1599.4406990185309
 31
0.0
  0
LINE
  5
140FD
  8
0
 10
2169.4931620874991
 20
1606.4406990185309
 30
0.0
 11
2160.4931620875
 21
1606.4406990185309
 31
0.0
  0
LINE
  5
140FE
  8
0
 10
2169.4931620874991
 20
1624.4406990185309
 30
0.0
 11
2160.4931620875
 21
1624.4406990185309
 31
0.0
  0
LINE
  5
140FF
  8
HIDE
 10
2158.4931620875
 20
1600.1906990185309
 30
0.0
 11
2158.4931620875
 21
1606.6906990185309
 31
0.0
  0
LINE
  5
14100
  8
HIDE
 10
2154.4931620874991
 20
1606.6906990185309
 30
0.0
 11
2158.4931620875
 21
1606.6906990185309
 31
0.0
  0
LINE
  5
14101
  8
HIDE
 10
2158.4931620875
 20
1605.1406990185301
 30
0.0
 11
2160.4931620875
 21
1605.1406990185301
 31
0.0
  0
LINE
  5
14102
  8
HIDE
 10
2158.4931620875
 20
1601.7406990185309
 30
0.0
 11
2160.4931620875
 21
1601.7406990185309
 31
0.0
  0
LINE
  5
14103
  8
HIDE
 10
2154.4931620874991
 20
1600.1906990185309
 30
0.0
 11
2158.4931620875
 21
1600.1906990185309
 31
0.0
  0
LINE
  5
14104
  8
HIDE
 10
2166.4931620874991
 20
1621.2406990185309
 30
0.0
 11
2166.4931620874991
 21
1612.5406990185299
 31
0.0
  0
LINE
  5
14105
  8
HIDE
 10
2158.4931620875
 20
1618.340699018531
 30
0.0
 11
2158.4931620875
 21
1609.6406990185319
 31
0.0
  0
CIRCLE
  5
14106
  8
HIDE
 10
2160.4931620875
 20
1619.4406990185309
 30
0.0
 40
1.1999999999999991
  0
CIRCLE
  5
14107
  8
HIDE
 10
2160.4931620875
 20
1611.4406990185309
 30
0.0
 40
1.1999999999999991
  0
ARC
  5
14108
  8
HIDE
 10
2158.6931620874998
 20
1621.2406990185309
 30
0.0
 40
0.2000000000000002
 50
90.0
 51
180.0
  0
ARC
  5
14109
  8
HIDE
 10
2162.2931620875001
 20
1621.2406990185309
 30
0.0
 40
0.2000000000000002
 50
0.0
 51
90.0
  0
ARC
  5
1410A
  8
HIDE
 10
2162.2931620875001
 20
1613.2406990185309
 30
0.0
 40
0.2000000000000002
 50
0.0
 51
90.0
  0
ARC
  5
1410B
  8
HIDE
 10
2158.6931620874998
 20
1613.2406990185309
 30
0.0
 40
0.2000000000000002
 50
90.0
 51
180.0
  0
ARC
  5
1410C
  8
HIDE
 10
2162.2931620875001
 20
1617.640699018531
 30
0.0
 40
0.2
 50
270.0
 51
0.0
  0
ARC
  5
1410D
  8
HIDE
 10
2158.6931620874998
 20
1617.640699018531
 30
0.0
 40
0.2
 50
180.0
 51
270.0
  0
ARC
  5
1410E
  8
HIDE
 10
2162.2931620875001
 20
1609.6406990185319
 30
0.0
 40
0.2000000000000002
 50
270.0
 51
0.0
  0
ARC
  5
1410F
  8
HIDE
 10
2158.6931620874998
 20
1609.6406990185319
 30
0.0
 40
0.2
 50
180.0
 51
270.0
  0
LINE
  5
14110
  8
HIDE
 10
2162.4931620875
 20
1621.2406990185309
 30
0.0
 11
2162.4931620875
 21
1617.640699018531
 31
0.0
  0
LINE
  5
14111
  8
HIDE
 10
2158.6931620874998
 20
1621.4406990185309
 30
0.0
 11
2162.2931620875001
 21
1621.4406990185309
 31
0.0
  0
LINE
  5
14112
  8
HIDE
 10
2158.4931620875
 20
1617.640699018531
 30
0.0
 11
2158.4931620875
 21
1621.2406990185309
 31
0.0
  0
LINE
  5
14113
  8
HIDE
 10
2158.6531620874998
 20
1619.9156990185311
 30
0.0
 11
2159.3911752454728
 21
1619.9156990185311
 31
0.0
  0
LINE
  5
14114
  8
HIDE
 10
2161.5951489295262
 20
1619.9156990185311
 30
0.0
 11
2162.3331620874992
 21
1619.9156990185311
 31
0.0
  0
LINE
  5
14115
  8
HIDE
 10
2158.6531620874998
 20
1618.515699018531
 30
0.0
 11
2159.7287178449292
 21
1618.515699018531
 31
0.0
  0
LINE
  5
14116
  8
HIDE
 10
2161.2576063300712
 20
1618.515699018531
 30
0.0
 11
2162.3331620874992
 21
1618.515699018531
 31
0.0
  0
LINE
  5
14117
  8
HIDE
 10
2162.4931620875
 20
1609.6406990185319
 30
0.0
 11
2162.4931620875
 21
1615.4406990185309
 31
0.0
  0
LINE
  5
14118
  8
HIDE
 10
2158.4931620875
 20
1613.2406990185309
 30
0.0
 11
2158.4931620875
 21
1612.640699018531
 31
0.0
  0
LINE
  5
14119
  8
HIDE
 10
2158.4931620875
 20
1615.4406990185309
 30
0.0
 11
2158.4931620875
 21
1609.6406990185319
 31
0.0
  0
LINE
  5
1411A
  8
HIDE
 10
2158.6931620874998
 20
1617.4406990185309
 30
0.0
 11
2162.2931620875001
 21
1617.4406990185309
 31
0.0
  0
LINE
  5
1411B
  8
HIDE
 10
2158.6931620874998
 20
1613.44069901853
 30
0.0
 11
2162.2931620875001
 21
1613.44069901853
 31
0.0
  0
LINE
  5
1411C
  8
HIDE
 10
2158.6531620874998
 20
1612.3656990185309
 30
0.0
 11
2159.7287178449292
 21
1612.3656990185309
 31
0.0
  0
LINE
  5
1411D
  8
HIDE
 10
2161.2576063300712
 20
1612.3656990185309
 30
0.0
 11
2162.3331620874992
 21
1612.3656990185309
 31
0.0
  0
LINE
  5
1411E
  8
HIDE
 10
2158.4931620875
 20
1615.4406990185309
 30
0.0
 11
2158.4931620875
 21
1617.640699018531
 31
0.0
  0
LINE
  5
1411F
  8
HIDE
 10
2162.4931620875
 20
1617.640699018531
 30
0.0
 11
2162.4931620875
 21
1615.4406990185309
 31
0.0
  0
LINE
  5
14120
  8
HIDE
 10
2158.6931620874998
 20
1609.4406990185309
 30
0.0
 11
2162.2931620875001
 21
1609.4406990185309
 31
0.0
  0
LINE
  5
14121
  8
HIDE
 10
2158.6531620874998
 20
1610.965699018531
 30
0.0
 11
2159.3911752454728
 21
1610.965699018531
 31
0.0
  0
LINE
  5
14122
  8
HIDE
 10
2161.5951489295262
 20
1610.965699018531
 30
0.0
 11
2162.3331620874992
 21
1610.965699018531
 31
0.0
  0
LINE
  5
14123
  8
HIDE
 10
2158.5893808698479
 20
1617.4697327678771
 30
0.0
 11
2158.5221958368461
 21
1617.53691780088
 31
0.0
  0
CIRCLE
  5
14124
  8
HIDE
 10
2164.4931620875
 20
1619.4406990185309
 30
0.0
 40
1.1999999999999991
  0
CIRCLE
  5
14125
  8
HIDE
 10
2164.4931620875
 20
1611.4406990185309
 30
0.0
 40
1.1999999999999991
  0
ARC
  5
14126
  8
HIDE
 10
2162.6931620874998
 20
1621.2406990185309
 30
0.0
 40
0.2000000000000002
 50
90.0
 51
180.0
  0
ARC
  5
14127
  8
HIDE
 10
2166.2931620875001
 20
1621.2406990185309
 30
0.0
 40
0.2000000000000002
 50
0.0
 51
90.0
  0
ARC
  5
14128
  8
HIDE
 10
2166.2931620875001
 20
1613.2406990185309
 30
0.0
 40
0.2000000000000002
 50
0.0
 51
90.0
  0
ARC
  5
14129
  8
HIDE
 10
2162.6931620874998
 20
1613.2406990185309
 30
0.0
 40
0.2000000000000002
 50
90.0
 51
180.0
  0
ARC
  5
1412A
  8
HIDE
 10
2166.2931620875001
 20
1617.640699018531
 30
0.0
 40
0.2
 50
270.0
 51
0.0
  0
ARC
  5
1412B
  8
HIDE
 10
2162.6931620874998
 20
1617.640699018531
 30
0.0
 40
0.2
 50
180.0
 51
270.0
  0
ARC
  5
1412C
  8
HIDE
 10
2166.2931620875001
 20
1609.6406990185319
 30
0.0
 40
0.2000000000000002
 50
270.0
 51
0.0
  0
ARC
  5
1412D
  8
HIDE
 10
2162.6931620874998
 20
1609.6406990185319
 30
0.0
 40
0.2
 50
180.0
 51
270.0
  0
LINE
  5
1412E
  8
HIDE
 10
2166.4931620875
 20
1621.2406990185309
 30
0.0
 11
2166.4931620874991
 21
1617.640699018531
 31
0.0
  0
LINE
  5
1412F
  8
HIDE
 10
2162.6931620874998
 20
1621.4406990185309
 30
0.0
 11
2166.2931620875001
 21
1621.4406990185309
 31
0.0
  0
LINE
  5
14130
  8
HIDE
 10
2162.4931620875
 20
1617.640699018531
 30
0.0
 11
2162.4931620875
 21
1621.2406990185309
 31
0.0
  0
LINE
  5
14131
  8
HIDE
 10
2162.6531620874998
 20
1619.9156990185311
 30
0.0
 11
2163.3911752454728
 21
1619.9156990185311
 31
0.0
  0
LINE
  5
14132
  8
HIDE
 10
2165.5951489295262
 20
1619.9156990185311
 30
0.0
 11
2166.3331620875001
 21
1619.9156990185311
 31
0.0
  0
LINE
  5
14133
  8
HIDE
 10
2162.6531620874998
 20
1618.515699018531
 30
0.0
 11
2163.7287178449292
 21
1618.515699018531
 31
0.0
  0
LINE
  5
14134
  8
HIDE
 10
2165.2576063300712
 20
1618.515699018531
 30
0.0
 11
2166.3331620875001
 21
1618.515699018531
 31
0.0
  0
LINE
  5
14135
  8
HIDE
 10
2166.4931620874991
 20
1612.640699018531
 30
0.0
 11
2166.4931620874991
 21
1613.2406990185309
 31
0.0
  0
LINE
  5
14136
  8
HIDE
 10
2166.4931620874991
 20
1609.6406990185319
 30
0.0
 11
2166.4931620874991
 21
1615.4406990185309
 31
0.0
  0
LINE
  5
14137
  8
HIDE
 10
2162.4931620875
 20
1615.4406990185309
 30
0.0
 11
2162.4931620875
 21
1609.6406990185319
 31
0.0
  0
LINE
  5
14138
  8
HIDE
 10
2162.6931620874998
 20
1617.4406990185309
 30
0.0
 11
2166.2931620875001
 21
1617.4406990185309
 31
0.0
  0
LINE
  5
14139
  8
HIDE
 10
2162.6931620874998
 20
1613.44069901853
 30
0.0
 11
2166.2931620875001
 21
1613.44069901853
 31
0.0
  0
LINE
  5
1413A
  8
HIDE
 10
2162.6531620874998
 20
1612.3656990185309
 30
0.0
 11
2163.7287178449292
 21
1612.3656990185309
 31
0.0
  0
LINE
  5
1413B
  8
HIDE
 10
2165.2576063300712
 20
1612.3656990185309
 30
0.0
 11
2166.3331620875001
 21
1612.3656990185309
 31
0.0
  0
LINE
  5
1413C
  8
HIDE
 10
2162.4931620875
 20
1615.4406990185309
 30
0.0
 11
2162.4931620875
 21
1617.640699018531
 31
0.0
  0
LINE
  5
1413D
  8
HIDE
 10
2166.4931620874991
 20
1617.640699018531
 30
0.0
 11
2166.4931620874991
 21
1615.4406990185309
 31
0.0
  0
LINE
  5
1413E
  8
HIDE
 10
2162.6931620874998
 20
1609.4406990185309
 30
0.0
 11
2166.2931620875001
 21
1609.4406990185309
 31
0.0
  0
LINE
  5
1413F
  8
HIDE
 10
2162.6531620874998
 20
1610.965699018531
 30
0.0
 11
2163.3911752454728
 21
1610.965699018531
 31
0.0
  0
LINE
  5
14140
  8
HIDE
 10
2165.5951489295262
 20
1610.965699018531
 30
0.0
 11
2166.3331620875001
 21
1610.965699018531
 31
0.0
  0
LINE
  5
14141
  8
HIDE
 10
2162.5893808698479
 20
1617.4697327678771
 30
0.0
 11
2162.5221958368461
 21
1617.53691780088
 31
0.0
  0
LINE
  5
14142
  8
HIDE
 10
2160.8718920031288
 20
1620.579366507751
 30
0.0
 11
2162.4931620875
 21
1620.7497688601279
 31
0.0
  0
LINE
  5
14143
  8
HIDE
 10
2164.1144321718712
 20
1620.579366507751
 30
0.0
 11
2162.4931620875
 21
1620.7497688601279
 31
0.0
  0
LINE
  5
14144
  8
HIDE
 10
2160.8718920031311
 20
1610.302031529309
 30
0.0
 11
2162.4931620875018
 21
1610.1316291769331
 31
0.0
  0
LINE
  5
14145
  8
HIDE
 10
2164.114432171873
 20
1610.3020315293111
 30
0.0
 11
2162.4931620875032
 21
1610.1316291769331
 31
0.0
  0
LINE
  5
14146
  8
CENTER
 10
2154.7034499013912
 20
1615.4406990185309
 30
0.0
 11
2148.2390075727608
 21
1615.4406990185309
 31
0.0
  0
LINE
  5
14147
  8
0
 10
2148.9931620875
 20
1620.9906990185309
 30
0.0
 11
2148.9931620875009
 21
1609.890699018531
 31
0.0
  0
ARC
  5
14148
  8
0
 10
2149.1931620874998
 20
1620.9906990185309
 30
0.0
 40
0.2
 50
90.0
 51
180.0
  0
LINE
  5
14149
  8
0
 10
2153.9931620875
 20
1619.4406990185309
 30
0.0
 11
2153.9931620874991
 21
1611.4406990185309
 31
0.0
  0
LINE
  5
1414A
  8
0
 10
2153.4931620875009
 20
1620.99069901853
 30
0.0
 11
2153.4931620875018
 21
1609.890699018531
 31
0.0
  0
ARC
  5
1414B
  8
0
 10
2153.293162087502
 20
1609.890699018531
 30
0.0
 40
0.2
 50
270.0
 51
0.0
  0
ARC
  5
1414C
  8
0
 10
2153.2931620875011
 20
1620.99069901853
 30
0.0
 40
0.2
 50
0.0
 51
90.0
  0
LINE
  5
1414D
  8
0
 10
2153.9931620874991
 20
1619.4406990185321
 30
0.0
 11
2153.4931620875
 21
1619.7293741531259
 31
0.0
  0
LINE
  5
1414E
  8
0
 10
2153.9931620874991
 20
1611.44069901853
 30
0.0
 11
2153.4931620875
 21
1611.152023883936
 31
0.0
  0
LINE
  5
1414F
  8
0
 10
2153.2931620875011
 20
1621.19069901853
 30
0.0
 11
2149.1931620874998
 21
1621.1906990185309
 31
0.0
  0
LINE
  5
14150
  8
0
 10
2153.293162087502
 20
1609.6906990185309
 30
0.0
 11
2149.1931620875012
 21
1609.6906990185309
 31
0.0
  0
ARC
  5
14151
  8
0
 10
2149.1931620875012
 20
1609.890699018531
 30
0.0
 40
0.2
 50
180.0
 51
270.0
  0
LINE
  5
14152
  8
0
 10
2153.4931620875018
 20
1616.9684356239361
 30
0.0
 11
2148.9931620875
 21
1616.9684356239361
 31
0.0
  0
LINE
  5
14153
  8
0
 10
2153.4931620875032
 20
1613.912962413124
 30
0.0
 11
2148.9931620875009
 21
1613.9129624131249
 31
0.0
  0
LINE
  5
14154
  8
HIDE
 10
2153.9931620875009
 20
1617.44069901853
 30
0.0
 11
2148.9931620875
 21
1617.4406990185289
 31
0.0
  0
LINE
  5
14155
  8
HIDE
 10
2153.9931620874981
 20
1613.4406990185289
 30
0.0
 11
2148.9931620875009
 21
1613.4406990185289
 31
0.0
  0
LINE
  5
14156
  8
CENTER
 10
2151.2931620875001
 20
1616.7336176093561
 30
0.0
 11
2151.2931620874988
 21
1621.558843317322
 31
0.0
  0
LINE
  5
14157
  8
HIDE
 10
2150.2931620875001
 20
1617.1906990185289
 30
0.0
 11
2150.2931620874979
 21
1621.1906990185309
 31
0.0
  0
LINE
  5
14158
  8
HIDE
 10
2152.293162087497
 20
1617.1906990185289
 30
0.0
 11
2152.2931620874988
 21
1621.1906990185309
 31
0.0
  0
LINE
  5
14159
  8
HIDE
 10
2149.9931620875
 20
1617.1906990185289
 30
0.0
 11
2149.9931620874991
 21
1621.1906990185309
 31
0.0
  0
LINE
  5
1415A
  8
HIDE
 10
2152.5931620874981
 20
1617.1906990185289
 30
0.0
 11
2152.5931620874999
 21
1621.1906990185309
 31
0.0
  0
LINE
  5
1415B
  8
HIDE
 10
2152.593162087504
 20
1620.9517299879169
 30
0.0
 11
2149.9931620875
 21
1620.9517299879169
 31
0.0
  0
LINE
  5
1415C
  8
HIDE
 10
2152.593162087504
 20
1618.4517299879169
 30
0.0
 11
2149.9931620875
 21
1618.4517299879169
 31
0.0
  0
LINE
  5
1415D
  8
HIDE
 10
2152.2992686351372
 20
1618.2766355347439
 30
0.0
 11
2152.5992686351378
 21
1618.4498406155019
 31
0.0
  0
LINE
  5
1415E
  8
HIDE
 10
2150.2992686351372
 20
1618.2749992902379
 30
0.0
 11
2149.9931620874991
 21
1618.4517299879169
 31
0.0
  0
LINE
  5
1415F
  8
HIDE
 10
2152.2992686351372
 20
1618.2766355347439
 30
0.0
 11
2150.2992686351372
 21
1618.2749992902379
 31
0.0
  0
LINE
  5
14160
  8
HIDE
 10
2153.9931620875009
 20
1617.1906990185289
 30
0.0
 11
2148.9931620875
 21
1617.1906990185289
 31
0.0
  0
LINE
  5
14161
  8
HIDE
 10
2153.9931620874991
 20
1613.6906990185309
 30
0.0
 11
2148.9931620875009
 21
1613.69069901853
 31
0.0
  0
LINE
  5
14165
  8
0
 10
2154.4931620874991
 20
1618.340699018531
 30
0.0
 11
2153.9931620875
 21
1618.340699018531
 31
0.0
  0
LINE
  5
14166
  8
0
 10
2154.4931620874991
 20
1612.5406990185311
 30
0.0
 11
2153.9931620874991
 21
1612.5406990185311
 31
0.0
  0
LINE
  5
14167
  8
HIDE
 10
2158.4931620875
 20
1630.6906990185309
 30
0.0
 11
2158.4931620875
 21
1624.1906990185309
 31
0.0
  0
LINE
  5
14168
  8
HIDE
 10
2154.4931620874991
 20
1624.1906990185309
 30
0.0
 11
2158.4931620875
 21
1624.1906990185309
 31
0.0
  0
LINE
  5
14169
  8
HIDE
 10
2158.4931620875
 20
1625.7406990185309
 30
0.0
 11
2160.4931620875
 21
1625.7406990185309
 31
0.0
  0
LINE
  5
1416A
  8
HIDE
 10
2158.4931620875
 20
1629.140699018531
 30
0.0
 11
2160.4931620875
 21
1629.140699018531
 31
0.0
  0
LINE
  5
1416B
  8
HIDE
 10
2154.4931620874991
 20
1630.6906990185309
 30
0.0
 11
2158.4931620875
 21
1630.6906990185309
 31
0.0
  0
LINE
  5
1416C
  8
CENTER
 10
2153.294481931388
 20
1603.4406990185309
 30
0.0
 11
2162.1807233104942
 21
1603.4406990185309
 31
0.0
  0
LINE
  5
1416D
  8
CENTER
 10
2153.294481931388
 20
1627.4406990185309
 30
0.0
 11
2162.1807233104942
 21
1627.4406990185309
 31
0.0
  0
LINE
  5
1416E
  8
0
 10
2154.4931620874991
 20
1631.4406990185309
 30
0.0
 11
2160.4931620875
 21
1631.4406990185309
 31
0.0
  0
LINE
  5
1416F
  8
0
 10
2154.4931620874991
 20
1599.4406990185309
 30
0.0
 11
2160.4931620875
 21
1599.4406990185309
 31
0.0
  0
LINE
  5
14170
  8
CENTER
 10
2147.137086357006
 20
1615.4406990185309
 30
0.0
 11
2172.9702754641371
 21
1615.4406990185309
 31
0.0
  0
LINE
  5
14171
  8
HIDE
 10
2153.9931620875
 20
1613.44069901853
 30
0.0
 11
2158.4931620875
 21
1613.44069901853
 31
0.0
  0
LINE
  5
14173
  8
HIDE
 10
2153.9931620875
 20
1617.4406990185309
 30
0.0
 11
2158.4931620875
 21
1617.4406990185309
 31
0.0
  0
LINE
  5
14175
  8
HIDE
 10
2154.4931620874991
 20
1612.5406990185311
 30
0.0
 11
2158.4931620875
 21
1612.5406990185299
 31
0.0
  0
LINE
  5
14176
  8
HIDE
 10
2166.4931620874991
 20
1612.5406990185299
 30
0.0
 11
2169.4931620874991
 21
1612.5406990185299
 31
0.0
  0
LINE
  5
14177
  8
HIDE
 10
2154.4931620874991
 20
1618.340699018531
 30
0.0
 11
2158.4931620875
 21
1618.340699018531
 31
0.0
  0
LINE
  5
14178
  8
HIDE
 10
2166.4931620874991
 20
1618.340699018531
 30
0.0
 11
2169.4931620874991
 21
1618.340699018531
 31
0.0
  0
LINE
  5
14179
  8
0
 10
2154.4931620874991
 20
1617.217310018531
 30
0.0
 11
2160.4931620875
 21
1617.217310018531
 31
0.0
  0
LINE
  5
1417A
  8
0
 10
2154.4931620874991
 20
1613.6640880185309
 30
0.0
 11
2160.4931620875
 21
1613.6640880185309
 31
0.0
  0
LINE
  5
1417B
  8
0
 10
2154.4931620874991
 20
1631.4406990185309
 30
0.0
 11
2154.4931620874991
 21
1599.4406990185309
 31
0.0
  0
LINE
  5
1417C
  8
0
 10
2169.4931620874991
 20
1624.4406990185309
 30
0.0
 11
2169.4931620874991
 21
1606.4406990185309
 31
0.0
  0
LINE
  5
1417D
  8
0
 10
2160.4931620875
 20
1631.4406990185309
 30
0.0
 11
2160.4931620875
 21
1599.4406990185309
 31
0.0
  0
LINE
  5
1417E
  8
0
 10
2169.4931620874991
 20
1606.4406990185309
 30
0.0
 11
2160.4931620875
 21
1606.4406990185309
 31
0.0
  0
LINE
  5
1417F
  8
0
 10
2169.4931620874991
 20
1624.4406990185309
 30
0.0
 11
2160.4931620875
 21
1624.4406990185309
 31
0.0
  0
LINE
  5
14180
  8
HIDE
 10
2158.4931620875
 20
1600.1906990185309
 30
0.0
 11
2158.4931620875
 21
1606.6906990185309
 31
0.0
  0
LINE
  5
14181
  8
HIDE
 10
2154.4931620874991
 20
1606.6906990185309
 30
0.0
 11
2158.4931620875
 21
1606.6906990185309
 31
0.0
  0
LINE
  5
14182
  8
HIDE
 10
2158.4931620875
 20
1605.1406990185301
 30
0.0
 11
2160.4931620875
 21
1605.1406990185301
 31
0.0
  0
LINE
  5
14183
  8
HIDE
 10
2158.4931620875
 20
1601.7406990185309
 30
0.0
 11
2160.4931620875
 21
1601.7406990185309
 31
0.0
  0
LINE
  5
14184
  8
HIDE
 10
2154.4931620874991
 20
1600.1906990185309
 30
0.0
 11
2158.4931620875
 21
1600.1906990185309
 31
0.0
  0
LINE
  5
14185
  8
HIDE
 10
2166.4931620874991
 20
1621.2406990185309
 30
0.0
 11
2166.4931620874991
 21
1612.5406990185299
 31
0.0
  0
LINE
  5
14186
  8
HIDE
 10
2158.4931620875
 20
1618.340699018531
 30
0.0
 11
2158.4931620875
 21
1609.6406990185319
 31
0.0
  0
CIRCLE
  5
14187
  8
HIDE
 10
2160.4931620875
 20
1619.4406990185309
 30
0.0
 40
1.1999999999999991
  0
CIRCLE
  5
14188
  8
HIDE
 10
2160.4931620875
 20
1611.4406990185309
 30
0.0
 40
1.1999999999999991
  0
ARC
  5
14189
  8
HIDE
 10
2158.6931620874998
 20
1621.2406990185309
 30
0.0
 40
0.2000000000000002
 50
90.0
 51
180.0
  0
ARC
  5
1418A
  8
HIDE
 10
2162.2931620875001
 20
1621.2406990185309
 30
0.0
 40
0.2000000000000002
 50
0.0
 51
90.0
  0
ARC
  5
1418B
  8
HIDE
 10
2162.2931620875001
 20
1613.2406990185309
 30
0.0
 40
0.2000000000000002
 50
0.0
 51
90.0
  0
ARC
  5
1418C
  8
HIDE
 10
2158.6931620874998
 20
1613.2406990185309
 30
0.0
 40
0.2000000000000002
 50
90.0
 51
180.0
  0
ARC
  5
1418D
  8
HIDE
 10
2162.2931620875001
 20
1617.640699018531
 30
0.0
 40
0.2
 50
270.0
 51
0.0
  0
ARC
  5
1418E
  8
HIDE
 10
2158.6931620874998
 20
1617.640699018531
 30
0.0
 40
0.2
 50
180.0
 51
270.0
  0
ARC
  5
1418F
  8
HIDE
 10
2162.2931620875001
 20
1609.6406990185319
 30
0.0
 40
0.2000000000000002
 50
270.0
 51
0.0
  0
ARC
  5
14190
  8
HIDE
 10
2158.6931620874998
 20
1609.6406990185319
 30
0.0
 40
0.2
 50
180.0
 51
270.0
  0
LINE
  5
14191
  8
HIDE
 10
2162.4931620875
 20
1621.2406990185309
 30
0.0
 11
2162.4931620875
 21
1617.640699018531
 31
0.0
  0
LINE
  5
14192
  8
HIDE
 10
2158.6931620874998
 20
1621.4406990185309
 30
0.0
 11
2162.2931620875001
 21
1621.4406990185309
 31
0.0
  0
LINE
  5
14193
  8
HIDE
 10
2158.4931620875
 20
1617.640699018531
 30
0.0
 11
2158.4931620875
 21
1621.2406990185309
 31
0.0
  0
LINE
  5
14194
  8
HIDE
 10
2158.6531620874998
 20
1619.9156990185311
 30
0.0
 11
2159.3911752454728
 21
1619.9156990185311
 31
0.0
  0
LINE
  5
14195
  8
HIDE
 10
2161.5951489295262
 20
1619.9156990185311
 30
0.0
 11
2162.3331620874992
 21
1619.9156990185311
 31
0.0
  0
LINE
  5
14196
  8
HIDE
 10
2158.6531620874998
 20
1618.515699018531
 30
0.0
 11
2159.7287178449292
 21
1618.515699018531
 31
0.0
  0
LINE
  5
14197
  8
HIDE
 10
2161.2576063300712
 20
1618.515699018531
 30
0.0
 11
2162.3331620874992
 21
1618.515699018531
 31
0.0
  0
LINE
  5
14198
  8
HIDE
 10
2162.4931620875
 20
1609.6406990185319
 30
0.0
 11
2162.4931620875
 21
1615.4406990185309
 31
0.0
  0
LINE
  5
14199
  8
HIDE
 10
2158.4931620875
 20
1613.2406990185309
 30
0.0
 11
2158.4931620875
 21
1612.640699018531
 31
0.0
  0
LINE
  5
1419A
  8
HIDE
 10
2158.4931620875
 20
1615.4406990185309
 30
0.0
 11
2158.4931620875
 21
1609.6406990185319
 31
0.0
  0
LINE
  5
1419B
  8
HIDE
 10
2158.6931620874998
 20
1617.4406990185309
 30
0.0
 11
2162.2931620875001
 21
1617.4406990185309
 31
0.0
  0
LINE
  5
1419C
  8
HIDE
 10
2158.6931620874998
 20
1613.44069901853
 30
0.0
 11
2162.2931620875001
 21
1613.44069901853
 31
0.0
  0
LINE
  5
1419D
  8
HIDE
 10
2158.6531620874998
 20
1612.3656990185309
 30
0.0
 11
2159.7287178449292
 21
1612.3656990185309
 31
0.0
  0
LINE
  5
1419E
  8
HIDE
 10
2161.2576063300712
 20
1612.3656990185309
 30
0.0
 11
2162.3331620874992
 21
1612.3656990185309
 31
0.0
  0
LINE
  5
1419F
  8
HIDE
 10
2158.4931620875
 20
1615.4406990185309
 30
0.0
 11
2158.4931620875
 21
1617.640699018531
 31
0.0
  0
LINE
  5
141A0
  8
HIDE
 10
2162.4931620875
 20
1617.640699018531
 30
0.0
 11
2162.4931620875
 21
1615.4406990185309
 31
0.0
  0
LINE
  5
141A1
  8
HIDE
 10
2158.6931620874998
 20
1609.4406990185309
 30
0.0
 11
2162.2931620875001
 21
1609.4406990185309
 31
0.0
  0
LINE
  5
141A2
  8
HIDE
 10
2158.6531620874998
 20
1610.965699018531
 30
0.0
 11
2159.3911752454728
 21
1610.965699018531
 31
0.0
  0
LINE
  5
141A3
  8
HIDE
 10
2161.5951489295262
 20
1610.965699018531
 30
0.0
 11
2162.3331620874992
 21
1610.965699018531
 31
0.0
  0
LINE
  5
141A4
  8
HIDE
 10
2158.5893808698479
 20
1617.4697327678771
 30
0.0
 11
2158.5221958368461
 21
1617.53691780088
 31
0.0
  0
CIRCLE
  5
141A5
  8
HIDE
 10
2164.4931620875
 20
1619.4406990185309
 30
0.0
 40
1.1999999999999991
  0
CIRCLE
  5
141A6
  8
HIDE
 10
2164.4931620875
 20
1611.4406990185309
 30
0.0
 40
1.1999999999999991
  0
ARC
  5
141A7
  8
HIDE
 10
2162.6931620874998
 20
1621.2406990185309
 30
0.0
 40
0.2000000000000002
 50
90.0
 51
180.0
  0
ARC
  5
141A8
  8
HIDE
 10
2166.2931620875001
 20
1621.2406990185309
 30
0.0
 40
0.2000000000000002
 50
0.0
 51
90.0
  0
ARC
  5
141A9
  8
HIDE
 10
2166.2931620875001
 20
1613.2406990185309
 30
0.0
 40
0.2000000000000002
 50
0.0
 51
90.0
  0
ARC
  5
141AA
  8
HIDE
 10
2162.6931620874998
 20
1613.2406990185309
 30
0.0
 40
0.2000000000000002
 50
90.0
 51
180.0
  0
ARC
  5
141AB
  8
HIDE
 10
2166.2931620875001
 20
1617.640699018531
 30
0.0
 40
0.2
 50
270.0
 51
0.0
  0
ARC
  5
141AC
  8
HIDE
 10
2162.6931620874998
 20
1617.640699018531
 30
0.0
 40
0.2
 50
180.0
 51
270.0
  0
ARC
  5
141AD
  8
HIDE
 10
2166.2931620875001
 20
1609.6406990185319
 30
0.0
 40
0.2000000000000002
 50
270.0
 51
0.0
  0
ARC
  5
141AE
  8
HIDE
 10
2162.6931620874998
 20
1609.6406990185319
 30
0.0
 40
0.2
 50
180.0
 51
270.0
  0
LINE
  5
141AF
  8
HIDE
 10
2166.4931620875
 20
1621.2406990185309
 30
0.0
 11
2166.4931620874991
 21
1617.640699018531
 31
0.0
  0
LINE
  5
141B0
  8
HIDE
 10
2162.6931620874998
 20
1621.4406990185309
 30
0.0
 11
2166.2931620875001
 21
1621.4406990185309
 31
0.0
  0
LINE
  5
141B1
  8
HIDE
 10
2162.4931620875
 20
1617.640699018531
 30
0.0
 11
2162.4931620875
 21
1621.2406990185309
 31
0.0
  0
LINE
  5
141B2
  8
HIDE
 10
2162.6531620874998
 20
1619.9156990185311
 30
0.0
 11
2163.3911752454728
 21
1619.9156990185311
 31
0.0
  0
LINE
  5
141B3
  8
HIDE
 10
2165.5951489295262
 20
1619.9156990185311
 30
0.0
 11
2166.3331620875001
 21
1619.9156990185311
 31
0.0
  0
LINE
  5
141B4
  8
HIDE
 10
2162.6531620874998
 20
1618.515699018531
 30
0.0
 11
2163.7287178449292
 21
1618.515699018531
 31
0.0
  0
LINE
  5
141B5
  8
HIDE
 10
2165.2576063300712
 20
1618.515699018531
 30
0.0
 11
2166.3331620875001
 21
1618.515699018531
 31
0.0
  0
LINE
  5
141B6
  8
HIDE
 10
2166.4931620874991
 20
1612.640699018531
 30
0.0
 11
2166.4931620874991
 21
1613.2406990185309
 31
0.0
  0
LINE
  5
141B7
  8
HIDE
 10
2166.4931620874991
 20
1609.6406990185319
 30
0.0
 11
2166.4931620874991
 21
1615.4406990185309
 31
0.0
  0
LINE
  5
141B8
  8
HIDE
 10
2162.4931620875
 20
1615.4406990185309
 30
0.0
 11
2162.4931620875
 21
1609.6406990185319
 31
0.0
  0
LINE
  5
141B9
  8
HIDE
 10
2162.6931620874998
 20
1617.4406990185309
 30
0.0
 11
2166.2931620875001
 21
1617.4406990185309
 31
0.0
  0
LINE
  5
141BA
  8
HIDE
 10
2162.6931620874998
 20
1613.44069901853
 30
0.0
 11
2166.2931620875001
 21
1613.44069901853
 31
0.0
  0
LINE
  5
141BB
  8
HIDE
 10
2162.6531620874998
 20
1612.3656990185309
 30
0.0
 11
2163.7287178449292
 21
1612.3656990185309
 31
0.0
  0
LINE
  5
141BC
  8
HIDE
 10
2165.2576063300712
 20
1612.3656990185309
 30
0.0
 11
2166.3331620875001
 21
1612.3656990185309
 31
0.0
  0
LINE
  5
141BD
  8
HIDE
 10
2162.4931620875
 20
1615.4406990185309
 30
0.0
 11
2162.4931620875
 21
1617.640699018531
 31
0.0
  0
LINE
  5
141BE
  8
HIDE
 10
2166.4931620874991
 20
1617.640699018531
 30
0.0
 11
2166.4931620874991
 21
1615.4406990185309
 31
0.0
  0
LINE
  5
141BF
  8
HIDE
 10
2162.6931620874998
 20
1609.4406990185309
 30
0.0
 11
2166.2931620875001
 21
1609.4406990185309
 31
0.0
  0
LINE
  5
141C0
  8
HIDE
 10
2162.6531620874998
 20
1610.965699018531
 30
0.0
 11
2163.3911752454728
 21
1610.965699018531
 31
0.0
  0
LINE
  5
141C1
  8
HIDE
 10
2165.5951489295262
 20
1610.965699018531
 30
0.0
 11
2166.3331620875001
 21
1610.965699018531
 31
0.0
  0
LINE
  5
141C2
  8
HIDE
 10
2162.5893808698479
 20
1617.4697327678771
 30
0.0
 11
2162.5221958368461
 21
1617.53691780088
 31
0.0
  0
LINE
  5
141C3
  8
HIDE
 10
2160.8718920031288
 20
1620.579366507751
 30
0.0
 11
2162.4931620875
 21
1620.7497688601279
 31
0.0
  0
LINE
  5
141C4
  8
HIDE
 10
2164.1144321718712
 20
1620.579366507751
 30
0.0
 11
2162.4931620875
 21
1620.7497688601279
 31
0.0
  0
LINE
  5
141C5
  8
HIDE
 10
2160.8718920031311
 20
1610.302031529309
 30
0.0
 11
2162.4931620875018
 21
1610.1316291769331
 31
0.0
  0
LINE
  5
141C6
  8
HIDE
 10
2164.114432171873
 20
1610.3020315293111
 30
0.0
 11
2162.4931620875032
 21
1610.1316291769331
 31
0.0
  0
LINE
  5
141C7
  8
CENTER
 10
2154.7034499013912
 20
1615.4406990185309
 30
0.0
 11
2148.2390075727608
 21
1615.4406990185309
 31
0.0
  0
LINE
  5
141C8
  8
0
 10
2148.9931620875
 20
1620.9906990185309
 30
0.0
 11
2148.9931620875009
 21
1609.890699018531
 31
0.0
  0
ARC
  5
141C9
  8
0
 10
2149.1931620874998
 20
1620.9906990185309
 30
0.0
 40
0.2
 50
90.0
 51
180.0
  0
LINE
  5
141CA
  8
0
 10
2153.9931620875
 20
1619.4406990185309
 30
0.0
 11
2153.9931620874991
 21
1611.4406990185309
 31
0.0
  0
LINE
  5
141CB
  8
0
 10
2153.4931620875009
 20
1620.99069901853
 30
0.0
 11
2153.4931620875018
 21
1609.890699018531
 31
0.0
  0
ARC
  5
141CC
  8
0
 10
2153.293162087502
 20
1609.890699018531
 30
0.0
 40
0.2
 50
270.0
 51
0.0
  0
ARC
  5
141CD
  8
0
 10
2153.2931620875011
 20
1620.99069901853
 30
0.0
 40
0.2
 50
0.0
 51
90.0
  0
LINE
  5
141CE
  8
0
 10
2153.9931620874991
 20
1619.4406990185321
 30
0.0
 11
2153.4931620875
 21
1619.7293741531259
 31
0.0
  0
LINE
  5
141CF
  8
0
 10
2153.9931620874991
 20
1611.44069901853
 30
0.0
 11
2153.4931620875
 21
1611.152023883936
 31
0.0
  0
LINE
  5
141D0
  8
0
 10
2153.2931620875011
 20
1621.19069901853
 30
0.0
 11
2149.1931620874998
 21
1621.1906990185309
 31
0.0
  0
LINE
  5
141D1
  8
0
 10
2153.293162087502
 20
1609.6906990185309
 30
0.0
 11
2149.1931620875012
 21
1609.6906990185309
 31
0.0
  0
ARC
  5
141D2
  8
0
 10
2149.1931620875012
 20
1609.890699018531
 30
0.0
 40
0.2
 50
180.0
 51
270.0
  0
LINE
  5
141D3
  8
0
 10
2153.4931620875018
 20
1616.9684356239361
 30
0.0
 11
2148.9931620875
 21
1616.9684356239361
 31
0.0
  0
LINE
  5
141D4
  8
0
 10
2153.4931620875032
 20
1613.912962413124
 30
0.0
 11
2148.9931620875009
 21
1613.9129624131249
 31
0.0
  0
LINE
  5
141D5
  8
HIDE
 10
2153.9931620875009
 20
1617.44069901853
 30
0.0
 11
2148.9931620875
 21
1617.4406990185289
 31
0.0
  0
LINE
  5
141D6
  8
HIDE
 10
2153.9931620874981
 20
1613.4406990185289
 30
0.0
 11
2148.9931620875009
 21
1613.4406990185289
 31
0.0
  0
LINE
  5
141D7
  8
CENTER
 10
2151.2931620875001
 20
1616.7336176093561
 30
0.0
 11
2151.2931620874988
 21
1621.558843317322
 31
0.0
  0
LINE
  5
141D8
  8
HIDE
 10
2150.2931620875001
 20
1617.1906990185289
 30
0.0
 11
2150.2931620874979
 21
1621.1906990185309
 31
0.0
  0
LINE
  5
141D9
  8
HIDE
 10
2152.293162087497
 20
1617.1906990185289
 30
0.0
 11
2152.2931620874988
 21
1621.1906990185309
 31
0.0
  0
LINE
  5
141DA
  8
HIDE
 10
2149.9931620875
 20
1617.1906990185289
 30
0.0
 11
2149.9931620874991
 21
1621.1906990185309
 31
0.0
  0
LINE
  5
141DB
  8
HIDE
 10
2152.5931620874981
 20
1617.1906990185289
 30
0.0
 11
2152.5931620874999
 21
1621.1906990185309
 31
0.0
  0
LINE
  5
141DC
  8
HIDE
 10
2152.593162087504
 20
1620.9517299879169
 30
0.0
 11
2149.9931620875
 21
1620.9517299879169
 31
0.0
  0
LINE
  5
141DD
  8
HIDE
 10
2152.593162087504
 20
1618.4517299879169
 30
0.0
 11
2149.9931620875
 21
1618.4517299879169
 31
0.0
  0
LINE
  5
141DE
  8
HIDE
 10
2152.2992686351372
 20
1618.2766355347439
 30
0.0
 11
2152.5992686351378
 21
1618.4498406155019
 31
0.0
  0
LINE
  5
141DF
  8
HIDE
 10
2150.2992686351372
 20
1618.2749992902379
 30
0.0
 11
2149.9931620874991
 21
1618.4517299879169
 31
0.0
  0
LINE
  5
141E0
  8
HIDE
 10
2152.2992686351372
 20
1618.2766355347439
 30
0.0
 11
2150.2992686351372
 21
1618.2749992902379
 31
0.0
  0
LINE
  5
141E1
  8
HIDE
 10
2153.9931620875009
 20
1617.1906990185289
 30
0.0
 11
2148.9931620875
 21
1617.1906990185289
 31
0.0
  0
LINE
  5
141E2
  8
HIDE
 10
2153.9931620874991
 20
1613.6906990185309
 30
0.0
 11
2148.9931620875009
 21
1613.69069901853
 31
0.0
  0
LINE
  5
141E6
  8
0
 10
2154.4931620874991
 20
1618.340699018531
 30
0.0
 11
2153.9931620875
 21
1618.340699018531
 31
0.0
  0
LINE
  5
141E7
  8
0
 10
2154.4931620874991
 20
1612.5406990185311
 30
0.0
 11
2153.9931620874991
 21
1612.5406990185311
 31
0.0
  0
ARC
  5
142EC
  8
HIDE
 10
2106.04512410198
 20
1615.4407050185309
 30
0.0
 40
8.0
 50
270.0
 51
180.00004297183611
  0
CIRCLE
  5
142ED
  8
0
 10
2106.04512410198
 20
1615.4407050185309
 30
0.0
 40
7.75
  0
ENDSEC
  0
EOF
