  0
SECTION
  2
HEADER
  9
$ACADVER
  1
AC1009
  9
$INSBASE
 10
0.0
 20
0.0
 30
0.0
  9
$EXTMIN
 10
2033.7649703480899
 20
1544.2801279298501
 30
0.0
  9
$EXTMAX
 10
2211.9649703480909
 20
1670.2801279298501
 30
0.0
  9
$LIMMIN
 10
0.0
 20
0.0
  9
$LIMMAX
 10
12.0
 20
9.0
  9
$ORTHOMODE
 70
     0
  9
$REGENMODE
 70
     1
  9
$FILLMODE
 70
     1
  9
$QTEXTMODE
 70
     0
  9
$MIRRTEXT
 70
     0
  9
$DRAGMODE
 70
     2
  9
$LTSCALE
 40
1.0
  9
$OSMODE
 70
  2239
  9
$ATTMODE
 70
     1
  9
$TEXTSIZE
 40
2.5
  9
$TRACEWID
 40
0.05
  9
$TEXTSTYLE
  7
BIG
  9
$CLAYER
  8
0
  9
$CELTYPE
  6
BYLAYER
  9
$CECOLOR
 62
   256
  9
$DIMSCALE
 40
1.0
  9
$DIMASZ
 40
3.0
  9
$DIMEXO
 40
1.0
  9
$DIMDLI
 40
0.0
  9
$DIMRND
 40
0.0
  9
$DIMDLE
 40
0.0
  9
$DIMEXE
 40
1.0
  9
$DIMTP
 40
0.0
  9
$DIMTM
 40
0.0
  9
$DIMTXT
 40
3.0
  9
$DIMCEN
 40
0.0
  9
$DIMTSZ
 40
0.0
  9
$DIMTOL
 70
     0
  9
$DIMLIM
 70
     0
  9
$DIMTIH
 70
     0
  9
$DIMTOH
 70
     0
  9
$DIMSE1
 70
     0
  9
$DIMSE2
 70
     0
  9
$DIMTAD
 70
     1
  9
$DIMZIN
 70
     8
  9
$DIMBLK
  1

  9
$DIMASO
 70
     1
  9
$DIMSHO
 70
     1
  9
$DIMPOST
  1

  9
$DIMAPOST
  1

  9
$DIMALT
 70
     0
  9
$DIMALTD
 70
     2
  9
$DIMALTF
 40
25.399999999999999
  9
$DIMLFAC
 40
1.0
  9
$DIMTOFL
 70
     1
  9
$DIMTVP
 40
0.0
  9
$DIMTIX
 70
     1
  9
$DIMSOXD
 70
     0
  9
$DIMSAH
 70
     0
  9
$DIMBLK1
  1

  9
$DIMBLK2
  1

  9
$DIMSTYLE
  2
DUKITEC
  9
$DIMCLRD
 70
     5
  9
$DIMCLRE
 70
     5
  9
$DIMCLRT
 70
     0
  9
$DIMTFAC
 40
1.0
  9
$DIMGAP
 40
1.0
  9
$LUNITS
 70
     2
  9
$LUPREC
 70
     4
  9
$SKETCHINC
 40
0.1
  9
$FILLETRAD
 40
0.2
  9
$AUNITS
 70
     0
  9
$AUPREC
 70
     0
  9
$MENU
  1
.
  9
$ELEVATION
 40
0.0
  9
$PELEVATION
 40
0.0
  9
$THICKNESS
 40
0.0
  9
$LIMCHECK
 70
     0
  9
$BLIPMODE
 70
     0
  9
$CHAMFERA
 40
0.5
  9
$CHAMFERB
 40
0.5
  9
$SKPOLY
 70
     0
  9
$TDCREATE
 40
2454396.7320646988
  9
$TDUPDATE
 40
2456630.7255812162
  9
$TDINDWG
 40
0.0050979051
  9
$TDUSRTIMER
 40
0.0050978356
  9
$USRTIMER
 70
     1
  9
$ANGBASE
 50
0.0
  9
$ANGDIR
 70
     0
  9
$PDMODE
 70
     0
  9
$PDSIZE
 40
0.0
  9
$PLINEWID
 40
0.0
  9
$COORDS
 70
     1
  9
$SPLFRAME
 70
     0
  9
$SPLINETYPE
 70
     6
  9
$SPLINESEGS
 70
     8
  9
$ATTDIA
 70
     0
  9
$ATTREQ
 70
     1
  9
$HANDLING
 70
     1
  9
$HANDSEED
  5
14248
  9
$SURFTAB1
 70
     6
  9
$SURFTAB2
 70
     6
  9
$SURFTYPE
 70
     6
  9
$SURFU
 70
     6
  9
$SURFV
 70
     6
  9
$UCSNAME
  2

  9
$UCSORG
 10
0.0
 20
0.0
 30
0.0
  9
$UCSXDIR
 10
1.0
 20
0.0
 30
0.0
  9
$UCSYDIR
 10
0.0
 20
1.0
 30
0.0
  9
$PUCSNAME
  2

  9
$PUCSORG
 10
0.0
 20
0.0
 30
0.0
  9
$PUCSXDIR
 10
1.0
 20
0.0
 30
0.0
  9
$PUCSYDIR
 10
0.0
 20
1.0
 30
0.0
  9
$USERI1
 70
     0
  9
$USERI2
 70
     0
  9
$USERI3
 70
     0
  9
$USERI4
 70
     0
  9
$USERI5
 70
     0
  9
$USERR1
 40
0.0
  9
$USERR2
 40
0.0
  9
$USERR3
 40
0.0
  9
$USERR4
 40
0.0
  9
$USERR5
 40
0.0
  9
$WORLDVIEW
 70
     1
  9
$SHADEDGE
 70
     3
  9
$SHADEDIF
 70
    70
  9
$TILEMODE
 70
     1
  9
$MAXACTVP
 70
    64
  9
$PLIMCHECK
 70
     0
  9
$PEXTMIN
 10
0.0
 20
0.0
 30
0.0
  9
$PEXTMAX
 10
0.0
 20
0.0
 30
0.0
  9
$PLIMMIN
 10
0.0
 20
0.0
  9
$PLIMMAX
 10
12.0
 20
9.0
  9
$UNITMODE
 70
     0
  9
$VISRETAIN
 70
     1
  9
$PLINEGEN
 70
     0
  9
$PSLTSCALE
 70
     1
  0
ENDSEC
  0
SECTION
  2
TABLES
  0
TABLE
  2
VPORT
 70
     1
  0
VPORT
  2
*ACTIVE
 70
     0
 10
0.0
 20
0.0
 11
1.0
 21
1.0
 12
2136.7725619797939
 22
1602.568672474137
 13
0.0
 23
0.0
 14
0.5
 24
0.5
 15
0.5
 25
0.5
 16
0.0
 26
0.0
 36
1.0
 17
0.0
 27
0.0
 37
0.0
 40
146.8774841184528
 41
2.1408934707903771
 42
50.0
 43
0.0
 44
0.0
 50
0.0
 51
0.0
 71
     0
 72
  2000
 73
     1
 74
     3
 75
     0
 76
     0
 77
     0
 78
     0
  0
ENDTAB
  0
TABLE
  2
LTYPE
 70
     5
  0
LTYPE
  2
CONTINUOUS
 70
     0
  3
Solid line
 72
    65
 73
     0
 40
0.0
  0
LTYPE
  2
PHANTOM2
 70
     0
  3
Phantom (.5x) ___ _ _ ___ _ _ ___ _ _ ___ _ _
 72
    65
 73
     6
 40
1.25
 49
0.625
 49
-0.125
 49
0.125
 49
-0.125
 49
0.125
 49
-0.125
  0
LTYPE
  2
CENTER
 70
     0
  3
___ _ ___ _ ___ _ ___ _ ___ _ ___ _ ___ _ ___ _
 72
    65
 73
     4
 40
0.95
 49
0.625
 49
-0.125
 49
0.075
 49
-0.125
  0
LTYPE
  2
DASHED2
 70
     0
  3
Dashed (.5x) _ _ _ _ _ _ _ _ _ _ _ _ _ _ _ _ _
 72
    65
 73
     2
 40
0.375
 49
0.25
 49
-0.125
  0
ENDTAB
  0
TABLE
  2
LAYER
 70
     3
  0
LAYER
  2
0
 70
     0
 62
     7
  6
CONTINUOUS
  0
LAYER
  2
HIDE
 70
     0
 62
     1
  6
DASHED2
  0
LAYER
  2
CENTER
 70
     0
 62
     3
  6
CENTER
  0
ENDTAB
  0
TABLE
  2
STYLE
 70
     2
  0
STYLE
  2
STANDARD
 70
     0
 40
5.0
 41
1.0
 50
0.0
 71
     0
 42
5.0
  3
txt.shx
  4
whgtxt.shx
  0
STYLE
  2
BIG
 70
     0
 40
20.0
 41
1.0
 50
0.0
 71
     0
 42
2.5
  3
txt
  4

  0
ENDTAB
  0
TABLE
  2
VIEW
 70
     0
  0
ENDTAB
  0
TABLE
  2
UCS
 70
     0
  0
ENDTAB
  0
TABLE
  2
APPID
 70
    11
  0
APPID
  2
ACAD
 70
     0
  0
APPID
  2
ACADANNOTATIVE
 70
     0
  0
APPID
  2
ACAD_EXEMPT_FROM_CAD_STANDARDS
 70
     0
  0
APPID
  2
ACAD_DSTYLE_DIMJOGGED_JOGA
 70
     0
  0
APPID
  2
ACAD_PSEXT
 70
     0
  0
APPID
  2
ACAECLAYERSTANDARD
 70
     0
  0
APPID
  2
DCO15
 70
     0
  0
APPID
  2
CONTENTBLOCKICON
 70
     0
  0
APPID
  2
ACAD_DSTYLE_DIMRADIAL_EXTENSION
 70
     0
  0
APPID
  2
ACAD_NAV_VCDISPLAY
 70
     0
  0
APPID
  2
ACAD_MLEADERVER
 70
     0
  0
ENDTAB
  0
TABLE
  2
DIMSTYLE
 70
     2
  0
DIMSTYLE
  2
DUKITEC
 70
     0
  3

  4

  5

  6

  7

 40
1.0
 41
3.0
 42
1.0
 43
0.0
 44
1.0
 45
0.0
 46
0.0
 47
0.0
 48
0.0
140
3.0
141
0.0
142
0.0
143
25.399999999999999
144
1.0
145
0.0
146
1.0
147
1.0
 71
     0
 72
     0
 73
     0
 74
     0
 75
     0
 76
     0
 77
     1
 78
     8
170
     0
171
     2
172
     1
173
     0
174
     1
175
     0
176
     5
177
     5
178
     0
  0
ENDTAB
  0
ENDSEC
  0
SECTION
  2
BLOCKS
  0
BLOCK
  8
0
  2
$MODEL_SPACE
 70
     0
 10
0.0
 20
0.0
 30
0.0
  3
$MODEL_SPACE
  1

  0
ENDBLK
  5
14059
  8
0
  0
BLOCK
 67
     1
  8
0
  2
$PAPER_SPACE
 70
     0
 10
0.0
 20
0.0
 30
0.0
  3
$PAPER_SPACE
  1

  0
ENDBLK
  5
14055
 67
     1
  8
0
  0
ENDSEC
  0
SECTION
  2
ENTITIES
  0
POLYLINE
  5
13E1C
  8
0
 66
     1
 10
0.0
 20
0.0
 30
0.0
 70
     1
  0
VERTEX
  5
14204
  8
0
 10
2033.7649703480899
 20
1544.2801279298501
 30
0.0
  0
VERTEX
  5
14205
  8
0
 10
2033.7649703480899
 20
1670.2801279298501
 30
0.0
  0
VERTEX
  5
14206
  8
0
 10
2211.9649703480909
 20
1670.2801279298501
 30
0.0
  0
VERTEX
  5
14207
  8
0
 10
2211.9649703480909
 20
1544.2801279298501
 30
0.0
  0
VERTEX
  5
14208
  8
0
 10
2033.7649703480899
 20
1544.2801279298501
 30
0.0
  0
SEQEND
  5
14209
  8
0
  0
TEXT
  5
13FC7
  8
0
 10
2067.6734836131982
 20
1559.982232605339
 30
0.0
 40
20.0
  1
FK5 P5
  7
BIG
  0
LINE
  5
140AC
  8
HIDE
 10
2148.4047665831372
 20
1608.6011530502919
 30
0.0
 11
2152.4047665831372
 21
1608.6011530502919
 31
0.0
  0
LINE
  5
140AD
  8
HIDE
 10
2152.4047665831372
 20
1607.0511530502911
 30
0.0
 11
2154.4047665831372
 21
1607.0511530502911
 31
0.0
  0
LINE
  5
140AE
  8
HIDE
 10
2148.4047665831372
 20
1602.101153050291
 30
0.0
 11
2152.4047665831372
 21
1602.101153050291
 31
0.0
  0
LINE
  5
140AF
  8
HIDE
 10
2152.4047665831372
 20
1603.6511530502919
 30
0.0
 11
2154.4047665831372
 21
1603.6511530502919
 31
0.0
  0
LINE
  5
140B0
  8
HIDE
 10
2152.4047665831372
 20
1608.6011530502919
 30
0.0
 11
2152.4047665831372
 21
1602.101153050291
 31
0.0
  0
LINE
  5
140B1
  8
HIDE
 10
2152.4047665831372
 20
1634.601153050291
 30
0.0
 11
2152.4047665831372
 21
1628.101153050291
 31
0.0
  0
LINE
  5
140B2
  8
HIDE
 10
2152.4047665831372
 20
1629.6511530502919
 30
0.0
 11
2154.4047665831372
 21
1629.6511530502919
 31
0.0
  0
LINE
  5
140B3
  8
HIDE
 10
2152.4047665831372
 20
1633.0511530502911
 30
0.0
 11
2154.4047665831372
 21
1633.0511530502911
 31
0.0
  0
LINE
  5
140B4
  8
HIDE
 10
2148.4047665831372
 20
1628.101153050291
 30
0.0
 11
2152.4047665831372
 21
1628.101153050291
 31
0.0
  0
LINE
  5
140B5
  8
HIDE
 10
2148.4047665831372
 20
1634.601153050291
 30
0.0
 11
2152.4047665831372
 21
1634.601153050291
 31
0.0
  0
LINE
  5
140B6
  8
CENTER
 10
2147.2462048939378
 20
1605.351161050291
 30
0.0
 11
2155.5360980510468
 21
1605.351161050291
 31
0.0
  0
LINE
  5
140B7
  8
CENTER
 10
2147.2462048939378
 20
1631.351161050291
 30
0.0
 11
2155.5360980510468
 21
1631.351161050291
 31
0.0
  0
LINE
  5
140B8
  8
0
 10
2148.4047665831372
 20
1601.351161050291
 30
0.0
 11
2154.4047665831372
 21
1601.351161050291
 31
0.0
  0
LINE
  5
140B9
  8
0
 10
2148.4047665831372
 20
1635.3511610502919
 30
0.0
 11
2154.4047665831372
 21
1635.3511610502919
 31
0.0
  0
LINE
  5
140BD
  8
CENTER
 10
2140.3379605963469
 20
1618.3511610502919
 30
0.0
 11
2169.1034610562642
 21
1618.3511610502919
 31
0.0
  0
LINE
  5
140BE
  8
HIDE
 10
2147.9047665831372
 20
1620.8511610502919
 30
0.0
 11
2153.4047665831372
 21
1620.8511610502919
 31
0.0
  0
LINE
  5
140C0
  8
HIDE
 10
2147.9047665831372
 20
1615.8511610502919
 30
0.0
 11
2153.4047665831372
 21
1615.8511610502919
 31
0.0
  0
LINE
  5
140C2
  8
HIDE
 10
2148.4047665831372
 20
1614.3511610502919
 30
0.0
 11
2153.4047665831372
 21
1614.351161050291
 31
0.0
  0
LINE
  5
140C3
  8
HIDE
 10
2161.4047665831372
 20
1614.351161050291
 30
0.0
 11
2164.9047665831372
 21
1614.351161050291
 31
0.0
  0
LINE
  5
140C4
  8
HIDE
 10
2148.4047665831372
 20
1622.3511610502919
 30
0.0
 11
2153.4047665831372
 21
1622.3511610502919
 31
0.0
  0
LINE
  5
140C5
  8
HIDE
 10
2161.4047665831372
 20
1622.3511610502919
 30
0.0
 11
2164.9047665831372
 21
1622.3511610502919
 31
0.0
  0
LINE
  5
140C6
  8
0
 10
2148.4047665831372
 20
1635.3511610502919
 30
0.0
 11
2148.4047665831372
 21
1601.351161050291
 31
0.0
  0
LINE
  5
140C7
  8
0
 10
2154.4047665831372
 20
1635.3511610502919
 30
0.0
 11
2154.4047665831372
 21
1601.351161050291
 31
0.0
  0
LINE
  5
140C8
  8
0
 10
2154.4047665831372
 20
1628.3511530502919
 30
0.0
 11
2164.9047665831372
 21
1628.3511530502919
 31
0.0
  0
LINE
  5
140C9
  8
0
 10
2154.4047665831372
 20
1608.3511610502919
 30
0.0
 11
2164.9047665831372
 21
1608.3511610502919
 31
0.0
  0
LINE
  5
140CA
  8
0
 10
2148.4047665831372
 20
1616.9047350502919
 30
0.0
 11
2154.4047665831372
 21
1616.9047350502919
 31
0.0
  0
LINE
  5
140CB
  8
0
 10
2148.4047665831372
 20
1619.7975800502909
 30
0.0
 11
2154.4047665831372
 21
1619.7975800502909
 31
0.0
  0
LINE
  5
140CC
  8
0
 10
2164.9047665831372
 20
1628.3511530502919
 30
0.0
 11
2164.9047665831372
 21
1608.3511610502919
 31
0.0
  0
LINE
  5
140CD
  8
HIDE
 10
2157.6029234929301
 20
1611.351161050291
 30
0.0
 11
2161.2047665831369
 21
1611.351161050291
 31
0.0
  0
ARC
  5
140CE
  8
HIDE
 10
2157.6029234929301
 20
1611.551161050292
 30
0.0
 40
0.2
 50
180.0
 51
270.0
  0
ARC
  5
140CF
  8
HIDE
 10
2161.2047665831369
 20
1611.551161050292
 30
0.0
 40
0.2000000000000002
 50
270.0
 51
0.0
  0
LINE
  5
140D0
  8
HIDE
 10
2161.4047665831372
 20
1611.551161050292
 30
0.0
 11
2161.4047665831372
 21
1625.151161050291
 31
0.0
  0
LINE
  5
140D1
  8
HIDE
 10
2157.4047665831372
 20
1611.524071585523
 30
0.0
 11
2157.4047665831372
 21
1625.17825051506
 31
0.0
  0
LINE
  5
140D2
  8
HIDE
 10
2157.6029234929301
 20
1625.351161050291
 30
0.0
 11
2161.2047665831369
 21
1625.351161050291
 31
0.0
  0
ARC
  5
140D3
  8
HIDE
 10
2157.6029234929301
 20
1625.151161050291
 30
0.0
 40
0.2000000000000002
 50
90.0
 51
180.0
  0
ARC
  5
140D4
  8
HIDE
 10
2161.2047665831369
 20
1625.151161050291
 30
0.0
 40
0.2000000000000002
 50
0.0
 51
90.0
  0
CIRCLE
  5
140D5
  8
HIDE
 10
2159.4047665831372
 20
1623.101161050291
 30
0.0
 40
1.1999999999999991
  0
LINE
  5
140D6
  8
HIDE
 10
2160.506753425163
 20
1623.5761610502909
 30
0.0
 11
2161.4047665831372
 21
1623.5761610502909
 31
0.0
  0
LINE
  5
140D7
  8
HIDE
 10
2157.4047665831372
 20
1622.176161050292
 30
0.0
 11
2158.6403223405659
 21
1622.176161050292
 31
0.0
  0
LINE
  5
140D8
  8
HIDE
 10
2160.169210825708
 20
1622.176161050292
 30
0.0
 11
2161.4047665831372
 21
1622.176161050292
 31
0.0
  0
LINE
  5
140D9
  8
HIDE
 10
2159.0260366675079
 20
1624.2398285395111
 30
0.0
 11
2157.4047665831372
 21
1624.410230891888
 31
0.0
  0
LINE
  5
140DA
  8
HIDE
 10
2161.4047665831372
 20
1615.851161050291
 30
0.0
 11
2157.4047665831372
 21
1615.851161050291
 31
0.0
  0
LINE
  5
140DB
  8
HIDE
 10
2161.4047665831372
 20
1620.851161050291
 30
0.0
 11
2157.4047665831372
 21
1620.851161050291
 31
0.0
  0
CIRCLE
  5
140DC
  8
HIDE
 10
2159.4047665831372
 20
1613.601161050291
 30
0.0
 40
1.1999999999999991
  0
LINE
  5
140DD
  8
HIDE
 10
2160.506753425163
 20
1613.1261610502911
 30
0.0
 11
2161.4047665831372
 21
1613.126161050292
 31
0.0
  0
LINE
  5
140DE
  8
HIDE
 10
2157.4047665831372
 20
1614.526161050291
 30
0.0
 11
2158.6403223405659
 21
1614.526161050291
 31
0.0
  0
LINE
  5
140DF
  8
HIDE
 10
2160.169210825708
 20
1614.526161050291
 30
0.0
 11
2161.4047665831372
 21
1614.526161050291
 31
0.0
  0
LINE
  5
140E0
  8
HIDE
 10
2159.0260366675079
 20
1612.4624935610709
 30
0.0
 11
2157.4047665831372
 21
1612.292091208694
 31
0.0
  0
LINE
  5
140E1
  8
HIDE
 10
2157.2066096733452
 20
1611.351161050291
 30
0.0
 11
2153.604766583137
 21
1611.351161050291
 31
0.0
  0
ARC
  5
140E2
  8
HIDE
 10
2157.2066096733452
 20
1611.551161050292
 30
0.0
 40
0.2
 50
270.0
 51
0.0
  0
ARC
  5
140E3
  8
HIDE
 10
2153.604766583137
 20
1611.551161050292
 30
0.0
 40
0.2000000000000002
 50
180.0
 51
270.0
  0
LINE
  5
140E4
  8
HIDE
 10
2153.4047665831372
 20
1611.551161050292
 30
0.0
 11
2153.4047665831372
 21
1625.151161050291
 31
0.0
  0
LINE
  5
140E5
  8
HIDE
 10
2157.4047665831372
 20
1611.524071585523
 30
0.0
 11
2157.4047665831372
 21
1625.17825051506
 31
0.0
  0
LINE
  5
140E6
  8
HIDE
 10
2157.2066096733452
 20
1625.351161050291
 30
0.0
 11
2153.604766583137
 21
1625.351161050291
 31
0.0
  0
ARC
  5
140E7
  8
HIDE
 10
2157.2066096733452
 20
1625.151161050291
 30
0.0
 40
0.2000000000000002
 50
0.0
 51
90.0
  0
ARC
  5
140E8
  8
HIDE
 10
2153.604766583137
 20
1625.151161050291
 30
0.0
 40
0.2000000000000002
 50
90.0
 51
180.0
  0
CIRCLE
  5
140E9
  8
HIDE
 10
2155.4047665831372
 20
1623.101161050291
 30
0.0
 40
1.1999999999999991
  0
LINE
  5
140EA
  8
HIDE
 10
2154.30277974111
 20
1623.5761610502909
 30
0.0
 11
2153.4047665831372
 21
1623.5761610502909
 31
0.0
  0
LINE
  5
140EB
  8
HIDE
 10
2157.4047665831372
 20
1622.176161050292
 30
0.0
 11
2156.169210825708
 21
1622.176161050292
 31
0.0
  0
LINE
  5
140EC
  8
HIDE
 10
2154.6403223405659
 20
1622.176161050292
 30
0.0
 11
2153.4047665831372
 21
1622.176161050292
 31
0.0
  0
LINE
  5
140ED
  8
HIDE
 10
2155.7834964987651
 20
1624.2398285395111
 30
0.0
 11
2157.4047665831358
 21
1624.410230891888
 31
0.0
  0
LINE
  5
140EE
  8
HIDE
 10
2153.4047665831372
 20
1615.851161050291
 30
0.0
 11
2157.4047665831372
 21
1615.851161050291
 31
0.0
  0
LINE
  5
140EF
  8
HIDE
 10
2153.4047665831372
 20
1620.851161050291
 30
0.0
 11
2157.4047665831372
 21
1620.851161050291
 31
0.0
  0
CIRCLE
  5
140F0
  8
HIDE
 10
2155.4047665831372
 20
1613.601161050291
 30
0.0
 40
1.1999999999999991
  0
LINE
  5
140F1
  8
HIDE
 10
2154.30277974111
 20
1613.1261610502911
 30
0.0
 11
2153.4047665831372
 21
1613.126161050292
 31
0.0
  0
LINE
  5
140F2
  8
HIDE
 10
2157.4047665831372
 20
1614.526161050291
 30
0.0
 11
2156.169210825708
 21
1614.526161050291
 31
0.0
  0
LINE
  5
140F3
  8
HIDE
 10
2154.6403223405659
 20
1614.526161050291
 30
0.0
 11
2153.4047665831372
 21
1614.526161050291
 31
0.0
  0
LINE
  5
140F4
  8
HIDE
 10
2155.7834964987651
 20
1612.4624935610709
 30
0.0
 11
2157.4047665831358
 21
1612.292091208694
 31
0.0
  0
LINE
  5
140F5
  8
0
 10
2147.204766583136
 20
1625.1011610502919
 30
0.0
 11
2143.104766583137
 21
1625.1011610502919
 31
0.0
  0
ARC
  5
140F6
  8
0
 10
2147.204766583136
 20
1624.901161050293
 30
0.0
 40
0.2
 50
0.0
 51
90.0
  0
ARC
  5
140F7
  8
0
 10
2143.104766583137
 20
1624.901161050293
 30
0.0
 40
0.2
 50
90.0
 51
180.0
  0
LINE
  5
140F8
  8
0
 10
2147.204766583136
 20
1611.6011610502919
 30
0.0
 11
2143.104766583137
 21
1611.601161050291
 31
0.0
  0
LINE
  5
140F9
  8
0
 10
2142.9047665831372
 20
1624.901161050293
 30
0.0
 11
2142.9047665831372
 21
1611.8011610502911
 31
0.0
  0
ARC
  5
140FA
  8
0
 10
2143.104766583137
 20
1611.8011610502911
 30
0.0
 40
0.2
 50
180.0
 51
270.0
  0
LINE
  5
140FB
  8
0
 10
2147.9047665831372
 20
1622.851161050291
 30
0.0
 11
2147.9047665831372
 21
1613.851161050291
 31
0.0
  0
LINE
  5
140FC
  8
0
 10
2147.4047665831372
 20
1624.901161050293
 30
0.0
 11
2147.4047665831372
 21
1611.801161050292
 31
0.0
  0
ARC
  5
140FD
  8
0
 10
2147.204766583136
 20
1611.801161050292
 30
0.0
 40
0.2
 50
270.0
 51
0.0
  0
LINE
  5
140FE
  8
CENTER
 10
2148.7129181702312
 20
1618.3511610502919
 30
0.0
 11
2142.2023035544871
 21
1618.3511610502919
 31
0.0
  0
LINE
  5
140FF
  8
0
 10
2147.9047665831372
 20
1622.8511610502919
 30
0.0
 11
2147.4047665831372
 21
1623.139836184886
 31
0.0
  0
LINE
  5
14100
  8
0
 10
2147.9047665831372
 20
1613.8511610502931
 30
0.0
 11
2147.4047665831372
 21
1613.5624859156981
 31
0.0
  0
LINE
  5
14101
  8
0
 10
2147.4047665831372
 20
1619.473255394169
 30
0.0
 11
2142.9047665831372
 21
1619.473255394169
 31
0.0
  0
LINE
  5
14102
  8
0
 10
2147.4047665831372
 20
1617.2290667064119
 30
0.0
 11
2142.9047665831372
 21
1617.229066706411
 31
0.0
  0
LINE
  5
14103
  8
HIDE
 10
2147.9047665831381
 20
1615.851161050291
 30
0.0
 11
2142.9047665831372
 21
1615.851161050291
 31
0.0
  0
LINE
  5
14104
  8
HIDE
 10
2147.9047665831381
 20
1620.8511610502901
 30
0.0
 11
2142.9047665831372
 21
1620.8511610502919
 31
0.0
  0
LINE
  5
14105
  8
CENTER
 10
2145.204766583136
 20
1620.1801972807989
 30
0.0
 11
2145.204766583136
 21
1625.5593144705699
 31
0.0
  0
LINE
  5
14106
  8
HIDE
 10
2144.2047665831378
 20
1620.601161050291
 30
0.0
 11
2144.204766583136
 21
1625.0266760117011
 31
0.0
  0
LINE
  5
14107
  8
HIDE
 10
2146.2047665831401
 20
1620.601161050291
 30
0.0
 11
2146.204766583136
 21
1625.1011610502919
 31
0.0
  0
LINE
  5
14108
  8
HIDE
 10
2143.9047665831372
 20
1620.601161050291
 30
0.0
 11
2143.9047665831372
 21
1625.1011610502919
 31
0.0
  0
LINE
  5
14109
  8
HIDE
 10
2146.5047665831389
 20
1620.6011610502901
 30
0.0
 11
2146.5047665831412
 21
1625.1011610502919
 31
0.0
  0
LINE
  5
1410A
  8
HIDE
 10
2146.5047665831412
 20
1624.6201440783329
 30
0.0
 11
2143.9047665831372
 21
1624.6201440783329
 31
0.0
  0
LINE
  5
1410B
  8
HIDE
 10
2146.5047665831412
 20
1622.1201440783329
 30
0.0
 11
2143.9047665831372
 21
1622.1201440783329
 31
0.0
  0
LINE
  5
1410C
  8
HIDE
 10
2146.2047665831378
 20
1621.9485752420819
 30
0.0
 11
2146.5047665831389
 21
1622.1217803228401
 31
0.0
  0
LINE
  5
1410D
  8
HIDE
 10
2144.2047665831378
 20
1621.9469389975759
 30
0.0
 11
2143.9047665831372
 21
1622.1201440783329
 31
0.0
  0
LINE
  5
1410E
  8
HIDE
 10
2146.2047665831378
 20
1621.9485752420819
 30
0.0
 11
2144.2047665831378
 21
1621.9469389975759
 31
0.0
  0
LINE
  5
1410F
  8
HIDE
 10
2147.9047665831381
 20
1616.101161050291
 30
0.0
 11
2142.9047665831372
 21
1616.101161050291
 31
0.0
  0
LINE
  5
14110
  8
HIDE
 10
2147.9047665831381
 20
1620.601161050291
 30
0.0
 11
2142.9047665831372
 21
1620.601161050291
 31
0.0
  0
LINE
  5
14111
  8
0
 10
2148.4047665831372
 20
1622.3511610502919
 30
0.0
 11
2147.9047665831372
 21
1622.3511610502919
 31
0.0
  0
LINE
  5
14112
  8
0
 10
2148.4047665831372
 20
1614.3511610502919
 30
0.0
 11
2147.9047665831372
 21
1614.3511610502919
 31
0.0
  0
ARC
  5
14116
  8
0
 10
2100.914567294149
 20
1618.351161050291
 30
0.0
 40
17.0
 50
265.11916000001742
 51
274.88083000001501
  0
ARC
  5
14117
  8
0
 10
2100.914567294149
 20
1618.351161050291
 30
0.0
 40
17.0
 50
85.119169999984948
 51
94.880834999985893
  0
ARC
  5
14118
  8
CENTER
 10
2100.914567294149
 20
1618.351161050291
 30
0.0
 40
13.0
 50
248.3530000000016
 51
290.60428000000422
  0
CIRCLE
  5
14119
  8
0
 10
2100.914567294149
 20
1605.351161050291
 30
0.0
 40
1.7
  0
CIRCLE
  5
1411A
  8
0
 10
2100.914567294149
 20
1605.351161050291
 30
0.0
 40
3.25
  0
CIRCLE
  5
1411B
  8
0
 10
2087.914567294149
 20
1618.351161050291
 30
0.0
 40
3.25
  0
CIRCLE
  5
1411C
  8
0
 10
2087.914567294149
 20
1618.351161050291
 30
0.0
 40
1.7
  0
ARC
  5
1411D
  8
CENTER
 10
2100.914567294149
 20
1618.351161050291
 30
0.0
 40
13.0
 50
158.35299999999671
 51
200.6042800000042
  0
ARC
  5
1411E
  8
CENTER
 10
2100.914567294149
 20
1618.351161050291
 30
0.0
 40
13.0
 50
68.353008999985207
 51
110.6042800000042
  0
CIRCLE
  5
1411F
  8
0
 10
2100.914567294149
 20
1631.351153050291
 30
0.0
 40
1.7
  0
CIRCLE
  5
14120
  8
0
 10
2100.914567294149
 20
1631.351153050291
 30
0.0
 40
3.25
  0
CIRCLE
  5
14121
  8
0
 10
2113.914567294149
 20
1618.351161050291
 30
0.0
 40
3.25
  0
CIRCLE
  5
14122
  8
0
 10
2113.914567294149
 20
1618.351161050291
 30
0.0
 40
1.7
  0
ARC
  5
14123
  8
CENTER
 10
2100.914567294149
 20
1618.351161050291
 30
0.0
 40
13.0
 50
338.3530100000001
 51
20.604281999998609
  0
ARC
  5
14124
  8
0
 10
2100.914567294149
 20
1618.351161050291
 30
0.0
 40
17.0
 50
175.11917000001091
 51
184.88082999998909
  0
ARC
  5
14125
  8
0
 10
2100.914567294149
 20
1618.351161050291
 30
0.0
 40
17.0
 50
355.11917000001091
 51
4.8808330000120259
  0
LINE
  5
14127
  8
0
 10
2102.3610022941489
 20
1601.4127890502909
 30
0.0
 11
2117.8529372941489
 21
1616.904724050291
 31
0.0
  0
LINE
  5
14128
  8
0
 10
2083.976226294149
 20
1619.797565050291
 30
0.0
 11
2099.468161294149
 21
1635.2895000502911
 31
0.0
  0
LINE
  5
14129
  8
0
 10
2083.976214294149
 20
1616.904735050291
 30
0.0
 11
2099.4681502941489
 21
1601.4127990502909
 31
0.0
  0
LINE
  5
1412A
  8
0
 10
2102.3609922941491
 20
1635.289512050291
 30
0.0
 11
2117.8529272941491
 21
1619.7975760502909
 31
0.0
  0
LINE
  5
1412B
  8
0
 10
2102.0366616380288
 20
1611.6950808011179
 30
0.0
 11
2107.5706475433221
 21
1617.229066706411
 31
0.0
  0
LINE
  5
1412C
  8
0
 10
2094.2584870449759
 20
1619.4732553941701
 30
0.0
 11
2099.7924729502688
 21
1625.0072412994641
 31
0.0
  0
LINE
  5
1412D
  8
0
 10
2102.036661638027
 20
1625.0072412994641
 30
0.0
 11
2107.5706475433221
 21
1619.473255394171
 31
0.0
  0
LINE
  5
1412E
  8
0
 10
2094.2584870449759
 20
1617.229066706411
 30
0.0
 11
2099.7924729502711
 21
1611.6950808011179
 31
0.0
  0
ARC
  5
1412F
  8
0
 10
2100.914567294149
 20
1618.351161050291
 30
0.0
 40
6.75
 50
170.43094468734719
 51
189.56905531265281
  0
ARC
  5
14130
  8
0
 10
2100.914567294149
 20
1618.351161050291
 30
0.0
 40
6.75
 50
260.430944687345
 51
279.56905531265488
  0
ARC
  5
14131
  8
0
 10
2100.914567294149
 20
1618.351161050291
 30
0.0
 40
6.75
 50
350.43094468734722
 51
9.5690553126528055
  0
ARC
  5
14132
  8
0
 10
2100.914567294149
 20
1618.351161050291
 30
0.0
 40
6.75
 50
80.430944687345033
 51
99.569055312654982
  0
ARC
  5
14133
  8
HIDE
 10
2100.914567294149
 20
1618.351161050291
 30
0.0
 40
2.5
 50
270.0
 51
180.0
  0
LINE
  5
14134
  8
HIDE
 10
2101.9145672941459
 20
1620.3667254873669
 30
0.0
 11
2101.914567294149
 21
1625.0266760116999
 31
0.0
  0
LINE
  5
14135
  8
HIDE
 10
2099.9145672941449
 20
1620.3667254873651
 30
0.0
 11
2099.914567294149
 21
1625.0266760116999
 31
0.0
  0
LINE
  5
14136
  8
HIDE
 10
2102.2145672941451
 20
1620.1875978175151
 30
0.0
 11
2102.2145672941492
 21
1624.8293356433451
 31
0.0
  0
LINE
  5
14137
  8
HIDE
 10
2099.6145672941502
 20
1620.1875978175119
 30
0.0
 11
2099.6145672941461
 21
1624.8293356433419
 31
0.0
  0
LINE
  5
14138
  8
HIDE
 10
2099.6145672941439
 20
1624.620144078332
 30
0.0
 11
2102.2145672941492
 21
1624.620144078332
 31
0.0
  0
LINE
  5
14139
  8
HIDE
 10
2099.6145672941439
 20
1622.1201440783329
 30
0.0
 11
2102.2145672941492
 21
1622.1201440783329
 31
0.0
  0
LINE
  5
1413A
  8
HIDE
 10
2099.9145672941472
 20
1621.948575242081
 30
0.0
 11
2099.6145672941461
 21
1622.121780322839
 31
0.0
  0
LINE
  5
1413B
  8
HIDE
 10
2101.9145672941472
 20
1621.9469389975759
 30
0.0
 11
2102.2145672941492
 21
1622.1201440783329
 31
0.0
  0
LINE
  5
1413C
  8
HIDE
 10
2099.9145672941472
 20
1621.948575242081
 30
0.0
 11
2101.9145672941472
 21
1621.9469389975759
 31
0.0
  0
CIRCLE
  5
1413D
  8
0
 10
2100.914567294149
 20
1618.351161050291
 30
0.0
 40
2.25
  0
LINE
  5
1413E
  8
CENTER
 10
2080.914567294149
 20
1618.351161050291
 30
0.0
 11
2120.914567294149
 21
1618.351161050291
 31
0.0
  0
LINE
  5
1413F
  8
CENTER
 10
2100.914567294149
 20
1598.351161050291
 30
0.0
 11
2100.914567294149
 21
1638.351161050291
 31
0.0
  0
ARC
  5
141C1
  8
HIDE
 10
2100.914567294149
 20
1618.351161050291
 30
0.0
 40
8.0
 50
270.0
 51
180.0
  0
CIRCLE
  5
141C2
  8
0
 10
2100.914567294149
 20
1618.351161050291
 30
0.0
 40
7.75
  0
ENDSEC
  0
EOF
