  0
SECTION
  2
HEADER
  9
$ACADVER
  1
AC1009
  9
$INSBASE
 10
0.0
 20
0.0
 30
0.0
  9
$EXTMIN
 10
1903.0405749290021
 20
1433.173578249188
 30
0.0
  9
$EXTMAX
 10
2348.540574929003
 20
1748.173578249188
 30
0.0
  9
$LIMMIN
 10
0.0
 20
0.0
  9
$LIMMAX
 10
12.0
 20
9.0
  9
$ORTHOMODE
 70
     1
  9
$REGENMODE
 70
     1
  9
$FILLMODE
 70
     1
  9
$QTEXTMODE
 70
     0
  9
$MIRRTEXT
 70
     0
  9
$DRAGMODE
 70
     2
  9
$LTSCALE
 40
5.0
  9
$OSMODE
 70
  2239
  9
$ATTMODE
 70
     1
  9
$TEXTSIZE
 40
2.5
  9
$TRACEWID
 40
0.05
  9
$TEXTSTYLE
  7
BIG
  9
$CLAYER
  8
0
  9
$CELTYPE
  6
BYLAYER
  9
$CECOLOR
 62
   256
  9
$DIMSCALE
 40
1.0
  9
$DIMASZ
 40
3.0
  9
$DIMEXO
 40
1.0
  9
$DIMDLI
 40
0.0
  9
$DIMRND
 40
0.0
  9
$DIMDLE
 40
0.0
  9
$DIMEXE
 40
1.0
  9
$DIMTP
 40
0.0
  9
$DIMTM
 40
0.0
  9
$DIMTXT
 40
3.0
  9
$DIMCEN
 40
0.0
  9
$DIMTSZ
 40
0.0
  9
$DIMTOL
 70
     0
  9
$DIMLIM
 70
     0
  9
$DIMTIH
 70
     0
  9
$DIMTOH
 70
     0
  9
$DIMSE1
 70
     0
  9
$DIMSE2
 70
     0
  9
$DIMTAD
 70
     1
  9
$DIMZIN
 70
     8
  9
$DIMBLK
  1

  9
$DIMASO
 70
     1
  9
$DIMSHO
 70
     1
  9
$DIMPOST
  1

  9
$DIMAPOST
  1

  9
$DIMALT
 70
     0
  9
$DIMALTD
 70
     2
  9
$DIMALTF
 40
25.399999999999999
  9
$DIMLFAC
 40
1.0
  9
$DIMTOFL
 70
     1
  9
$DIMTVP
 40
0.0
  9
$DIMTIX
 70
     1
  9
$DIMSOXD
 70
     0
  9
$DIMSAH
 70
     0
  9
$DIMBLK1
  1

  9
$DIMBLK2
  1

  9
$DIMSTYLE
  2
DUKITEC
  9
$DIMCLRD
 70
     5
  9
$DIMCLRE
 70
     5
  9
$DIMCLRT
 70
     0
  9
$DIMTFAC
 40
1.0
  9
$DIMGAP
 40
1.0
  9
$LUNITS
 70
     2
  9
$LUPREC
 70
     4
  9
$SKETCHINC
 40
0.1
  9
$FILLETRAD
 40
0.2
  9
$AUNITS
 70
     0
  9
$AUPREC
 70
     0
  9
$MENU
  1
.
  9
$ELEVATION
 40
0.0
  9
$PELEVATION
 40
0.0
  9
$THICKNESS
 40
0.0
  9
$LIMCHECK
 70
     0
  9
$BLIPMODE
 70
     0
  9
$CHAMFERA
 40
0.5
  9
$CHAMFERB
 40
0.5
  9
$SKPOLY
 70
     0
  9
$TDCREATE
 40
2454396.7139767711
  9
$TDUPDATE
 40
2456630.7395919221
  9
$TDINDWG
 40
0.0195711458
  9
$TDUSRTIMER
 40
0.0195710764
  9
$USRTIMER
 70
     1
  9
$ANGBASE
 50
0.0
  9
$ANGDIR
 70
     0
  9
$PDMODE
 70
     0
  9
$PDSIZE
 40
0.0
  9
$PLINEWID
 40
0.0
  9
$COORDS
 70
     1
  9
$SPLFRAME
 70
     0
  9
$SPLINETYPE
 70
     6
  9
$SPLINESEGS
 70
     8
  9
$ATTDIA
 70
     0
  9
$ATTREQ
 70
     1
  9
$HANDLING
 70
     1
  9
$HANDSEED
  5
1423F
  9
$SURFTAB1
 70
     6
  9
$SURFTAB2
 70
     6
  9
$SURFTYPE
 70
     6
  9
$SURFU
 70
     6
  9
$SURFV
 70
     6
  9
$UCSNAME
  2

  9
$UCSORG
 10
0.0
 20
0.0
 30
0.0
  9
$UCSXDIR
 10
1.0
 20
0.0
 30
0.0
  9
$UCSYDIR
 10
0.0
 20
1.0
 30
0.0
  9
$PUCSNAME
  2

  9
$PUCSORG
 10
0.0
 20
0.0
 30
0.0
  9
$PUCSXDIR
 10
1.0
 20
0.0
 30
0.0
  9
$PUCSYDIR
 10
0.0
 20
1.0
 30
0.0
  9
$USERI1
 70
     0
  9
$USERI2
 70
     0
  9
$USERI3
 70
     0
  9
$USERI4
 70
     0
  9
$USERI5
 70
     0
  9
$USERR1
 40
0.0
  9
$USERR2
 40
0.0
  9
$USERR3
 40
0.0
  9
$USERR4
 40
0.0
  9
$USERR5
 40
0.0
  9
$WORLDVIEW
 70
     1
  9
$SHADEDGE
 70
     3
  9
$SHADEDIF
 70
    70
  9
$TILEMODE
 70
     1
  9
$MAXACTVP
 70
    64
  9
$PLIMCHECK
 70
     0
  9
$PEXTMIN
 10
0.0
 20
0.0
 30
0.0
  9
$PEXTMAX
 10
0.0
 20
0.0
 30
0.0
  9
$PLIMMIN
 10
0.0
 20
0.0
  9
$PLIMMAX
 10
12.0
 20
9.0
  9
$UNITMODE
 70
     0
  9
$VISRETAIN
 70
     1
  9
$PLINEGEN
 70
     0
  9
$PSLTSCALE
 70
     1
  0
ENDSEC
  0
SECTION
  2
TABLES
  0
TABLE
  2
VPORT
 70
     1
  0
VPORT
  2
*ACTIVE
 70
     0
 10
0.0
 20
0.0
 11
1.0
 21
1.0
 12
2122.6608996269501
 22
1555.210751727735
 13
0.0
 23
0.0
 14
0.5
 24
0.5
 15
0.5
 25
0.5
 16
0.0
 26
0.0
 36
1.0
 17
0.0
 27
0.0
 37
0.0
 40
153.3245886703013
 41
2.1408934707903771
 42
50.0
 43
0.0
 44
0.0
 50
0.0
 51
0.0
 71
     0
 72
  2000
 73
     1
 74
     3
 75
     0
 76
     0
 77
     0
 78
     0
  0
ENDTAB
  0
TABLE
  2
LTYPE
 70
     5
  0
LTYPE
  2
CONTINUOUS
 70
     0
  3
Solid line
 72
    65
 73
     0
 40
0.0
  0
LTYPE
  2
PHANTOM2
 70
     0
  3
Phantom (.5x) ___ _ _ ___ _ _ ___ _ _ ___ _ _
 72
    65
 73
     6
 40
1.25
 49
0.625
 49
-0.125
 49
0.125
 49
-0.125
 49
0.125
 49
-0.125
  0
LTYPE
  2
CENTER
 70
     0
  3
___ _ ___ _ ___ _ ___ _ ___ _ ___ _ ___ _ ___ _
 72
    65
 73
     4
 40
0.95
 49
0.625
 49
-0.125
 49
0.075
 49
-0.125
  0
LTYPE
  2
DASHED2
 70
     0
  3
Dashed (.5x) _ _ _ _ _ _ _ _ _ _ _ _ _ _ _ _ _
 72
    65
 73
     2
 40
0.375
 49
0.25
 49
-0.125
  0
ENDTAB
  0
TABLE
  2
LAYER
 70
     4
  0
LAYER
  2
0
 70
     0
 62
     7
  6
CONTINUOUS
  0
LAYER
  2
HIDE
 70
     0
 62
     1
  6
DASHED2
  0
LAYER
  2
CENTER
 70
     0
 62
     3
  6
CENTER
  0
ENDTAB
  0
TABLE
  2
STYLE
 70
     3
  0
STYLE
  2
STANDARD
 70
     0
 40
5.0
 41
1.0
 50
0.0
 71
     0
 42
5.0
  3
txt.shx
  4
whgtxt.shx
  0
STYLE
  2
BIG
 70
     0
 40
20.0
 41
1.0
 50
0.0
 71
     0
 42
2.5
  3
txt
  4

  0
ENDTAB
  0
TABLE
  2
VIEW
 70
     0
  0
ENDTAB
  0
TABLE
  2
UCS
 70
     0
  0
ENDTAB
  0
TABLE
  2
APPID
 70
    10
  0
APPID
  2
ACAD
 70
     0
  0
APPID
  2
ACADANNOTATIVE
 70
     0
  0
APPID
  2
ACAD_EXEMPT_FROM_CAD_STANDARDS
 70
     0
  0
APPID
  2
ACAD_DSTYLE_DIMJOGGED_JOGA
 70
     0
  0
APPID
  2
ACAD_PSEXT
 70
     0
  0
APPID
  2
ACAECLAYERSTANDARD
 70
     0
  0
APPID
  2
DCO15
 70
     0
  0
APPID
  2
CONTENTBLOCKICON
 70
     0
  0
APPID
  2
ACAD_NAV_VCDISPLAY
 70
     0
  0
APPID
  2
ACAD_MLEADERVER
 70
     0
  0
ENDTAB
  0
TABLE
  2
DIMSTYLE
 70
     4
  0
DIMSTYLE
  2
DUKITEC
 70
     0
  3

  4

  5

  6

  7

 40
1.0
 41
3.0
 42
1.0
 43
0.0
 44
1.0
 45
0.0
 46
0.0
 47
0.0
 48
0.0
140
3.0
141
0.0
142
0.0
143
25.399999999999999
144
1.0
145
0.0
146
1.0
147
1.0
 71
     0
 72
     0
 73
     0
 74
     0
 75
     0
 76
     0
 77
     1
 78
     8
170
     0
171
     2
172
     1
173
     0
174
     1
175
     0
176
     5
177
     5
178
     0
  0
ENDTAB
  0
ENDSEC
  0
SECTION
  2
BLOCKS
  0
BLOCK
  8
0
  2
$MODEL_SPACE
 70
     0
 10
0.0
 20
0.0
 30
0.0
  3
$MODEL_SPACE
  1

  0
ENDBLK
  5
1407F
  8
0
  0
BLOCK
 67
     1
  8
0
  2
$PAPER_SPACE
 70
     0
 10
0.0
 20
0.0
 30
0.0
  3
$PAPER_SPACE
  1

  0
ENDBLK
  5
1407B
 67
     1
  8
0
  0
ENDSEC
  0
SECTION
  2
ENTITIES
  0
POLYLINE
  5
13E1C
  8
0
 66
     1
 10
0.0
 20
0.0
 30
0.0
 70
     1
  0
VERTEX
  5
141FA
  8
0
 10
2026.26908478261
 20
1498.9493553645291
 30
0.0
  0
VERTEX
  5
141FB
  8
0
 10
2026.26908478261
 20
1624.9493553645291
 30
0.0
  0
VERTEX
  5
141FC
  8
0
 10
2204.46908478261
 20
1624.9493553645291
 30
0.0
  0
VERTEX
  5
141FD
  8
0
 10
2204.46908478261
 20
1498.9493553645291
 30
0.0
  0
VERTEX
  5
141FE
  8
0
 10
2026.26908478261
 20
1498.9493553645291
 30
0.0
  0
SEQEND
  5
141FF
  8
0
  0
TEXT
  5
13FED
  8
0
 10
2086.5134594250972
 20
1514.426841479258
 30
0.0
 40
20.0
  1
FK6
  7
BIG
  0
ARC
  5
1409C
  8
CENTER
 10
2087.7052689483789
 20
1569.398615121986
 30
0.0
 40
14.0
 50
72.492915000003478
 51
106.87682300000721
  0
ARC
  5
1409D
  8
CENTER
 10
2087.7052689483789
 20
1569.398615121986
 30
0.0
 40
14.0
 50
342.49982599999879
 51
16.786220999991901
  0
ARC
  5
1409E
  8
CENTER
 10
2087.7052689483789
 20
1569.398615121986
 30
0.0
 40
14.0
 50
252.28803100000971
 51
288.19746199999702
  0
ARC
  5
140A0
  8
CENTER
 10
2087.7052689483789
 20
1569.398615121986
 30
0.0
 40
14.0
 50
163.57555199999771
 51
197.32014200000879
  0
CIRCLE
  5
140A1
  8
0
 10
2087.7052689483789
 20
1583.398615121986
 30
0.0
 40
1.7
  0
CIRCLE
  5
140A2
  8
0
 10
2087.7052689483789
 20
1583.398615121986
 30
0.0
 40
3.25
  0
CIRCLE
  5
140A3
  8
0
 10
2073.7052689483789
 20
1569.398615121986
 30
0.0
 40
1.7
  0
CIRCLE
  5
140A4
  8
0
 10
2073.7052689483789
 20
1569.398615121986
 30
0.0
 40
3.25
  0
CIRCLE
  5
140A5
  8
0
 10
2087.7052689483789
 20
1555.398615121986
 30
0.0
 40
1.7
  0
CIRCLE
  5
140A6
  8
0
 10
2087.7052689483789
 20
1555.398615121986
 30
0.0
 40
3.25
  0
CIRCLE
  5
140A7
  8
0
 10
2101.7052689483789
 20
1569.398615121986
 30
0.0
 40
1.7
  0
CIRCLE
  5
140A8
  8
0
 10
2101.7052689483789
 20
1569.398615121986
 30
0.0
 40
3.25
  0
CIRCLE
  5
140A9
  8
0
 10
2087.7052689483789
 20
1583.398615121986
 30
0.0
 40
1.7
  0
CIRCLE
  5
140AA
  8
0
 10
2087.7052689483789
 20
1583.398615121986
 30
0.0
 40
3.25
  0
LINE
  5
140AB
  8
CENTER
 10
2065.7052712287382
 20
1569.398615121986
 30
0.0
 11
2109.7052666680188
 21
1569.398615121986
 31
0.0
  0
LINE
  5
140AC
  8
CENTER
 10
2087.7052689483789
 20
1547.3986174023451
 30
0.0
 11
2087.7052689483789
 21
1591.398612841627
 31
0.0
  0
LINE
  5
140AD
  8
0
 10
2089.0701935271918
 20
1562.2782583265609
 30
0.0
 11
2094.8256257438038
 21
1568.033690543175
 31
0.0
  0
LINE
  5
140AE
  8
0
 10
2080.5849121529541
 20
1570.7635397007989
 30
0.0
 11
2086.340344369567
 21
1576.5189719174109
 31
0.0
  0
LINE
  5
140AF
  8
HIDE
 10
2089.2052689483789
 20
1576.3838964962231
 30
0.0
 11
2089.2052689483812
 21
1571.5528261144359
 31
0.0
  0
LINE
  5
140B0
  8
HIDE
 10
2088.9552689483789
 20
1576.5400435505289
 30
0.0
 11
2088.9552689483789
 21
1571.706888286064
 31
0.0
  0
LINE
  5
140B1
  8
HIDE
 10
2086.2052689483799
 20
1576.3838964962231
 30
0.0
 11
2086.2052689483821
 21
1571.55282611444
 31
0.0
  0
LINE
  5
140B2
  8
HIDE
 10
2086.4552689483789
 20
1576.5400435505289
 30
0.0
 11
2086.4552689483789
 21
1571.7068882860631
 31
0.0
  0
LINE
  5
140B3
  8
0
 10
2089.0701935271918
 20
1576.5189719174109
 30
0.0
 11
2094.8256257438061
 21
1570.763539700795
 31
0.0
  0
LINE
  5
140B4
  8
0
 10
2080.584912152955
 20
1568.0336905431709
 30
0.0
 11
2086.3403443695661
 21
1562.2782583265621
 31
0.0
  0
ARC
  5
140B5
  8
0
 10
2087.7052689483789
 20
1569.398615121986
 30
0.0
 40
7.25
 50
169.1484243449693
 51
190.85157565508189
  0
ARC
  5
140B6
  8
0
 10
2087.7052689483789
 20
1569.398615121986
 30
0.0
 40
7.25
 50
259.14842434496933
 51
280.85157565503067
  0
ARC
  5
140B7
  8
0
 10
2087.7052689483789
 20
1569.398615121986
 30
0.0
 40
7.25
 50
349.14842434491811
 51
10.85157565503069
  0
ARC
  5
140B8
  8
0
 10
2087.7052689483789
 20
1569.398615121986
 30
0.0
 40
7.25
 50
79.148424344969314
 51
100.8515756550307
  0
LINE
  5
140B9
  8
HIDE
 10
2086.2052689483821
 20
1573.121640255823
 30
0.0
 11
2089.2052689483821
 21
1573.121640255823
 31
0.0
  0
LINE
  5
140BA
  8
HIDE
 10
2086.2052689483821
 20
1576.121640255823
 30
0.0
 11
2089.2052689483821
 21
1576.121640255823
 31
0.0
  0
LINE
  5
140BB
  8
HIDE
 10
2086.2052689483821
 20
1573.1216402558209
 30
0.0
 11
2086.4552689483789
 21
1572.9773026885259
 31
0.0
  0
LINE
  5
140BC
  8
HIDE
 10
2089.2052689483789
 20
1573.1216402558221
 30
0.0
 11
2088.9552689483789
 21
1572.977302688525
 31
0.0
  0
LINE
  5
140BD
  8
HIDE
 10
2086.4552689483789
 20
1572.9773026885259
 30
0.0
 11
2088.9552689483789
 21
1572.977302688525
 31
0.0
  0
ARC
  5
140BE
  8
HIDE
 10
2087.7052689483789
 20
1569.398615121986
 30
0.0
 40
3.0
 50
270.0
 51
180.0
  0
CIRCLE
  5
140BF
  8
0
 10
2087.7052689483789
 20
1569.398615121986
 30
0.0
 40
2.625
  0
ARC
  5
140C0
  8
0
 10
2087.7052689483789
 20
1569.398615121986
 30
0.0
 40
18.0
 50
353.94244126898849
 51
6.0575587310115262
  0
ARC
  5
140C1
  8
0
 10
2087.7052689483789
 20
1569.398615121986
 30
0.0
 40
18.0
 50
83.942441268987096
 51
96.05755873101289
  0
ARC
  5
140C2
  8
0
 10
2087.7052689483789
 20
1569.398615121986
 30
0.0
 40
18.0
 50
173.9424412689884
 51
186.05755873101151
  0
ARC
  5
140C3
  8
0
 10
2087.7052689483789
 20
1569.398615121986
 30
0.0
 40
18.0
 50
263.94244126898712
 51
276.05755873101288
  0
LINE
  5
140C4
  8
0
 10
2085.805774011767
 20
1551.4991201853741
 30
0.0
 11
2069.805774011767
 21
1567.499120185375
 31
0.0
  0
LINE
  5
140C5
  8
0
 10
2105.60476388499
 20
1571.2981100585971
 30
0.0
 11
2089.6047638849909
 21
1587.2981100585971
 31
0.0
  0
LINE
  5
140C6
  8
0
 10
2089.60476388499
 20
1551.4991201853741
 30
0.0
 11
2105.60476388499
 21
1567.4991201853729
 31
0.0
  0
LINE
  5
140C7
  8
0
 10
2069.805774011767
 20
1571.298110058598
 30
0.0
 11
2085.8057740117688
 21
1587.298110058598
 31
0.0
  0
LINE
  5
140CA
  8
HIDE
 10
2130.214615766989
 20
1558.648615121986
 30
0.0
 11
2134.214615766989
 21
1558.648615121986
 31
0.0
  0
LINE
  5
140CB
  8
HIDE
 10
2134.214615766989
 20
1557.0986151219861
 30
0.0
 11
2137.214615766989
 21
1557.0986151219861
 31
0.0
  0
LINE
  5
140CC
  8
HIDE
 10
2134.214615766989
 20
1553.698615121986
 30
0.0
 11
2137.214615766989
 21
1553.698615121986
 31
0.0
  0
LINE
  5
140CD
  8
HIDE
 10
2130.214615766989
 20
1552.148615121986
 30
0.0
 11
2134.214615766989
 21
1552.148615121986
 31
0.0
  0
LINE
  5
140CE
  8
HIDE
 10
2134.214615766989
 20
1558.648615121986
 30
0.0
 11
2134.214615766989
 21
1552.148615121986
 31
0.0
  0
LINE
  5
140CF
  8
HIDE
 10
2134.214615766989
 20
1586.648615121986
 30
0.0
 11
2134.214615766989
 21
1580.148615121986
 31
0.0
  0
LINE
  5
140D0
  8
HIDE
 10
2130.214615766989
 20
1580.148615121986
 30
0.0
 11
2134.214615766989
 21
1580.148615121986
 31
0.0
  0
LINE
  5
140D1
  8
HIDE
 10
2134.214615766989
 20
1581.698615121986
 30
0.0
 11
2137.214615766989
 21
1581.698615121986
 31
0.0
  0
LINE
  5
140D2
  8
HIDE
 10
2134.214615766989
 20
1585.0986151219861
 30
0.0
 11
2137.214615766989
 21
1585.0986151219861
 31
0.0
  0
LINE
  5
140D3
  8
HIDE
 10
2130.214615766989
 20
1586.648615121986
 30
0.0
 11
2134.214615766989
 21
1586.648615121986
 31
0.0
  0
LINE
  5
140D4
  8
CENTER
 10
2128.6952171002872
 20
1555.398615121986
 30
0.0
 11
2138.5733269567181
 21
1555.398615121986
 31
0.0
  0
LINE
  5
140D5
  8
CENTER
 10
2128.6952171002872
 20
1583.398615121986
 30
0.0
 11
2138.5733269567181
 21
1583.398615121986
 31
0.0
  0
LINE
  5
140D6
  8
0
 10
2130.214615766989
 20
1587.398615121986
 30
0.0
 11
2137.214615766989
 21
1587.398615121986
 31
0.0
  0
LINE
  5
140D7
  8
0
 10
2130.214615766989
 20
1551.398615121986
 30
0.0
 11
2137.214615766989
 21
1551.398615121986
 31
0.0
  0
LINE
  5
140D8
  8
0
 10
2130.214615766989
 20
1564.648615121986
 30
0.0
 11
2129.714615766989
 21
1564.648615121986
 31
0.0
  0
LINE
  5
140D9
  8
0
 10
2130.214615766989
 20
1574.148615121986
 30
0.0
 11
2129.714615766989
 21
1574.148615121986
 31
0.0
  0
LINE
  5
140DA
  8
0
 10
2153.714615766989
 20
1574.148615121986
 30
0.0
 11
2150.214615766989
 21
1574.148615121986
 31
0.0
  0
LINE
  5
140DB
  8
0
 10
2130.214615766989
 20
1587.398615121986
 30
0.0
 11
2130.214615766989
 21
1551.398615121986
 31
0.0
  0
LINE
  5
140DC
  8
0
 10
2150.214615766989
 20
1564.648615121986
 30
0.0
 11
2153.714615766989
 21
1564.648615121986
 31
0.0
  0
LINE
  5
140DD
  8
0
 10
2153.714615766989
 20
1564.648615121986
 30
0.0
 11
2153.714615766989
 21
1574.148615121986
 31
0.0
  0
LINE
  5
140DE
  8
CENTER
 10
2122.319122746585
 20
1569.398615121986
 30
0.0
 11
2154.005787055637
 21
1569.398615121986
 31
0.0
  0
LINE
  5
140DF
  8
HIDE
 10
2129.714615766989
 20
1566.398615121986
 30
0.0
 11
2132.714615766989
 21
1566.398615121986
 31
0.0
  0
LINE
  5
140E0
  8
HIDE
 10
2146.714615766989
 20
1566.398615121986
 30
0.0
 11
2153.714615766989
 21
1566.3986151219849
 31
0.0
  0
LINE
  5
140E1
  8
HIDE
 10
2129.714615766989
 20
1572.398615121986
 30
0.0
 11
2132.714615766989
 21
1572.398615121986
 31
0.0
  0
LINE
  5
140E2
  8
HIDE
 10
2146.714615766989
 20
1572.398615121986
 30
0.0
 11
2153.714615766989
 21
1572.3986151219849
 31
0.0
  0
LINE
  5
140E3
  8
HIDE
 10
2130.214615766989
 20
1564.648615121986
 30
0.0
 11
2132.714615766989
 21
1564.648615121986
 31
0.0
  0
LINE
  5
140E4
  8
HIDE
 10
2146.714615766989
 20
1564.648615121986
 30
0.0
 11
2150.214615766989
 21
1564.648615121986
 31
0.0
  0
LINE
  5
140E5
  8
HIDE
 10
2146.714615766989
 20
1574.148615121986
 30
0.0
 11
2150.214615766989
 21
1574.1486151219849
 31
0.0
  0
LINE
  5
140E6
  8
HIDE
 10
2130.214615766989
 20
1574.148615121986
 30
0.0
 11
2132.714615766989
 21
1574.148615121986
 31
0.0
  0
LINE
  5
140E7
  8
0
 10
2137.214615766989
 20
1558.398615121986
 30
0.0
 11
2150.214615766989
 21
1558.398615121986
 31
0.0
  0
LINE
  5
140E8
  8
0
 10
2137.214615766989
 20
1580.398615121986
 30
0.0
 11
2150.214615766989
 21
1580.398615121986
 31
0.0
  0
LINE
  5
140E9
  8
0
 10
2137.214615766989
 20
1587.398615121986
 30
0.0
 11
2137.214615766989
 21
1551.398615121986
 31
0.0
  0
LINE
  5
140EA
  8
0
 10
2150.214615766989
 20
1558.398615121986
 30
0.0
 11
2150.214615766989
 21
1580.398615121986
 31
0.0
  0
LINE
  5
140EB
  8
0
 10
2130.214615766989
 20
1567.499125121986
 30
0.0
 11
2137.214615766989
 21
1567.499125121986
 31
0.0
  0
LINE
  5
140EC
  8
0
 10
2130.214615766989
 20
1571.2981061219859
 30
0.0
 11
2137.214615766989
 21
1571.2981061219859
 31
0.0
  0
POINT
  5
140ED
  8
0
 10
2152.214615766989
 20
1569.398615121986
 30
0.0
  0
POINT
  5
140EE
  8
0
 10
2152.214615766989
 20
1569.398615121986
 30
0.0
  0
CIRCLE
  5
140EF
  8
HIDE
 10
2136.214615766989
 20
1562.648615121986
 30
0.0
 40
2.25
  0
CIRCLE
  5
140F0
  8
HIDE
 10
2136.214615766989
 20
1576.148615121986
 30
0.0
 40
2.25
  0
ARC
  5
140F1
  8
HIDE
 10
2139.4146157669888
 20
1572.698615121986
 30
0.0
 40
0.2999999999999998
 50
270.0
 51
0.0
  0
ARC
  5
140F2
  8
HIDE
 10
2139.4146157669888
 20
1566.0986151219861
 30
0.0
 40
0.2999999999999998
 50
0.0
 51
90.0
  0
LINE
  5
140F3
  8
HIDE
 10
2132.714615766989
 20
1574.7486151219859
 30
0.0
 11
2134.4532242716082
 21
1574.7486151219859
 31
0.0
  0
LINE
  5
140F4
  8
HIDE
 10
2137.9760072623699
 20
1574.7486151219859
 30
0.0
 11
2139.714615766989
 21
1574.7486151219859
 31
0.0
  0
LINE
  5
140F5
  8
HIDE
 10
2139.714615766989
 20
1564.0486151219859
 30
0.0
 11
2137.9760072623699
 21
1564.0486151219859
 31
0.0
  0
LINE
  5
140F6
  8
HIDE
 10
2134.4532242716082
 20
1564.0486151219859
 30
0.0
 11
2132.714615766989
 21
1564.0486151219859
 31
0.0
  0
ARC
  5
140F7
  8
HIDE
 10
2133.0146157669901
 20
1572.698615121986
 30
0.0
 40
0.3
 50
180.0
 51
270.0
  0
LINE
  5
140F8
  8
HIDE
 10
2132.714615766989
 20
1572.698615121986
 30
0.0
 11
2132.714615766989
 21
1569.398615121986
 31
0.0
  0
LINE
  5
140F9
  8
HIDE
 10
2132.714615766989
 20
1566.0986151219861
 30
0.0
 11
2132.714615766989
 21
1569.398615121986
 31
0.0
  0
ARC
  5
140FA
  8
HIDE
 10
2133.0146157669901
 20
1566.0986151219861
 30
0.0
 40
0.2999999999999998
 50
90.0
 51
180.0
  0
LINE
  5
140FB
  8
HIDE
 10
2132.714615766989
 20
1564.0486151219859
 30
0.0
 11
2132.714615766989
 21
1566.0986151219861
 31
0.0
  0
LINE
  5
140FC
  8
HIDE
 10
2133.0146157669901
 20
1566.398615121986
 30
0.0
 11
2139.4146157669888
 21
1566.398615121986
 31
0.0
  0
LINE
  5
140FD
  8
HIDE
 10
2133.0146157669901
 20
1572.398615121986
 30
0.0
 11
2139.4146157669888
 21
1572.398615121986
 31
0.0
  0
LINE
  5
140FE
  8
HIDE
 10
2132.714615766989
 20
1574.7486151219859
 30
0.0
 11
2132.714615766989
 21
1572.698615121986
 31
0.0
  0
LINE
  5
140FF
  8
HIDE
 10
2139.714615766989
 20
1572.698615121986
 30
0.0
 11
2139.714615766989
 21
1569.398615121986
 31
0.0
  0
LINE
  5
14100
  8
HIDE
 10
2139.714615766989
 20
1566.0986151219861
 30
0.0
 11
2139.714615766989
 21
1569.398615121986
 31
0.0
  0
LINE
  5
14101
  8
HIDE
 10
2139.714615766989
 20
1566.0986151219861
 30
0.0
 11
2139.714615766989
 21
1564.0486151219859
 31
0.0
  0
LINE
  5
14102
  8
HIDE
 10
2139.714615766989
 20
1574.7486151219859
 30
0.0
 11
2139.714615766989
 21
1572.698615121986
 31
0.0
  0
LINE
  5
14103
  8
HIDE
 10
2132.714615766989
 20
1564.0486151219859
 30
0.0
 11
2132.714615766989
 21
1561.0486151219859
 31
0.0
  0
LINE
  5
14104
  8
HIDE
 10
2139.714615766989
 20
1560.148615121986
 30
0.0
 11
2139.714615766989
 21
1564.0486151219859
 31
0.0
  0
LINE
  5
14105
  8
HIDE
 10
2136.214615766989
 20
1560.398615121986
 30
0.0
 11
2139.714615766989
 21
1560.148615121986
 31
0.0
  0
LINE
  5
14106
  8
HIDE
 10
2133.0146157669901
 20
1558.898615121986
 30
0.0
 11
2139.4146157669888
 21
1558.898615121986
 31
0.0
  0
LINE
  5
14107
  8
HIDE
 10
2134.632686565034
 20
1561.0486151219859
 30
0.0
 11
2132.714615766989
 21
1561.0486151219859
 31
0.0
  0
ARC
  5
14108
  8
HIDE
 10
2133.0146157669901
 20
1559.198615121986
 30
0.0
 40
0.2999999999999971
 50
180.0
 51
270.0
  0
LINE
  5
14109
  8
HIDE
 10
2132.714615766989
 20
1561.0486151219859
 30
0.0
 11
2132.714615766989
 21
1559.198615121986
 31
0.0
  0
ARC
  5
1410A
  8
HIDE
 10
2139.4146157669888
 20
1559.198615121986
 30
0.0
 40
0.3000000000001339
 50
270.0
 51
0.0
  0
LINE
  5
1410B
  8
HIDE
 10
2139.714615766989
 20
1559.198615121986
 30
0.0
 11
2139.714615766989
 21
1560.148615121986
 31
0.0
  0
LINE
  5
1410C
  8
HIDE
 10
2132.714615766989
 20
1577.7486151219859
 30
0.0
 11
2132.714615766989
 21
1579.5986151219861
 31
0.0
  0
LINE
  5
1410D
  8
HIDE
 10
2139.714615766989
 20
1579.5986151219861
 30
0.0
 11
2139.714615766989
 21
1578.648615121986
 31
0.0
  0
LINE
  5
1410E
  8
HIDE
 10
2139.714615766989
 20
1578.648615121986
 30
0.0
 11
2139.714615766989
 21
1574.7486151219859
 31
0.0
  0
LINE
  5
1410F
  8
HIDE
 10
2132.714615766989
 20
1574.7486151219859
 30
0.0
 11
2132.714615766989
 21
1577.7486151219859
 31
0.0
  0
LINE
  5
14110
  8
HIDE
 10
2136.214615766989
 20
1578.398615121986
 30
0.0
 11
2139.714615766989
 21
1578.648615121986
 31
0.0
  0
LINE
  5
14111
  8
HIDE
 10
2134.632686565034
 20
1577.7486151219859
 30
0.0
 11
2132.714615766989
 21
1577.7486151219859
 31
0.0
  0
LINE
  5
14112
  8
HIDE
 10
2133.0146157669901
 20
1579.898615121986
 30
0.0
 11
2139.4146157669888
 21
1579.898615121986
 31
0.0
  0
ARC
  5
14113
  8
HIDE
 10
2133.0146157669901
 20
1579.5986151219861
 30
0.0
 40
0.2999999999999971
 50
90.0
 51
180.0
  0
ARC
  5
14114
  8
HIDE
 10
2139.4146157669888
 20
1579.5986151219861
 30
0.0
 40
0.2999999999999634
 50
0.0
 51
90.0
  0
LINE
  5
14115
  8
HIDE
 10
2139.661857441979
 20
1578.6448466701991
 30
0.0
 11
2139.714615766989
 21
1578.6976049952091
 31
0.0
  0
CIRCLE
  5
14116
  8
HIDE
 10
2143.214615766989
 20
1562.648615121986
 30
0.0
 40
2.25
  0
CIRCLE
  5
14117
  8
HIDE
 10
2143.214615766989
 20
1576.148615121986
 30
0.0
 40
2.25
  0
ARC
  5
14118
  8
HIDE
 10
2140.0146157669892
 20
1572.698615121986
 30
0.0
 40
0.2999999999999998
 50
180.0
 51
270.0
  0
ARC
  5
14119
  8
HIDE
 10
2140.0146157669892
 20
1566.0986151219861
 30
0.0
 40
0.2999999999999998
 50
90.0
 51
180.0
  0
LINE
  5
1411A
  8
HIDE
 10
2146.714615766989
 20
1574.7486151219859
 30
0.0
 11
2144.9760072623699
 21
1574.7486151219859
 31
0.0
  0
LINE
  5
1411B
  8
HIDE
 10
2141.4532242716082
 20
1574.7486151219859
 30
0.0
 11
2139.714615766989
 21
1574.7486151219859
 31
0.0
  0
LINE
  5
1411C
  8
HIDE
 10
2139.714615766989
 20
1564.0486151219859
 30
0.0
 11
2141.4532242716082
 21
1564.0486151219859
 31
0.0
  0
LINE
  5
1411D
  8
HIDE
 10
2144.9760072623699
 20
1564.0486151219859
 30
0.0
 11
2146.714615766989
 21
1564.0486151219859
 31
0.0
  0
ARC
  5
1411E
  8
HIDE
 10
2146.4146157669888
 20
1572.698615121986
 30
0.0
 40
0.3
 50
270.0
 51
0.0
  0
LINE
  5
1411F
  8
HIDE
 10
2146.714615766989
 20
1572.698615121986
 30
0.0
 11
2146.714615766989
 21
1569.398615121986
 31
0.0
  0
LINE
  5
14120
  8
HIDE
 10
2146.714615766989
 20
1566.0986151219861
 30
0.0
 11
2146.714615766989
 21
1569.398615121986
 31
0.0
  0
ARC
  5
14121
  8
HIDE
 10
2146.4146157669888
 20
1566.0986151219861
 30
0.0
 40
0.2999999999999998
 50
0.0
 51
90.0
  0
LINE
  5
14122
  8
HIDE
 10
2146.714615766989
 20
1564.0486151219859
 30
0.0
 11
2146.714615766989
 21
1566.0986151219861
 31
0.0
  0
LINE
  5
14123
  8
HIDE
 10
2146.4146157669888
 20
1566.398615121986
 30
0.0
 11
2140.0146157669892
 21
1566.398615121986
 31
0.0
  0
LINE
  5
14124
  8
HIDE
 10
2146.4146157669888
 20
1572.398615121986
 30
0.0
 11
2140.0146157669892
 21
1572.398615121986
 31
0.0
  0
LINE
  5
14125
  8
HIDE
 10
2146.714615766989
 20
1574.7486151219859
 30
0.0
 11
2146.714615766989
 21
1572.698615121986
 31
0.0
  0
LINE
  5
14126
  8
HIDE
 10
2139.714615766989
 20
1572.698615121986
 30
0.0
 11
2139.714615766989
 21
1569.398615121986
 31
0.0
  0
LINE
  5
14127
  8
HIDE
 10
2139.714615766989
 20
1566.0986151219861
 30
0.0
 11
2139.714615766989
 21
1569.398615121986
 31
0.0
  0
LINE
  5
14128
  8
HIDE
 10
2139.714615766989
 20
1566.0986151219861
 30
0.0
 11
2139.714615766989
 21
1564.0486151219859
 31
0.0
  0
LINE
  5
14129
  8
HIDE
 10
2139.714615766989
 20
1574.7486151219859
 30
0.0
 11
2139.714615766989
 21
1572.698615121986
 31
0.0
  0
LINE
  5
1412A
  8
HIDE
 10
2146.714615766989
 20
1564.0486151219859
 30
0.0
 11
2146.714615766989
 21
1561.0486151219859
 31
0.0
  0
LINE
  5
1412B
  8
HIDE
 10
2139.714615766989
 20
1560.148615121986
 30
0.0
 11
2139.714615766989
 21
1564.0486151219859
 31
0.0
  0
LINE
  5
1412C
  8
HIDE
 10
2143.214615766989
 20
1560.398615121986
 30
0.0
 11
2139.714615766989
 21
1560.148615121986
 31
0.0
  0
LINE
  5
1412D
  8
HIDE
 10
2146.4146157669888
 20
1558.898615121986
 30
0.0
 11
2140.0146157669892
 21
1558.898615121986
 31
0.0
  0
LINE
  5
1412E
  8
HIDE
 10
2144.796544968945
 20
1561.0486151219859
 30
0.0
 11
2146.714615766989
 21
1561.0486151219859
 31
0.0
  0
ARC
  5
1412F
  8
HIDE
 10
2146.4146157669888
 20
1559.198615121986
 30
0.0
 40
0.2999999999999971
 50
270.0
 51
0.0
  0
LINE
  5
14130
  8
HIDE
 10
2146.714615766989
 20
1561.0486151219859
 30
0.0
 11
2146.714615766989
 21
1559.198615121986
 31
0.0
  0
ARC
  5
14131
  8
HIDE
 10
2140.0146157669892
 20
1559.198615121986
 30
0.0
 40
0.3000000000001339
 50
180.0
 51
270.0
  0
LINE
  5
14132
  8
HIDE
 10
2139.714615766989
 20
1559.198615121986
 30
0.0
 11
2139.714615766989
 21
1560.148615121986
 31
0.0
  0
LINE
  5
14133
  8
HIDE
 10
2146.714615766989
 20
1577.7486151219859
 30
0.0
 11
2146.714615766989
 21
1579.5986151219861
 31
0.0
  0
LINE
  5
14134
  8
HIDE
 10
2139.714615766989
 20
1579.5986151219861
 30
0.0
 11
2139.714615766989
 21
1578.648615121986
 31
0.0
  0
LINE
  5
14135
  8
HIDE
 10
2139.714615766989
 20
1578.648615121986
 30
0.0
 11
2139.714615766989
 21
1574.7486151219859
 31
0.0
  0
LINE
  5
14136
  8
HIDE
 10
2146.714615766989
 20
1574.7486151219859
 30
0.0
 11
2146.714615766989
 21
1577.7486151219859
 31
0.0
  0
LINE
  5
14137
  8
HIDE
 10
2143.214615766989
 20
1578.398615121986
 30
0.0
 11
2139.714615766989
 21
1578.648615121986
 31
0.0
  0
LINE
  5
14138
  8
HIDE
 10
2144.796544968945
 20
1577.7486151219859
 30
0.0
 11
2146.714615766989
 21
1577.7486151219859
 31
0.0
  0
LINE
  5
14139
  8
HIDE
 10
2146.4146157669888
 20
1579.898615121986
 30
0.0
 11
2140.0146157669892
 21
1579.898615121986
 31
0.0
  0
ARC
  5
1413A
  8
HIDE
 10
2146.4146157669888
 20
1579.5986151219861
 30
0.0
 40
0.2999999999999971
 50
0.0
 51
90.0
  0
ARC
  5
1413B
  8
HIDE
 10
2140.0146157669892
 20
1579.5986151219861
 30
0.0
 40
0.2999999999999634
 50
90.0
 51
180.0
  0
LINE
  5
1413C
  8
HIDE
 10
2139.767374091999
 20
1578.6448466701991
 30
0.0
 11
2139.714615766989
 21
1578.6976049952091
 31
0.0
  0
LINE
  5
1413D
  8
0
 10
2129.214615766989
 20
1576.648615121986
 30
0.0
 11
2124.714615766989
 21
1576.648615121986
 31
0.0
  0
LINE
  5
1413E
  8
0
 10
2129.214615766989
 20
1562.1486151219849
 30
0.0
 11
2124.7146157669872
 21
1562.148615121986
 31
0.0
  0
LINE
  5
1413F
  8
0
 10
2124.714615766989
 20
1576.648615121986
 30
0.0
 11
2124.714615766989
 21
1562.1486151219849
 31
0.0
  0
LINE
  5
14140
  8
0
 10
2129.714615766989
 20
1574.398615121986
 30
0.0
 11
2129.714615766989
 21
1564.3986151219869
 31
0.0
  0
LINE
  5
14141
  8
CENTER
 10
2127.0146157669878
 20
1577.226759710064
 30
0.0
 11
2127.0146157669878
 21
1571.195468369571
 31
0.0
  0
LINE
  5
14142
  8
0
 10
2129.214615766989
 20
1576.648615121986
 30
0.0
 11
2129.214615766989
 21
1562.1486151219849
 31
0.0
  0
LINE
  5
14143
  8
CENTER
 10
2130.3069581705499
 20
1569.398615121986
 30
0.0
 11
2123.2272668083142
 21
1569.398615121986
 31
0.0
  0
LINE
  5
14144
  8
0
 10
2129.214615766989
 20
1570.7635397007971
 30
0.0
 11
2124.714615766989
 21
1570.7635397007971
 31
0.0
  0
LINE
  5
14145
  8
0
 10
2129.214615766989
 20
1568.0336905431679
 30
0.0
 11
2124.714615766989
 21
1568.0336905431691
 31
0.0
  0
LINE
  5
14146
  8
HIDE
 10
2129.714615766989
 20
1566.3986151219849
 30
0.0
 11
2124.714615766989
 21
1566.398615121986
 31
0.0
  0
LINE
  5
14147
  8
HIDE
 10
2129.714615766989
 20
1572.398615121986
 30
0.0
 11
2124.714615766989
 21
1572.398615121986
 31
0.0
  0
LINE
  5
14148
  8
0
 10
2129.714615766989
 20
1564.398615121986
 30
0.0
 11
2129.214615766989
 21
1564.109939987394
 31
0.0
  0
LINE
  5
14149
  8
0
 10
2129.714615766989
 20
1574.398615121986
 30
0.0
 11
2129.214615766989
 21
1574.687290256581
 31
0.0
  0
LINE
  5
1414A
  8
HIDE
 10
2125.5146157669878
 20
1576.648615121986
 30
0.0
 11
2125.5146157669869
 21
1572.0236151219881
 31
0.0
  0
LINE
  5
1414B
  8
HIDE
 10
2125.7646157669878
 20
1576.648615121986
 30
0.0
 11
2125.7646157669878
 21
1572.0236151219881
 31
0.0
  0
LINE
  5
1414C
  8
HIDE
 10
2128.514615766986
 20
1576.648615121986
 30
0.0
 11
2128.5146157669842
 21
1572.0236151219881
 31
0.0
  0
LINE
  5
1414D
  8
HIDE
 10
2128.2646157669892
 20
1576.648615121986
 30
0.0
 11
2128.2646157669892
 21
1572.0236151219881
 31
0.0
  0
LINE
  5
1414E
  8
HIDE
 10
2128.5146157669842
 20
1573.121640255823
 30
0.0
 11
2125.5146157669851
 21
1573.121640255823
 31
0.0
  0
LINE
  5
1414F
  8
HIDE
 10
2128.5146157669842
 20
1576.121640255823
 30
0.0
 11
2125.5146157669851
 21
1576.121640255823
 31
0.0
  0
LINE
  5
14150
  8
HIDE
 10
2128.5146157669842
 20
1573.1216402558209
 30
0.0
 11
2128.2646157669892
 21
1572.9773026885259
 31
0.0
  0
LINE
  5
14151
  8
HIDE
 10
2125.5146157669878
 20
1573.1216402558221
 30
0.0
 11
2125.7646157669878
 21
1572.977302688525
 31
0.0
  0
LINE
  5
14152
  8
HIDE
 10
2128.2646157669892
 20
1572.9773026885259
 30
0.0
 11
2125.7646157669878
 21
1572.977302688525
 31
0.0
  0
LINE
  5
14153
  8
HIDE
 10
2129.714615766989
 20
1572.0236151219881
 30
0.0
 11
2124.714615766989
 21
1572.0236151219869
 31
0.0
  0
LINE
  5
14154
  8
HIDE
 10
2129.714615766989
 20
1566.773615121986
 30
0.0
 11
2124.714615766989
 21
1566.773615121986
 31
0.0
  0
ARC
  5
1415B
  8
HIDE
 10
2087.7052689483789
 20
1569.398615121986
 30
0.0
 40
10.5
 50
270.0
 51
180.0
  0
CIRCLE
  5
1415E
  8
0
 10
2087.7052689483789
 20
1569.398615121986
 30
0.0
 40
10.25
  0
ENDSEC
  0
EOF
