  0
SECTION
  2
HEADER
  9
$ACADVER
  1
AC1009
  9
$INSBASE
 10
0.0
 20
0.0
 30
0.0
  9
$EXTMIN
 10
30.069344029121339
 20
-15.7924668285444
 30
0.0
  9
$EXTMAX
 10
361.69380081631112
 20
143.76628034550509
 30
0.0
  9
$LIMMIN
 10
0.0
 20
0.0
  9
$LIMMAX
 10
12.0
 20
9.0
  9
$ORTHOMODE
 70
     1
  9
$REGENMODE
 70
     1
  9
$FILLMODE
 70
     1
  9
$QTEXTMODE
 70
     0
  9
$MIRRTEXT
 70
     0
  9
$DRAGMODE
 70
     2
  9
$LTSCALE
 40
1.0
  9
$OSMODE
 70
  2239
  9
$ATTMODE
 70
     1
  9
$TEXTSIZE
 40
0.2
  9
$TRACEWID
 40
0.05
  9
$TEXTSTYLE
  7
STANDARD
  9
$CLAYER
  8
0
  9
$CELTYPE
  6
BYLAYER
  9
$CECOLOR
 62
   256
  9
$DIMSCALE
 40
1.0
  9
$DIMASZ
 40
0.18
  9
$DIMEXO
 40
0.0625
  9
$DIMDLI
 40
0.38
  9
$DIMRND
 40
0.0
  9
$DIMDLE
 40
0.0
  9
$DIMEXE
 40
0.18
  9
$DIMTP
 40
0.0
  9
$DIMTM
 40
0.0
  9
$DIMTXT
 40
0.18
  9
$DIMCEN
 40
0.09
  9
$DIMTSZ
 40
0.0
  9
$DIMTOL
 70
     0
  9
$DIMLIM
 70
     0
  9
$DIMTIH
 70
     1
  9
$DIMTOH
 70
     1
  9
$DIMSE1
 70
     0
  9
$DIMSE2
 70
     0
  9
$DIMTAD
 70
     0
  9
$DIMZIN
 70
     0
  9
$DIMBLK
  1

  9
$DIMASO
 70
     1
  9
$DIMSHO
 70
     1
  9
$DIMPOST
  1

  9
$DIMAPOST
  1

  9
$DIMALT
 70
     0
  9
$DIMALTD
 70
     2
  9
$DIMALTF
 40
25.399999999999999
  9
$DIMLFAC
 40
1.0
  9
$DIMTOFL
 70
     0
  9
$DIMTVP
 40
0.0
  9
$DIMTIX
 70
     0
  9
$DIMSOXD
 70
     0
  9
$DIMSAH
 70
     0
  9
$DIMBLK1
  1

  9
$DIMBLK2
  1

  9
$DIMSTYLE
  2
STANDARD
  9
$DIMCLRD
 70
     0
  9
$DIMCLRE
 70
     0
  9
$DIMCLRT
 70
     0
  9
$DIMTFAC
 40
1.0
  9
$DIMGAP
 40
0.09
  9
$LUNITS
 70
     2
  9
$LUPREC
 70
     4
  9
$SKETCHINC
 40
0.1
  9
$FILLETRAD
 40
0.0
  9
$AUNITS
 70
     0
  9
$AUPREC
 70
     0
  9
$MENU
  1
.
  9
$ELEVATION
 40
0.0
  9
$PELEVATION
 40
0.0
  9
$THICKNESS
 40
0.0
  9
$LIMCHECK
 70
     0
  9
$BLIPMODE
 70
     0
  9
$CHAMFERA
 40
1.0
  9
$CHAMFERB
 40
1.0
  9
$SKPOLY
 70
     0
  9
$TDCREATE
 40
2455485.671822188
  9
$TDUPDATE
 40
2456645.4276908101
  9
$TDINDWG
 40
0.0916766204
  9
$TDUSRTIMER
 40
0.0916766204
  9
$USRTIMER
 70
     1
  9
$ANGBASE
 50
0.0
  9
$ANGDIR
 70
     0
  9
$PDMODE
 70
     0
  9
$PDSIZE
 40
0.0
  9
$PLINEWID
 40
0.0
  9
$COORDS
 70
     1
  9
$SPLFRAME
 70
     0
  9
$SPLINETYPE
 70
     6
  9
$SPLINESEGS
 70
     8
  9
$ATTDIA
 70
     0
  9
$ATTREQ
 70
     1
  9
$HANDLING
 70
     1
  9
$HANDSEED
  5
83C
  9
$SURFTAB1
 70
     6
  9
$SURFTAB2
 70
     6
  9
$SURFTYPE
 70
     6
  9
$SURFU
 70
     6
  9
$SURFV
 70
     6
  9
$UCSNAME
  2

  9
$UCSORG
 10
0.0
 20
0.0
 30
0.0
  9
$UCSXDIR
 10
1.0
 20
0.0
 30
0.0
  9
$UCSYDIR
 10
0.0
 20
1.0
 30
0.0
  9
$PUCSNAME
  2

  9
$PUCSORG
 10
0.0
 20
0.0
 30
0.0
  9
$PUCSXDIR
 10
1.0
 20
0.0
 30
0.0
  9
$PUCSYDIR
 10
0.0
 20
1.0
 30
0.0
  9
$USERI1
 70
     0
  9
$USERI2
 70
     0
  9
$USERI3
 70
     0
  9
$USERI4
 70
     0
  9
$USERI5
 70
     0
  9
$USERR1
 40
0.0
  9
$USERR2
 40
0.0
  9
$USERR3
 40
0.0
  9
$USERR4
 40
0.0
  9
$USERR5
 40
0.0
  9
$WORLDVIEW
 70
     1
  9
$SHADEDGE
 70
     3
  9
$SHADEDIF
 70
    70
  9
$TILEMODE
 70
     1
  9
$MAXACTVP
 70
    48
  9
$PLIMCHECK
 70
     0
  9
$PEXTMIN
 10
0.0
 20
0.0
 30
0.0
  9
$PEXTMAX
 10
0.0
 20
0.0
 30
0.0
  9
$PLIMMIN
 10
0.0
 20
0.0
  9
$PLIMMAX
 10
12.0
 20
9.0
  9
$UNITMODE
 70
     0
  9
$VISRETAIN
 70
     1
  9
$PLINEGEN
 70
     0
  9
$PSLTSCALE
 70
     1
  0
ENDSEC
  0
SECTION
  2
TABLES
  0
TABLE
  2
VPORT
 70
     1
  0
VPORT
  2
*ACTIVE
 70
     0
 10
0.0
 20
0.0
 11
1.0
 21
1.0
 12
192.11276396269551
 22
63.197187631992939
 13
0.0
 23
0.0
 14
0.5
 24
0.5
 15
0.5
 25
0.5
 16
0.0
 26
0.0
 36
1.0
 17
0.0
 27
0.0
 37
0.0
 40
240.4389496276458
 41
2.2309552599758158
 42
50.0
 43
0.0
 44
0.0
 50
0.0
 51
0.0
 71
     0
 72
  1000
 73
     1
 74
     3
 75
     0
 76
     0
 77
     0
 78
     0
  0
ENDTAB
  0
TABLE
  2
LTYPE
 70
     4
  0
LTYPE
  2
CONTINUOUS
 70
     0
  3
Solid line
 72
    65
 73
     0
 40
0.0
  0
LTYPE
  2
CENTER
 70
     0
  3
____ _ ____ _ ____ _ ____ _ ____ _ ____ _ ____ 
 72
    65
 73
     4
 40
2.0
 49
1.25
 49
-0.25
 49
0.25
 49
-0.25
  0
LTYPE
  2
PHANTOM2
 70
     0
  3
Phantom (.5x) ___ _ _ ___ _ _ ___ _ _ ___ _ _
 72
    65
 73
     6
 40
1.25
 49
0.625
 49
-0.125
 49
0.125
 49
-0.125
 49
0.125
 49
-0.125
  0
ENDTAB
  0
TABLE
  2
LAYER
 70
     4
  0
LAYER
  2
0
 70
     0
 62
     7
  6
CONTINUOUS
  0
LAYER
  2
CENTER
 70
     0
 62
     3
  6
CENTER
  0
LAYER
  2
HIDE
 70
     0
 62
     1
  6
CONTINUOUS
  0
ENDTAB
  0
TABLE
  2
STYLE
 70
     7
  0
STYLE
  2
STANDARD
 70
     0
 40
0.0
 41
1.0
 50
0.0
 71
     0
 42
0.2
  3
txt
  4
whgtxt.shx
  0
STYLE
  2
DUKI7
 70
     0
 40
20.0
 41
1.0
 50
0.0
 71
     0
 42
6.0
  3
txt
  4

  0
ENDTAB
  0
TABLE
  2
VIEW
 70
     0
  0
ENDTAB
  0
TABLE
  2
UCS
 70
     0
  0
ENDTAB
  0
TABLE
  2
APPID
 70
    14
  0
APPID
  2
ACAD
 70
     0
  0
APPID
  2
ACADANNOPO
 70
     0
  0
APPID
  2
ACADANNOTATIVE
 70
     0
  0
APPID
  2
ACAD_DSTYLE_DIMJAG
 70
     0
  0
APPID
  2
ACAD_DSTYLE_DIMTALN
 70
     0
  0
APPID
  2
ACAD_MLEADERVER
 70
     0
  0
APPID
  2
ACAD_PSEXT
 70
     0
  0
APPID
  2
ACAECLAYERSTANDARD
 70
     0
  0
APPID
  2
ACAD_DSTYLE_DIMBREAK
 70
     0
  0
APPID
  2
ACAD_DSTYLE_DIMTEXT_FILL
 70
     0
  0
APPID
  2
ACAD_EXEMPT_FROM_CAD_STANDARDS
 70
     0
  0
APPID
  2
ACAD_DSTYLE_DIMRADIAL_EXTENSION
 70
     0
  0
APPID
  2
ACAD_NAV_VCDISPLAY
 70
     0
  0
APPID
  2
ACDBDYNAMICBLOCKTRUENAME2
 70
     0
  0
ENDTAB
  0
TABLE
  2
DIMSTYLE
 70
     6
  0
DIMSTYLE
  2
STANDARD
 70
     0
  3

  4

  5

  6

  7

 40
1.0
 41
0.18
 42
0.0625
 43
0.38
 44
0.18
 45
0.0
 46
0.0
 47
0.0
 48
0.0
140
0.18
141
0.09
142
0.0
143
25.399999999999999
144
1.0
145
0.0
146
1.0
147
0.09
 71
     0
 72
     0
 73
     1
 74
     1
 75
     0
 76
     0
 77
     0
 78
     0
170
     0
171
     2
172
     0
173
     0
174
     0
175
     0
176
     0
177
     0
178
     0
  0
ENDTAB
  0
ENDSEC
  0
SECTION
  2
BLOCKS
  0
BLOCK
  8
0
  2
$MODEL_SPACE
 70
     0
 10
0.0
 20
0.0
 30
0.0
  3
$MODEL_SPACE
  1

  0
ENDBLK
  5
21
  8
0
  0
BLOCK
 67
     1
  8
0
  2
$PAPER_SPACE
 70
     0
 10
0.0
 20
0.0
 30
0.0
  3
$PAPER_SPACE
  1

  0
ENDBLK
  5
5B
 67
     1
  8
0
  0
BLOCK
  8
0
  2
*U2
 70
     1
 10
0.0
 20
0.0
 30
0.0
  3
*U2
  1

  0
TEXT
  5
839
  8
0
 10
161.58757937569499
 20
-8.3875755241965777
 30
0.0
 40
20.0
  1
WBK17
  7
DUKI7
  0
ENDBLK
  5
83B
  8
0
  0
ENDSEC
  0
SECTION
  2
ENTITIES
  0
LINE
  5
26F
  8
HIDE
 10
242.64666402912161
 20
92.266280345505123
 30
0.0
 11
227.64666402913261
 21
92.266280345505123
 31
0.0
  0
LINE
  5
270
  8
0
 10
241.64666402912169
 20
118.76628034550509
 30
0.0
 11
210.64666402912169
 21
118.76628034550509
 31
0.0
  0
LINE
  5
271
  8
0
 10
242.64666402912161
 20
117.76628034550509
 30
0.0
 11
242.64666402912169
 21
49.766318796984081
 31
0.0
  0
LINE
  5
276
  8
0
 10
241.6466140291229
 20
118.76624034550611
 30
0.0
 11
242.64662402912271
 21
117.76624034550611
 31
0.0
  0
LINE
  5
278
  8
HIDE
 10
204.14666402912169
 20
134.76628034550509
 30
0.0
 11
204.14666402912169
 21
120.76628034550509
 31
0.0
  0
LINE
  5
279
  8
0
 10
210.64666402912169
 20
135.26628034550509
 30
0.0
 11
210.64666402912169
 21
118.76628034550509
 31
0.0
  0
LINE
  5
27A
  8
0
 10
195.64666402912169
 20
135.2662603455056
 30
0.0
 11
195.64666402912169
 21
119.76628034550509
 31
0.0
  0
LINE
  5
27B
  8
CENTER
  6
CENTER
 10
210.81912402912329
 20
97.991230345504931
 30
0.0
 11
199.4741940291203
 21
104.5412303455078
 31
0.0
  0
CIRCLE
  5
27C
  8
HIDE
 10
205.14666402912161
 20
101.26628034550509
 30
0.0
 40
3.1749990000000001
  0
LINE
  5
27D
  8
HIDE
 10
212.64666402912169
 20
104.76628034550509
 30
0.0
 11
206.54866402911989
 21
104.76628034550509
 31
0.0
  0
LINE
  5
27E
  8
HIDE
 10
211.64666402912169
 20
92.266280345505123
 30
0.0
 11
198.64666402912169
 21
92.266280345505123
 31
0.0
  0
LINE
  5
27F
  8
HIDE
 10
195.64666402912169
 20
107.26628034550509
 30
0.0
 11
211.64666402912169
 21
107.26628034550509
 31
0.0
  0
LINE
  5
280
  8
HIDE
 10
212.64666402912169
 20
106.26628034550509
 30
0.0
 11
212.64666402912169
 21
93.266280345505123
 31
0.0
  0
LINE
  5
281
  8
HIDE
 10
227.64666402912169
 20
107.26628034550509
 30
0.0
 11
227.64666402913261
 21
92.266280345505123
 31
0.0
  0
LINE
  5
282
  8
HIDE
 10
226.64666402912169
 20
92.266280345505123
 30
0.0
 11
213.64666402912169
 21
92.266280345505123
 31
0.0
  0
LINE
  5
283
  8
CENTER
  6
CENTER
 10
225.81906402912111
 20
104.5412403455076
 30
0.0
 11
214.47414402912159
 21
97.991250345508064
 31
0.0
  0
ARC
  5
284
  8
HIDE
 10
218.74465402912011
 20
104.26628034550509
 30
0.0
 40
0.5
 50
5.0037200000160658
 51
90.000018000116455
  0
CIRCLE
  5
285
  8
HIDE
 10
220.14666402912169
 20
101.26628034550509
 30
0.0
 40
3.1749990000000001
  0
ARC
  5
286
  8
HIDE
 10
226.64666402912169
 20
93.266280345505123
 30
0.0
 40
1.0
 50
270.0
 51
0.0000400000040257
  0
LINE
  5
287
  8
HIDE
 10
227.14666402912169
 20
98.266280345505123
 30
0.0
 11
221.18618402912011
 21
98.266280345505123
 31
0.0
  0
LINE
  5
288
  8
HIDE
 10
227.14666402912169
 20
101.26628034550509
 30
0.0
 11
223.3216440291215
 21
101.26628034550509
 31
0.0
  0
ARC
  5
289
  8
HIDE
 10
227.14666402912169
 20
97.766280345505123
 30
0.0
 40
0.5
 50
0.0000400000040257
 51
90.000018000116455
  0
ARC
  5
28A
  8
HIDE
 10
227.14666402912169
 20
101.76628034550509
 30
0.0
 40
0.5
 50
270.0
 51
0.0000400000040257
  0
ARC
  5
28B
  8
HIDE
 10
213.64666402912169
 20
93.266280345505123
 30
0.0
 40
1.0
 50
180.0
 51
269.9999800001022
  0
ARC
  5
28C
  8
HIDE
 10
211.64666402912169
 20
93.266280345505123
 30
0.0
 40
1.0
 50
269.9999800001022
 51
359.99995999999589
  0
LINE
  5
28D
  8
HIDE
 10
216.9716540291227
 20
101.26628034550509
 30
0.0
 11
213.14666402912169
 21
101.26628034550509
 31
0.0
  0
LINE
  5
28E
  8
HIDE
 10
218.74465402912011
 20
104.76628034550509
 30
0.0
 11
212.64666402912169
 21
104.76628034550509
 31
0.0
  0
ARC
  5
28F
  8
HIDE
 10
212.14666402912169
 20
100.76628034550509
 30
0.0
 40
0.5
 50
0.0000400000040257
 51
90.000018000116455
  0
LINE
  5
290
  8
HIDE
 10
212.14666402912169
 20
101.26628034550509
 30
0.0
 11
208.321664029121
 21
101.26628034550509
 31
0.0
  0
ARC
  5
291
  8
HIDE
 10
213.14666402912169
 20
100.76628034550509
 30
0.0
 40
0.5
 50
90.000018000116455
 51
180.0
  0
ARC
  5
292
  8
HIDE
 10
226.64666402912169
 20
106.26628034550509
 30
0.0
 40
1.0
 50
0.0000400000040257
 51
90.000018000116455
  0
ARC
  5
293
  8
HIDE
 10
213.64666402912169
 20
106.26628034550509
 30
0.0
 40
1.0
 50
90.000018000116455
 51
180.0
  0
ARC
  5
294
  8
HIDE
 10
211.64666402912169
 20
106.26628034550509
 30
0.0
 40
1.0
 50
0.0000400000040257
 51
90.000018000116455
  0
ARC
  5
296
  8
HIDE
 10
198.64666402912169
 20
93.266280345505123
 30
0.0
 40
1.0
 50
180.0
 51
269.9999800001022
  0
LINE
  5
297
  8
HIDE
 10
204.10714402912319
 20
98.266280345505123
 30
0.0
 11
198.14666402912161
 21
98.266280345505123
 31
0.0
  0
LINE
  5
298
  8
HIDE
 10
201.97167402912211
 20
101.26628034550509
 30
0.0
 11
198.14666402912161
 21
101.26628034550509
 31
0.0
  0
ARC
  5
299
  8
HIDE
 10
206.54866402911989
 20
104.26628034550509
 30
0.0
 40
0.5
 50
90.000018000116455
 51
174.9962780000821
  0
ARC
  5
29A
  8
HIDE
 10
198.14666402912161
 20
97.766280345505123
 30
0.0
 40
0.5
 50
90.000018000116455
 51
179.99996399997551
  0
ARC
  5
29B
  8
HIDE
 10
198.14666402912161
 20
101.76628034550509
 30
0.0
 40
0.5
 50
179.99995999999601
 51
269.9999800001022
  0
LINE
  5
29C
  8
HIDE
 10
204.14666402912169
 20
120.76628034550509
 30
0.0
 11
195.64666402912169
 21
120.76628034550509
 31
0.0
  0
ARC
  5
29D
  8
HIDE
 10
198.64666402912169
 20
106.26628034550509
 30
0.0
 40
1.0
 50
90.000018000116455
 51
179.99996399997551
  0
LINE
  5
29E
  8
HIDE
 10
195.64666402912169
 20
119.76628034550509
 30
0.0
 11
195.64666402912169
 21
107.26628034550509
 31
0.0
  0
LINE
  5
2A0
  8
HIDE
 10
210.64666402912169
 20
123.26628034550509
 30
0.0
 11
204.14666402912169
 21
123.26628034550509
 31
0.0
  0
LINE
  5
2A1
  8
HIDE
 10
210.64666402912169
 20
132.26628034550509
 30
0.0
 11
204.14666402912169
 21
132.26628034550509
 31
0.0
  0
LINE
  5
2A2
  8
CENTER
  6
CENTER
 10
215.59075402912251
 20
127.76628034550509
 30
0.0
 11
191.41973402912089
 21
127.76628034550509
 31
0.0
  0
LINE
  5
2A3
  8
0
 10
209.1466440291222
 20
136.76628034550509
 30
0.0
 11
197.14666402912161
 21
136.76628034550509
 31
0.0
  0
LINE
  5
2A4
  8
0
 10
210.6466340291224
 20
135.26623034550639
 30
0.0
 11
209.14662402912271
 21
136.76623034550639
 31
0.0
  0
LINE
  5
2A5
  8
HIDE
 10
204.14666402912169
 20
134.76628034550509
 30
0.0
 11
195.64666402912169
 21
134.76628034550509
 31
0.0
  0
LINE
  5
2A6
  8
0
 10
197.1466340291224
 20
136.76622034550661
 30
0.0
 11
195.6466340291224
 21
135.26622034550661
 31
0.0
  0
ARC
  5
2A9
  8
HIDE
 10
80.069324029121844
 20
83.766280345505109
 30
0.0
 40
8.5
 50
264.03116078260769
 51
175.51397685973649
  0
CIRCLE
  5
2AA
  8
0
 10
80.069324029121844
 20
83.766280345505109
 30
0.0
 40
21.0
  0
CIRCLE
  5
2AC
  8
CENTER
  6
CENTER
 10
80.069324029121844
 20
83.766280345505109
 30
0.0
 40
29.0
  0
CIRCLE
  5
2AD
  8
CENTER
  6
CENTER
 10
80.069324029121844
 20
83.766280345505109
 30
0.0
 40
44.0
  0
CIRCLE
  5
2AF
  8
0
 10
80.069324029121844
 20
83.766280345505109
 30
0.0
 40
22.5
  0
LINE
  5
2B0
  8
CENTER
  6
CENTER
 10
80.069324029121844
 20
143.76628034550509
 30
0.0
 11
80.069324029121844
 21
23.76628034550512
 31
0.0
  0
LINE
  5
2B1
  8
0
 10
120.0693240291218
 20
118.5369603455066
 30
0.0
 11
120.0693240291218
 21
48.995600345507313
 31
0.0
  0
LINE
  5
2B2
  8
0
 10
40.069344029121339
 20
118.5369603455066
 30
0.0
 11
40.069344029121339
 21
48.995600345507313
 31
0.0
  0
CIRCLE
  5
2B3
  8
0
 10
80.069324029121844
 20
83.766280345505109
 30
0.0
 40
36.0
  0
LINE
  5
2B4
  8
CENTER
  6
CENTER
 10
130.0693140291221
 20
83.766280345505109
 30
0.0
 11
30.069344029121339
 21
83.766280345505109
 31
0.0
  0
LINE
  5
2B5
  8
CENTER
  6
CENTER
 10
40.117824029122623
 20
43.814830345508277
 30
0.0
 11
62.691614029121183
 21
66.388630345506584
 31
0.0
  0
CIRCLE
  5
2B6
  8
0
 10
48.956674029122723
 20
52.653590345507013
 30
0.0
 40
4.5
  0
CIRCLE
  5
2B7
  8
0
 10
48.956674029122723
 20
52.653590345507013
 30
0.0
 40
7.0
  0
ARC
  5
2B8
  8
0
 10
80.069324029121844
 20
83.766280345505109
 30
0.0
 40
53.0
 50
220.99940000003949
 51
319.00062999999068
  0
LINE
  5
2BA
  8
CENTER
  6
CENTER
 10
97.447074029121495
 20
66.388600345507342
 30
0.0
 11
120.02086402912001
 21
43.814820345504891
 31
0.0
  0
CIRCLE
  5
2BB
  8
0
 10
111.1820340291231
 20
52.653590345507013
 30
0.0
 40
4.5
  0
CIRCLE
  5
2BC
  8
0
 10
111.1820340291231
 20
52.653590345507013
 30
0.0
 40
7.0
  0
LINE
  5
2BD
  8
CENTER
  6
CENTER
 10
114.055924029122
 20
67.91812034550739
 30
0.0
 11
98.648694029121316
 21
75.102630345506526
 31
0.0
  0
CIRCLE
  5
2C2
  8
0
 10
106.3522840291223
 20
71.510360345505518
 30
0.0
 40
5.5
  0
CIRCLE
  5
2CD
  8
0
 10
80.069364029120834
 20
54.766260345505621
 30
0.0
 40
5.5
  0
CIRCLE
  5
2CE
  8
0
 10
80.069344029121339
 20
39.766300345508263
 30
0.0
 40
4.5
  0
CIRCLE
  5
2CF
  8
0
 10
80.069344029121339
 20
39.766300345508263
 30
0.0
 40
7.0
  0
LINE
  5
2D6
  8
CENTER
  6
CENTER
 10
46.082834029122523
 20
67.91812034550739
 30
0.0
 11
61.490074029122979
 21
75.102630345506526
 31
0.0
  0
CIRCLE
  5
2DB
  8
0
 10
53.786434029123257
 20
71.510310345506781
 30
0.0
 40
5.5
  0
LINE
  5
2E2
  8
CENTER
  6
CENTER
 10
62.69166402911992
 20
101.1439903455058
 30
0.0
 11
40.11787402912136
 21
123.7177803455079
 31
0.0
  0
CIRCLE
  5
2E3
  8
0
 10
48.956674029122723
 20
114.8789703455068
 30
0.0
 40
4.5
  0
CIRCLE
  5
2E4
  8
0
 10
48.956674029122723
 20
114.8789703455068
 30
0.0
 40
7.0
  0
ARC
  5
2E5
  8
0
 10
80.069324029121844
 20
83.766280345505109
 30
0.0
 40
53.0
 50
40.999370000009101
 51
139.0006490000462
  0
LINE
  5
2E6
  8
CENTER
  6
CENTER
 10
120.02083402912081
 20
123.7177803455079
 30
0.0
 11
97.447054029122015
 21
101.1440003455055
 31
0.0
  0
CIRCLE
  5
2E7
  8
0
 10
111.1820340291231
 20
114.8789703455068
 30
0.0
 40
7.0
  0
CIRCLE
  5
2E8
  8
0
 10
111.1820340291231
 20
114.8789703455068
 30
0.0
 40
4.5
  0
LINE
  5
2EB
  8
CENTER
  6
CENTER
 10
98.648704029121063
 20
92.429940345507106
 30
0.0
 11
114.0559340291217
 21
99.614450345506242
 31
0.0
  0
CIRCLE
  5
2EE
  8
0
 10
106.3522740291225
 20
96.022220345507861
 30
0.0
 40
5.5
  0
CIRCLE
  5
2F5
  8
0
 10
80.069344029121339
 20
127.7662603455056
 30
0.0
 40
7.0
  0
CIRCLE
  5
2FB
  8
0
 10
80.069324029121844
 20
112.76628034550509
 30
0.0
 40
5.5
  0
LINE
  5
302
  8
CENTER
  6
CENTER
 10
61.490044029120099
 20
92.429940345507106
 30
0.0
 11
46.082814029123028
 21
99.614450345506242
 31
0.0
  0
CIRCLE
  5
305
  8
0
 10
53.786404029120369
 20
96.022190345504995
 30
0.0
 40
5.5
  0
CIRCLE
  5
30C
  8
0
 10
80.069344029121339
 20
127.7662603455056
 30
0.0
 40
4.5
  0
LINE
  5
30E
  8
CENTER
 10
246.9677071583971
 20
83.766259571445588
 30
0.0
 11
162.11225153678581
 21
83.766259571445588
 31
0.0
  0
LINE
  5
315
  8
HIDE
 10
182.64666402912161
 20
92.266280345505123
 30
0.0
 11
197.6466640291107
 21
92.266280345505123
 31
0.0
  0
LINE
  5
320
  8
HIDE
 10
242.64666402912161
 20
75.26623879738608
 30
0.0
 11
227.64666402913261
 21
75.26623879738608
 31
0.0
  0
LINE
  5
321
  8
0
 10
241.64666402912169
 20
48.76623879738608
 30
0.0
 11
210.64666402912169
 21
48.76623879738608
 31
0.0
  0
LINE
  5
327
  8
0
 10
241.6466140291229
 20
48.766278797385063
 30
0.0
 11
242.64666402912161
 21
49.766318796984073
 31
0.0
  0
LINE
  5
329
  8
HIDE
 10
204.14666402912169
 20
32.76623879738608
 30
0.0
 11
204.14666402912169
 21
46.76623879738608
 31
0.0
  0
LINE
  5
32A
  8
0
 10
210.64666402912169
 20
32.26623879738608
 30
0.0
 11
210.64666402912169
 21
48.76623879738608
 31
0.0
  0
LINE
  5
32B
  8
0
 10
195.64666402912169
 20
32.266258797385582
 30
0.0
 11
195.64666402912169
 21
47.76623879738608
 31
0.0
  0
LINE
  5
32C
  8
CENTER
  6
CENTER
 10
210.81912402912329
 20
69.541288797386272
 30
0.0
 11
199.4741940291203
 21
62.991288797383362
 31
0.0
  0
CIRCLE
  5
32D
  8
HIDE
 10
205.14666402912161
 20
66.26623879738608
 30
0.0
 40
3.1749990000000001
  0
LINE
  5
32E
  8
HIDE
 10
212.64666402912169
 20
62.76623879738608
 30
0.0
 11
206.54866402911989
 21
62.76623879738608
 31
0.0
  0
LINE
  5
32F
  8
HIDE
 10
211.64666402912169
 20
75.26623879738608
 30
0.0
 11
198.64666402912169
 21
75.26623879738608
 31
0.0
  0
LINE
  5
330
  8
HIDE
 10
195.64666402912169
 20
60.26623879738608
 30
0.0
 11
211.64666402912169
 21
60.26623879738608
 31
0.0
  0
LINE
  5
331
  8
HIDE
 10
212.64666402912169
 20
61.26623879738608
 30
0.0
 11
212.64666402912169
 21
74.26623879738608
 31
0.0
  0
LINE
  5
332
  8
HIDE
 10
227.64666402912169
 20
60.26623879738608
 30
0.0
 11
227.64666402913261
 21
75.26623879738608
 31
0.0
  0
LINE
  5
333
  8
HIDE
 10
226.64666402912169
 20
75.26623879738608
 30
0.0
 11
213.64666402912169
 21
75.26623879738608
 31
0.0
  0
LINE
  5
334
  8
CENTER
  6
CENTER
 10
225.81906402912111
 20
62.991278797383607
 30
0.0
 11
214.47414402912159
 21
69.54126879738314
 31
0.0
  0
ARC
  5
335
  8
HIDE
 10
218.74465402912011
 20
63.26623879738608
 30
0.0
 40
0.5
 50
269.99998200030041
 51
354.99628000019158
  0
CIRCLE
  5
336
  8
HIDE
 10
220.14666402912169
 20
66.26623879738608
 30
0.0
 40
3.1749990000000001
  0
ARC
  5
337
  8
HIDE
 10
226.64666402912169
 20
74.26623879738608
 30
0.0
 40
1.0
 50
359.99995999978751
 51
90.0
  0
LINE
  5
338
  8
HIDE
 10
227.14666402912169
 20
69.26623879738608
 30
0.0
 11
221.18618402912011
 21
69.26623879738608
 31
0.0
  0
LINE
  5
339
  8
HIDE
 10
227.14666402912169
 20
66.26623879738608
 30
0.0
 11
223.3216440291215
 21
66.26623879738608
 31
0.0
  0
ARC
  5
33A
  8
HIDE
 10
227.14666402912169
 20
69.76623879738608
 30
0.0
 40
0.5
 50
269.99998200030041
 51
359.99995999978751
  0
ARC
  5
33B
  8
HIDE
 10
227.14666402912169
 20
65.76623879738608
 30
0.0
 40
0.5
 50
359.99995999978751
 51
90.0
  0
ARC
  5
33C
  8
HIDE
 10
213.64666402912169
 20
74.26623879738608
 30
0.0
 40
1.0
 50
90.000019999897788
 51
180.0
  0
ARC
  5
33D
  8
HIDE
 10
211.64666402912169
 20
74.26623879738608
 30
0.0
 40
1.0
 50
0.0000399997955849
 51
90.000019999897788
  0
LINE
  5
33E
  8
HIDE
 10
216.9716540291227
 20
66.26623879738608
 30
0.0
 11
213.14666402912169
 21
66.26623879738608
 31
0.0
  0
LINE
  5
33F
  8
HIDE
 10
218.74465402912011
 20
62.76623879738608
 30
0.0
 11
212.64666402912169
 21
62.76623879738608
 31
0.0
  0
ARC
  5
340
  8
HIDE
 10
212.14666402912169
 20
66.76623879738608
 30
0.0
 40
0.5
 50
269.99998200030041
 51
359.99995999978751
  0
LINE
  5
341
  8
HIDE
 10
212.14666402912169
 20
66.26623879738608
 30
0.0
 11
208.321664029121
 21
66.26623879738608
 31
0.0
  0
ARC
  5
342
  8
HIDE
 10
213.14666402912169
 20
66.76623879738608
 30
0.0
 40
0.5
 50
180.0
 51
269.99998200030041
  0
ARC
  5
343
  8
HIDE
 10
226.64666402912169
 20
61.26623879738608
 30
0.0
 40
1.0
 50
269.99998200030041
 51
359.99995999978751
  0
ARC
  5
344
  8
HIDE
 10
213.64666402912169
 20
61.26623879738608
 30
0.0
 40
1.0
 50
180.0
 51
269.99998200030041
  0
ARC
  5
345
  8
HIDE
 10
211.64666402912169
 20
61.26623879738608
 30
0.0
 40
1.0
 50
269.99998200030041
 51
359.99995999978751
  0
ARC
  5
347
  8
HIDE
 10
198.64666402912169
 20
74.26623879738608
 30
0.0
 40
1.0
 50
90.000019999897788
 51
180.0
  0
LINE
  5
348
  8
HIDE
 10
204.10714402912319
 20
69.26623879738608
 30
0.0
 11
198.14666402912161
 21
69.26623879738608
 31
0.0
  0
LINE
  5
349
  8
HIDE
 10
201.97167402912211
 20
66.26623879738608
 30
0.0
 11
198.14666402912161
 21
66.26623879738608
 31
0.0
  0
ARC
  5
34A
  8
HIDE
 10
206.54866402911989
 20
63.26623879738608
 30
0.0
 40
0.5
 50
185.00372199971031
 51
269.99998200030041
  0
ARC
  5
34B
  8
HIDE
 10
198.14666402912161
 20
69.76623879738608
 30
0.0
 40
0.5
 50
180.00003600023291
 51
269.99998200030041
  0
ARC
  5
34C
  8
HIDE
 10
198.14666402912161
 20
65.76623879738608
 30
0.0
 40
0.5
 50
90.000019999897788
 51
180.00003999979549
  0
LINE
  5
34D
  8
HIDE
 10
204.14666402912169
 20
46.76623879738608
 30
0.0
 11
195.64666402912169
 21
46.76623879738608
 31
0.0
  0
ARC
  5
34E
  8
HIDE
 10
198.64666402912169
 20
61.26623879738608
 30
0.0
 40
1.0
 50
180.00003600023291
 51
269.99998200030041
  0
LINE
  5
34F
  8
HIDE
 10
195.64666402912169
 20
47.76623879738608
 30
0.0
 11
195.64666402912169
 21
60.26623879738608
 31
0.0
  0
LINE
  5
350
  8
0
 10
195.64666402912169
 20
47.76623879738608
 30
0.0
 11
183.64665902912
 21
47.76623879738608
 31
0.0
  0
LINE
  5
351
  8
HIDE
 10
210.64666402912169
 20
44.26623879738608
 30
0.0
 11
204.14666402912169
 21
44.26623879738608
 31
0.0
  0
LINE
  5
352
  8
HIDE
 10
210.64666402912169
 20
35.26623879738608
 30
0.0
 11
204.14666402912169
 21
35.26623879738608
 31
0.0
  0
LINE
  5
353
  8
CENTER
  6
CENTER
 10
215.59075402912251
 20
39.76623879738608
 30
0.0
 11
191.41973402912089
 21
39.76623879738608
 31
0.0
  0
LINE
  5
354
  8
0
 10
209.1466440291222
 20
30.76623879738608
 30
0.0
 11
197.14666402912161
 21
30.76623879738608
 31
0.0
  0
LINE
  5
355
  8
0
 10
210.6466340291224
 20
32.266288797384817
 30
0.0
 11
209.14662402912271
 21
30.766288797384821
 31
0.0
  0
LINE
  5
356
  8
HIDE
 10
204.14666402912169
 20
32.76623879738608
 30
0.0
 11
195.64666402912169
 21
32.76623879738608
 31
0.0
  0
LINE
  5
357
  8
0
 10
197.1466340291224
 20
30.766298797384572
 30
0.0
 11
195.6466340291224
 21
32.266298797384572
 31
0.0
  0
LINE
  5
360
  8
HIDE
 10
182.64666402912161
 20
75.26623879738608
 30
0.0
 11
197.6466640291107
 21
75.26623879738608
 31
0.0
  0
LINE
  5
36B
  8
0
 10
182.14665902911989
 20
95.266259571441964
 30
0.0
 11
182.64665902912
 21
95.266259571445602
 31
0.0
  0
LINE
  5
36C
  8
0
 10
164.64665902911989
 20
97.766280345505876
 30
0.0
 11
182.14665902911989
 21
97.766280345501485
 31
0.0
  0
LINE
  5
36D
  8
0
 10
182.64665902911989
 20
118.76625534550389
 30
0.0
 11
182.64665902912
 21
48.766238797386087
 31
0.0
  0
LINE
  5
370
  8
HIDE
 10
164.64665902911989
 20
92.266259571444877
 30
0.0
 11
182.64665902912
 21
92.266259571449226
 31
0.0
  0
LINE
  5
373
  8
0
 10
182.14665902911989
 20
72.266259571445602
 30
0.0
 11
182.64665902912
 21
72.266259571441964
 31
0.0
  0
LINE
  5
376
  8
0
 10
182.14665902912
 20
69.766280345508761
 30
0.0
 11
182.14665902911989
 21
97.766280345501485
 31
0.0
  0
LINE
  5
378
  8
HIDE
 10
164.64665902911989
 20
75.266259571446341
 30
0.0
 11
182.64665902912
 21
75.266259571441964
 31
0.0
  0
LINE
  5
41E
  8
CENTER
  6
CENTER
 10
311.69381081631082
 20
143.76628034550509
 30
0.0
 11
311.69381081631082
 21
23.76628034550512
 31
0.0
  0
LINE
  5
41F
  8
CENTER
  6
CENTER
 10
361.69380081631112
 20
83.766280345505109
 30
0.0
 11
311.69381081631087
 21
83.766280345505109
 31
0.0
  0
ARC
  5
42B
  8
0
 10
311.69381081631082
 20
83.766280345505109
 30
0.0
 40
22.5
 50
270.0
 51
90.0
  0
ARC
  5
42C
  8
0
 10
311.69381081631082
 20
83.766280345505109
 30
0.0
 40
22.5
 50
270.0
 51
90.0
  0
ARC
  5
42D
  8
0
 10
311.69381081631082
 20
83.766280345505109
 30
0.0
 40
34.99996000000101
 50
270.0
 51
90.0
  0
LINE
  5
430
  8
CENTER
 10
328.53887444031187
 20
66.921216721504052
 30
0.0
 11
335.45525167023391
 21
60.00483949158216
 31
0.0
  0
ARC
  5
432
  8
CENTER
 10
311.69381081631082
 20
83.766280345505109
 30
0.0
 40
29.0
 50
270.0
 51
90.0
  0
LINE
  5
438
  8
CENTER
 10
328.53887444031187
 20
100.61134396950619
 30
0.0
 11
335.45525167023391
 21
107.5277211994281
 31
0.0
  0
LINE
  5
454
  8
0
 10
182.64665902912
 20
48.766238797386087
 30
0.0
 11
183.64665902912
 21
47.76623879738608
 31
0.0
  0
LINE
  5
455
  8
0
 10
195.64666402912169
 20
119.76628034550509
 30
0.0
 11
183.64665902912
 21
119.76628034550509
 31
0.0
  0
LINE
  5
456
  8
0
 10
182.64665902912
 20
118.76628034550509
 30
0.0
 11
183.64665902912
 21
119.76628034550509
 31
0.0
  0
LINE
  5
460
  8
CENTER
 10
244.69958755583889
 20
112.76628034550509
 30
0.0
 11
228.69958755583889
 21
112.76628034550509
 31
0.0
  0
LINE
  5
466
  8
HIDE
 10
242.64666402912169
 20
115.26628034550509
 30
0.0
 11
235.42608689252771
 21
115.26628034550509
 31
0.0
  0
LINE
  5
479
  8
HIDE
 10
242.64666402912161
 20
110.7162803455051
 30
0.0
 11
232.64666402912169
 21
110.7162803455051
 31
0.0
  0
LINE
  5
47A
  8
HIDE
 10
242.64666402912161
 20
114.81628034550511
 30
0.0
 11
232.64666402912169
 21
114.81628034550511
 31
0.0
  0
LINE
  5
481
  8
HIDE
 10
234.64666402912161
 20
114.81628034550511
 30
0.0
 11
234.64666402912169
 21
110.7162803455051
 31
0.0
  0
LINE
  5
489
  8
HIDE
 10
234.64666402912169
 20
114.81628034550511
 30
0.0
 11
235.42608689252771
 21
115.26628034550509
 31
0.0
  0
LINE
  5
48C
  8
HIDE
 10
242.64666402912169
 20
110.266280345505
 30
0.0
 11
235.42608689252771
 21
110.26628034550509
 31
0.0
  0
LINE
  5
48D
  8
HIDE
 10
234.64666402912169
 20
110.7162803455051
 30
0.0
 11
235.42608689252771
 21
110.26628034550509
 31
0.0
  0
LINE
  5
491
  8
HIDE
 10
232.64666402912169
 20
114.81628034550511
 30
0.0
 11
232.64666402912169
 21
110.7162803455051
 31
0.0
  0
LINE
  5
498
  8
HIDE
 10
231.4630959772829
 20
112.76628034550509
 30
0.0
 11
232.64666402912169
 21
110.7162803455051
 31
0.0
  0
LINE
  5
499
  8
HIDE
 10
231.4630959772829
 20
112.76628034550509
 30
0.0
 11
232.64666402912169
 21
114.81628034550511
 31
0.0
  0
LINE
  5
49A
  8
HIDE
 10
235.42608689252771
 20
110.26628034550509
 30
0.0
 11
235.42608689252771
 21
115.26628034550509
 31
0.0
  0
LINE
  5
49B
  8
HIDE
 10
234.64666402912161
 20
52.71623879738609
 30
0.0
 11
234.64666402912169
 21
56.816238797386092
 31
0.0
  0
LINE
  5
49C
  8
0
 10
241.6466140291229
 20
48.766278797385063
 30
0.0
 11
242.64662402912271
 21
49.76627879738507
 31
0.0
  0
LINE
  5
49D
  8
CENTER
 10
244.69958755583889
 20
54.766238797386087
 30
0.0
 11
228.69958755583889
 21
54.766238797386087
 31
0.0
  0
LINE
  5
49E
  8
HIDE
 10
242.64666402912161
 20
52.716238797386112
 30
0.0
 11
232.64666402912169
 21
52.71623879738609
 31
0.0
  0
LINE
  5
49F
  8
HIDE
 10
242.64666402912161
 20
56.816238797386099
 30
0.0
 11
232.64666402912169
 21
56.816238797386077
 31
0.0
  0
LINE
  5
4A0
  8
HIDE
 10
242.64666402912169
 20
52.266238797386073
 30
0.0
 11
235.42608689252771
 21
52.26623879738608
 31
0.0
  0
LINE
  5
4A1
  8
HIDE
 10
234.64666402912169
 20
52.71623879738609
 30
0.0
 11
235.42608689252771
 21
52.26623879738608
 31
0.0
  0
LINE
  5
4A2
  8
HIDE
 10
242.64666402912169
 20
57.266238797386123
 30
0.0
 11
235.42608689252771
 21
57.266238797386102
 31
0.0
  0
LINE
  5
4A3
  8
HIDE
 10
234.64666402912169
 20
56.816238797386092
 30
0.0
 11
235.42608689252771
 21
57.266238797386102
 31
0.0
  0
LINE
  5
4A4
  8
HIDE
 10
232.64666402912169
 20
52.71623879738609
 30
0.0
 11
232.64666402912169
 21
56.816238797386077
 31
0.0
  0
LINE
  5
4A5
  8
HIDE
 10
231.4630959772829
 20
54.766238797386087
 30
0.0
 11
232.64666402912169
 21
56.816238797386092
 31
0.0
  0
LINE
  5
4A6
  8
HIDE
 10
231.4630959772829
 20
54.766238797386087
 30
0.0
 11
232.64666402912169
 21
52.71623879738609
 31
0.0
  0
LINE
  5
4A7
  8
HIDE
 10
235.42608689252771
 20
57.266238797386102
 30
0.0
 11
235.42608689252771
 21
52.26623879738608
 31
0.0
  0
LINE
  5
4B6
  8
HIDE
 10
197.64666402912169
 20
75.26623879738608
 30
0.0
 11
197.64666402912169
 21
60.26623879738608
 31
0.0
  0
LINE
  5
4B7
  8
HIDE
 10
197.64666402912169
 20
92.266280345505123
 30
0.0
 11
197.64666402912169
 21
107.26628034550509
 31
0.0
  0
ARC
  5
4C4
  8
HIDE
 10
59.563252374726822
 20
104.2724019998994
 30
0.0
 40
2.5
 50
220.149675824978
 51
127.21532272894081
  0
CIRCLE
  5
4C5
  8
0
 10
59.563252374726822
 20
104.2724019998994
 30
0.0
 40
2.0499999999999989
  0
ARC
  5
4C9
  8
HIDE
 10
100.5754256835307
 20
104.2723719999148
 30
0.0
 40
2.5
 50
220.14967582497809
 51
127.21532272894081
  0
CIRCLE
  5
4CA
  8
0
 10
100.5754256835307
 20
104.2723719999148
 30
0.0
 40
2.0499999999999989
  0
ARC
  5
4CB
  8
HIDE
 10
59.563252374726808
 20
63.260280076915777
 30
0.0
 40
2.5
 50
220.149675824978
 51
127.2153227289409
  0
CIRCLE
  5
4CC
  8
0
 10
59.563252374726808
 20
63.260280076915777
 30
0.0
 40
2.0499999999999989
  0
ARC
  5
4CD
  8
HIDE
 10
100.5754256835307
 20
63.260250076931172
 30
0.0
 40
2.5
 50
220.149675824978
 51
127.21532272894081
  0
CIRCLE
  5
4CE
  8
0
 10
100.5754256835307
 20
63.260250076931172
 30
0.0
 40
2.0499999999999989
  0
ARC
  5
4CF
  8
HIDE
 10
332.19990247072047
 20
104.2723719999148
 30
0.0
 40
2.5
 50
220.1496758249784
 51
127.2153227289411
  0
CIRCLE
  5
4D0
  8
0
 10
332.19990247072047
 20
104.2723719999148
 30
0.0
 40
2.0499999999999989
  0
ARC
  5
4D1
  8
HIDE
 10
332.19990247072047
 20
63.260188691095458
 30
0.0
 40
2.5
 50
220.14967582497829
 51
127.2153227289412
  0
CIRCLE
  5
4D2
  8
0
 10
332.19990247072047
 20
63.260188691095458
 30
0.0
 40
2.0499999999999989
  0
CIRCLE
  5
4F3
  8
0
 10
80.069324029121844
 20
83.766280345505109
 30
0.0
 40
20.0
  0
LINE
  5
500
  8
HIDE
 10
185.64665902912
 20
106.26628034550509
 30
0.0
 11
185.64665902912
 21
98.266259571445588
 31
0.0
  0
LINE
  5
501
  8
HIDE
 10
194.64665902912
 20
104.76628034550291
 30
0.0
 11
194.64665902911651
 21
98.266259571445602
 31
0.0
  0
LINE
  5
502
  8
HIDE
 10
182.64665902912
 20
106.26628034550509
 30
0.0
 11
185.64665902912
 21
106.26628034550509
 31
0.0
  0
LINE
  5
503
  8
HIDE
 10
185.64665902912
 20
104.76628034550291
 30
0.0
 11
194.64665902912
 21
104.76628034550291
 31
0.0
  0
LINE
  5
504
  8
HIDE
 10
194.64665902911941
 20
103.76628034550509
 30
0.0
 11
197.64665902912009
 21
103.76628034550509
 31
0.0
  0
LINE
  5
505
  8
HIDE
 10
182.64665902912
 20
98.266259571445588
 30
0.0
 11
197.646659029109
 21
98.266259571445588
 31
0.0
  0
ARC
  5
50B
  8
HIDE
 10
80.069324029121844
 20
95.016280345505109
 30
0.0
 40
1.75
 50
260.9951092454387
 51
178.07734024075401
  0
CIRCLE
  5
50C
  8
0
 10
80.069324029121844
 20
95.016280345505109
 30
0.0
 40
1.45
  0
ARC
  5
52B
  8
HIDE
 10
80.069324029121844
 20
72.516280345505123
 30
0.0
 40
1.75
 50
260.9951092454387
 51
178.07734024075401
  0
CIRCLE
  5
52C
  8
0
 10
80.069324029121844
 20
72.516280345505123
 30
0.0
 40
1.45
  0
LINE
  5
532
  8
HIDE
 10
164.64665902911989
 20
91.941259571444846
 30
0.0
 11
182.64665902912
 21
91.941259571449237
 31
0.0
  0
LINE
  5
533
  8
HIDE
 10
164.64665902911989
 20
75.591259571446344
 30
0.0
 11
182.64665902912
 21
75.591259571441967
 31
0.0
  0
CIRCLE
  5
536
  8
0
 10
80.069324029121844
 20
83.766280345505109
 30
0.0
 40
8.1749792259404757
  0
LINE
  5
53E
  8
0
 10
164.64665902912
 20
69.76628034550437
 30
0.0
 11
182.14665902911989
 21
69.766280345508761
 31
0.0
  0
ARC
  5
542
  8
0
 10
311.69381081631087
 20
83.766280345505109
 30
0.0
 40
21.0
 50
270.0
 51
90.0
  0
ARC
  5
543
  8
0
 10
311.69381081631087
 20
83.766280345505109
 30
0.0
 40
20.0
 50
270.0
 51
90.0
  0
ARC
  5
546
  8
0
 10
311.69381081631087
 20
83.766280345505109
 30
0.0
 40
8.5
 50
270.0
 51
90.0
  0
LINE
  5
54D
  8
HIDE
 10
185.64665902912
 20
61.26623879738608
 30
0.0
 11
185.64665902912
 21
69.266259571445602
 31
0.0
  0
LINE
  5
54E
  8
HIDE
 10
194.64665902912
 20
62.766238797388297
 30
0.0
 11
194.64665902911651
 21
69.266259571445602
 31
0.0
  0
LINE
  5
54F
  8
HIDE
 10
182.64665902912
 20
61.26623879738608
 30
0.0
 11
185.64665902912
 21
61.26623879738608
 31
0.0
  0
LINE
  5
550
  8
HIDE
 10
185.64665902912
 20
62.766238797388297
 30
0.0
 11
194.64665902912
 21
62.766238797388297
 31
0.0
  0
LINE
  5
551
  8
HIDE
 10
194.64665902911941
 20
63.766238797386052
 30
0.0
 11
197.64665902912009
 21
63.76623879738608
 31
0.0
  0
LINE
  5
552
  8
HIDE
 10
182.6466590291202
 20
69.266259571445602
 30
0.0
 11
197.64665902910929
 21
69.266259571445602
 31
0.0
  0
LINE
  5
553
  8
HIDE
 10
239.64666402912169
 20
106.26628034550509
 30
0.0
 11
239.64666402912169
 21
98.266259571445602
 31
0.0
  0
LINE
  5
554
  8
HIDE
 10
230.64666402912161
 20
104.76628034550291
 30
0.0
 11
230.64666402912519
 21
98.266259571445602
 31
0.0
  0
LINE
  5
555
  8
HIDE
 10
242.64666402912161
 20
106.26628034550509
 30
0.0
 11
239.64666402912169
 21
106.26628034550509
 31
0.0
  0
LINE
  5
556
  8
HIDE
 10
239.64666402912169
 20
104.76628034550291
 30
0.0
 11
230.64666402912161
 21
104.76628034550291
 31
0.0
  0
LINE
  5
557
  8
HIDE
 10
230.64666402912209
 20
103.76628034550509
 30
0.0
 11
227.6466640291215
 21
103.76628034550509
 31
0.0
  0
LINE
  5
558
  8
HIDE
 10
242.64666402912141
 20
98.266259571445602
 30
0.0
 11
227.6466640291323
 21
98.266259571445602
 31
0.0
  0
LINE
  5
559
  8
HIDE
 10
239.64666402912169
 20
61.266238797386059
 30
0.0
 11
239.64666402912169
 21
69.266259571445573
 31
0.0
  0
LINE
  5
55A
  8
HIDE
 10
230.64666402912161
 20
62.766238797388283
 30
0.0
 11
230.64666402912519
 21
69.266259571445573
 31
0.0
  0
LINE
  5
55B
  8
HIDE
 10
242.64666402912161
 20
61.266238797386059
 30
0.0
 11
239.64666402912169
 21
61.266238797386059
 31
0.0
  0
LINE
  5
55C
  8
HIDE
 10
239.64666402912169
 20
62.766238797388283
 30
0.0
 11
230.64666402912161
 21
62.766238797388283
 31
0.0
  0
LINE
  5
55D
  8
HIDE
 10
230.64666402912209
 20
63.766238797386038
 30
0.0
 11
227.6466640291215
 21
63.766238797386059
 31
0.0
  0
LINE
  5
55E
  8
HIDE
 10
242.64666402912189
 20
69.266259571445573
 30
0.0
 11
227.64666402913281
 21
69.266259571445573
 31
0.0
  0
LINE
  5
55F
  8
HIDE
 10
213.64666402912169
 20
60.26623879738608
 30
0.0
 11
227.64666402912169
 21
60.26623879738608
 31
0.0
  0
LINE
  5
560
  8
HIDE
 10
213.64666402912169
 20
107.26628034550509
 30
0.0
 11
227.64666402912169
 21
107.26628034550509
 31
0.0
  0
ARC
  5
56F
  8
0
 10
311.69381081631087
 20
83.766280345505109
 30
0.0
 40
14.5
 50
270.0
 51
90.0
  0
CIRCLE
  5
57D
  8
0
 10
80.069324029121844
 20
83.766280345505109
 30
0.0
 40
14.0
  0
CIRCLE
  5
581
  8
CENTER
 10
80.069324029121844
 20
83.766280345505109
 30
0.0
 40
11.25
  0
LINE
  5
597
  8
0
 10
77.544324029121839
 20
114.3862726294373
 30
0.0
 11
77.544324029121839
 21
111.1462880615729
 31
0.0
  0
LINE
  5
598
  8
0
 10
82.59432402912185
 20
114.3862726294373
 30
0.0
 11
82.594324029121822
 21
111.1462880615728
 31
0.0
  0
LINE
  5
599
  8
0
 10
77.544324029121839
 20
111.1462880615729
 30
0.0
 11
80.069324029121844
 21
109.76628034550509
 31
0.0
  0
LINE
  5
59A
  8
0
 10
80.069324029121844
 20
109.76628034550509
 30
0.0
 11
82.594324029121822
 21
111.1462880615728
 31
0.0
  0
LINE
  5
59B
  8
0
 10
82.59432402912185
 20
114.3862726294373
 30
0.0
 11
80.069324029121844
 21
115.76628034550509
 31
0.0
  0
LINE
  5
59C
  8
0
 10
77.544324029121839
 20
114.3862726294373
 30
0.0
 11
80.069324029121844
 21
115.76628034550509
 31
0.0
  0
CIRCLE
  5
5A4
  8
0
 10
80.069324029121844
 20
112.76628034550509
 30
0.0
 40
5.0
  0
LINE
  5
5A5
  8
0
 10
103.82727402912251
 20
97.642212629440124
 30
0.0
 11
103.82727402912251
 21
94.402228061575642
 31
0.0
  0
LINE
  5
5A6
  8
0
 10
108.8772740291225
 20
97.642212629440124
 30
0.0
 11
108.8772740291225
 21
94.402228061575613
 31
0.0
  0
LINE
  5
5A7
  8
0
 10
103.82727402912251
 20
94.402228061575642
 30
0.0
 11
106.3522740291225
 21
93.02222034550789
 31
0.0
  0
LINE
  5
5A8
  8
0
 10
106.3522740291225
 20
93.02222034550789
 30
0.0
 11
108.8772740291225
 21
94.402228061575613
 31
0.0
  0
LINE
  5
5A9
  8
0
 10
108.8772740291225
 20
97.642212629440124
 30
0.0
 11
106.3522740291225
 21
99.022220345507876
 31
0.0
  0
LINE
  5
5AA
  8
0
 10
103.82727402912251
 20
97.642212629440124
 30
0.0
 11
106.3522740291225
 21
99.022220345507876
 31
0.0
  0
CIRCLE
  5
5AB
  8
0
 10
106.3522740291225
 20
96.022220345507861
 30
0.0
 40
5.0
  0
LINE
  5
5AC
  8
0
 10
103.8272840291223
 20
73.130352629437766
 30
0.0
 11
103.8272840291223
 21
69.890368061573284
 31
0.0
  0
LINE
  5
5AD
  8
0
 10
108.87728402912229
 20
73.130352629437766
 30
0.0
 11
108.87728402912229
 21
69.89036806157327
 31
0.0
  0
LINE
  5
5AE
  8
0
 10
103.8272840291223
 20
69.890368061573284
 30
0.0
 11
106.3522840291223
 21
68.510360345505546
 31
0.0
  0
LINE
  5
5AF
  8
0
 10
106.3522840291223
 20
68.510360345505546
 30
0.0
 11
108.87728402912229
 21
69.89036806157327
 31
0.0
  0
LINE
  5
5B0
  8
0
 10
108.87728402912229
 20
73.130352629437766
 30
0.0
 11
106.3522840291223
 21
74.510360345505546
 31
0.0
  0
LINE
  5
5B1
  8
0
 10
103.8272840291223
 20
73.130352629437766
 30
0.0
 11
106.3522840291223
 21
74.510360345505546
 31
0.0
  0
CIRCLE
  5
5B2
  8
0
 10
106.3522840291223
 20
71.510360345505518
 30
0.0
 40
5.0
  0
LINE
  5
5B3
  8
0
 10
77.544364029120828
 20
56.38625262943787
 30
0.0
 11
77.544364029120828
 21
53.146268061573409
 31
0.0
  0
LINE
  5
5B4
  8
0
 10
82.594364029120854
 20
56.38625262943787
 30
0.0
 11
82.594364029120811
 21
53.14626806157338
 31
0.0
  0
LINE
  5
5B5
  8
0
 10
77.544364029120828
 20
53.146268061573409
 30
0.0
 11
80.069364029120834
 21
51.76626034550565
 31
0.0
  0
LINE
  5
5B6
  8
0
 10
80.069364029120834
 20
51.76626034550565
 30
0.0
 11
82.594364029120811
 21
53.14626806157338
 31
0.0
  0
LINE
  5
5B7
  8
0
 10
82.594364029120854
 20
56.38625262943787
 30
0.0
 11
80.069364029120834
 21
57.766260345505657
 31
0.0
  0
LINE
  5
5B8
  8
0
 10
77.544364029120828
 20
56.38625262943787
 30
0.0
 11
80.069364029120834
 21
57.766260345505657
 31
0.0
  0
CIRCLE
  5
5B9
  8
0
 10
80.069364029120834
 20
54.766260345505621
 30
0.0
 40
5.0
  0
LINE
  5
5BA
  8
0
 10
51.261434029123251
 20
73.130302629439029
 30
0.0
 11
51.261434029123251
 21
69.890318061574561
 31
0.0
  0
LINE
  5
5BB
  8
0
 10
56.311434029123262
 20
73.130302629439029
 30
0.0
 11
56.311434029123227
 21
69.890318061574533
 31
0.0
  0
LINE
  5
5BC
  8
0
 10
51.261434029123251
 20
69.890318061574561
 30
0.0
 11
53.786434029123257
 21
68.510310345506809
 31
0.0
  0
LINE
  5
5BD
  8
0
 10
53.786434029123257
 20
68.510310345506809
 30
0.0
 11
56.311434029123227
 21
69.890318061574533
 31
0.0
  0
LINE
  5
5BE
  8
0
 10
56.311434029123262
 20
73.130302629439029
 30
0.0
 11
53.786434029123257
 21
74.510310345506795
 31
0.0
  0
LINE
  5
5BF
  8
0
 10
51.261434029123251
 20
73.130302629439029
 30
0.0
 11
53.786434029123257
 21
74.510310345506795
 31
0.0
  0
CIRCLE
  5
5C0
  8
0
 10
53.786434029123257
 20
71.510310345506781
 30
0.0
 40
5.0
  0
LINE
  5
5C1
  8
0
 10
51.261404029120371
 20
97.642182629437229
 30
0.0
 11
51.261404029120371
 21
94.402198061572761
 31
0.0
  0
LINE
  5
5C2
  8
0
 10
56.311404029120382
 20
97.642182629437229
 30
0.0
 11
56.311404029120347
 21
94.402198061572733
 31
0.0
  0
LINE
  5
5C3
  8
0
 10
51.261404029120371
 20
94.402198061572761
 30
0.0
 11
53.786404029120369
 21
93.022190345505024
 31
0.0
  0
LINE
  5
5C4
  8
0
 10
53.786404029120369
 20
93.022190345505024
 30
0.0
 11
56.311404029120347
 21
94.402198061572733
 31
0.0
  0
LINE
  5
5C5
  8
0
 10
56.311404029120382
 20
97.642182629437229
 30
0.0
 11
53.786404029120369
 21
99.02219034550501
 31
0.0
  0
LINE
  5
5C6
  8
0
 10
51.261404029120371
 20
97.642182629437229
 30
0.0
 11
53.786404029120369
 21
99.02219034550501
 31
0.0
  0
CIRCLE
  5
5C7
  8
0
 10
53.786404029120369
 20
96.022190345504995
 30
0.0
 40
5.0
  0
LINE
  5
5E4
  8
0
 10
164.64665902911989
 20
97.766280345505123
 30
0.0
 11
164.64665902911989
 21
69.766280345505123
 31
0.0
  0
LINE
  5
607
  8
HIDE
 10
164.64665902911989
 20
96.766280345505137
 30
0.0
 11
170.64665902911989
 21
96.766280345505095
 31
0.0
  0
LINE
  5
608
  8
CENTER
 10
162.34942035187541
 20
95.016280345505109
 30
0.0
 11
176.47296381416811
 21
95.016280345505109
 31
0.0
  0
LINE
  5
609
  8
HIDE
 10
164.64665902911989
 20
96.466280345505126
 30
0.0
 11
171.64665902912
 21
96.466280345505155
 31
0.0
  0
LINE
  5
638
  8
HIDE
 10
170.64665902911989
 20
96.766280345505095
 30
0.0
 11
170.64665902911989
 21
95.016280345505109
 31
0.0
  0
LINE
  5
63A
  8
HIDE
 10
171.64665902911989
 20
96.466280345505112
 30
0.0
 11
171.64665902911989
 21
95.016280345505109
 31
0.0
  0
LINE
  5
63B
  8
HIDE
 10
172.64665902911989
 20
95.016280345505109
 30
0.0
 11
171.64665902911989
 21
96.466280345505126
 31
0.0
  0
LINE
  5
63D
  8
HIDE
 10
170.64665902911989
 20
93.266280345505137
 30
0.0
 11
170.64665902911989
 21
95.016280345505109
 31
0.0
  0
LINE
  5
63E
  8
HIDE
 10
171.64665902911989
 20
93.566280345505135
 30
0.0
 11
171.64665902911989
 21
95.016280345505109
 31
0.0
  0
LINE
  5
63F
  8
HIDE
 10
164.64665902911989
 20
93.266280345505109
 30
0.0
 11
170.64665902911989
 21
93.266280345505137
 31
0.0
  0
LINE
  5
640
  8
HIDE
 10
164.64665902911989
 20
93.56628034550512
 30
0.0
 11
171.64665902912
 21
93.566280345505106
 31
0.0
  0
LINE
  5
641
  8
HIDE
 10
172.64665902911989
 20
95.016280345505109
 30
0.0
 11
171.64665902911989
 21
93.56628034550512
 31
0.0
  0
LINE
  5
642
  8
HIDE
 10
172.64665902911989
 20
95.016280345505109
 30
0.0
 11
171.64665902911989
 21
96.466280345505126
 31
0.0
  0
LINE
  5
643
  8
HIDE
 10
172.64665902911989
 20
95.016280345505109
 30
0.0
 11
173.64665902911989
 21
93.56628034550512
 31
0.0
  0
LINE
  5
644
  8
HIDE
 10
171.64665902912
 20
93.566280345505106
 30
0.0
 11
173.64665902911989
 21
93.56628034550512
 31
0.0
  0
LINE
  5
645
  8
HIDE
 10
173.64665902911989
 20
93.56628034550512
 30
0.0
 11
173.64665902912029
 21
91.941259571447034
 31
0.0
  0
LINE
  5
646
  8
HIDE
 10
171.64665902912
 20
93.566280345505106
 30
0.0
 11
171.6466590291204
 21
91.941259571446565
 31
0.0
  0
INSERT
  5
7F0
  8
0
  2
*U2
 10
0.0
 20
0.0
 30
0.0
  0
ENDSEC
  0
EOF
