  0
SECTION
  2
HEADER
  9
$ACADVER
  1
AC1009
  9
$INSBASE
 10
0.0
 20
0.0
 30
0.0
  9
$EXTMIN
 10
50.701798940784776
 20
-11.507290794690279
 30
0.0
  9
$EXTMAX
 10
329.39952363041391
 20
207.64599547341439
 30
0.0
  9
$LIMMIN
 10
0.0
 20
0.0
  9
$LIMMAX
 10
12.0
 20
9.0
  9
$ORTHOMODE
 70
     1
  9
$REGENMODE
 70
     1
  9
$FILLMODE
 70
     1
  9
$QTEXTMODE
 70
     0
  9
$MIRRTEXT
 70
     0
  9
$DRAGMODE
 70
     2
  9
$LTSCALE
 40
1.0
  9
$OSMODE
 70
  2239
  9
$ATTMODE
 70
     1
  9
$TEXTSIZE
 40
0.2
  9
$TRACEWID
 40
0.05
  9
$TEXTSTYLE
  7
STANDARD
  9
$CLAYER
  8
0
  9
$CELTYPE
  6
BYLAYER
  9
$CECOLOR
 62
   256
  9
$DIMSCALE
 40
1.0
  9
$DIMASZ
 40
0.18
  9
$DIMEXO
 40
0.0625
  9
$DIMDLI
 40
0.38
  9
$DIMRND
 40
0.0
  9
$DIMDLE
 40
0.0
  9
$DIMEXE
 40
0.18
  9
$DIMTP
 40
0.0
  9
$DIMTM
 40
0.0
  9
$DIMTXT
 40
0.18
  9
$DIMCEN
 40
0.09
  9
$DIMTSZ
 40
0.0
  9
$DIMTOL
 70
     0
  9
$DIMLIM
 70
     0
  9
$DIMTIH
 70
     1
  9
$DIMTOH
 70
     1
  9
$DIMSE1
 70
     0
  9
$DIMSE2
 70
     0
  9
$DIMTAD
 70
     0
  9
$DIMZIN
 70
     0
  9
$DIMBLK
  1

  9
$DIMASO
 70
     1
  9
$DIMSHO
 70
     1
  9
$DIMPOST
  1

  9
$DIMAPOST
  1

  9
$DIMALT
 70
     0
  9
$DIMALTD
 70
     2
  9
$DIMALTF
 40
25.399999999999999
  9
$DIMLFAC
 40
1.0
  9
$DIMTOFL
 70
     0
  9
$DIMTVP
 40
0.0
  9
$DIMTIX
 70
     0
  9
$DIMSOXD
 70
     0
  9
$DIMSAH
 70
     0
  9
$DIMBLK1
  1

  9
$DIMBLK2
  1

  9
$DIMSTYLE
  2
STANDARD
  9
$DIMCLRD
 70
     0
  9
$DIMCLRE
 70
     0
  9
$DIMCLRT
 70
     0
  9
$DIMTFAC
 40
1.0
  9
$DIMGAP
 40
0.09
  9
$LUNITS
 70
     2
  9
$LUPREC
 70
     4
  9
$SKETCHINC
 40
0.1
  9
$FILLETRAD
 40
0.0
  9
$AUNITS
 70
     0
  9
$AUPREC
 70
     0
  9
$MENU
  1
.
  9
$ELEVATION
 40
0.0
  9
$PELEVATION
 40
0.0
  9
$THICKNESS
 40
0.0
  9
$LIMCHECK
 70
     0
  9
$BLIPMODE
 70
     0
  9
$CHAMFERA
 40
1.0
  9
$CHAMFERB
 40
1.0
  9
$SKPOLY
 70
     0
  9
$TDCREATE
 40
2455485.671822188
  9
$TDUPDATE
 40
2456645.481789086
  9
$TDINDWG
 40
0.1867865625
  9
$TDUSRTIMER
 40
0.1867865625
  9
$USRTIMER
 70
     1
  9
$ANGBASE
 50
0.0
  9
$ANGDIR
 70
     0
  9
$PDMODE
 70
     0
  9
$PDSIZE
 40
0.0
  9
$PLINEWID
 40
0.0
  9
$COORDS
 70
     1
  9
$SPLFRAME
 70
     0
  9
$SPLINETYPE
 70
     6
  9
$SPLINESEGS
 70
     8
  9
$ATTDIA
 70
     0
  9
$ATTREQ
 70
     1
  9
$HANDLING
 70
     1
  9
$HANDSEED
  5
DC5
  9
$SURFTAB1
 70
     6
  9
$SURFTAB2
 70
     6
  9
$SURFTYPE
 70
     6
  9
$SURFU
 70
     6
  9
$SURFV
 70
     6
  9
$UCSNAME
  2

  9
$UCSORG
 10
0.0
 20
0.0
 30
0.0
  9
$UCSXDIR
 10
1.0
 20
0.0
 30
0.0
  9
$UCSYDIR
 10
0.0
 20
1.0
 30
0.0
  9
$PUCSNAME
  2

  9
$PUCSORG
 10
0.0
 20
0.0
 30
0.0
  9
$PUCSXDIR
 10
1.0
 20
0.0
 30
0.0
  9
$PUCSYDIR
 10
0.0
 20
1.0
 30
0.0
  9
$USERI1
 70
     0
  9
$USERI2
 70
     0
  9
$USERI3
 70
     0
  9
$USERI4
 70
     0
  9
$USERI5
 70
     0
  9
$USERR1
 40
0.0
  9
$USERR2
 40
0.0
  9
$USERR3
 40
0.0
  9
$USERR4
 40
0.0
  9
$USERR5
 40
0.0
  9
$WORLDVIEW
 70
     1
  9
$SHADEDGE
 70
     3
  9
$SHADEDIF
 70
    70
  9
$TILEMODE
 70
     1
  9
$MAXACTVP
 70
    48
  9
$PLIMCHECK
 70
     0
  9
$PEXTMIN
 10
0.0
 20
0.0
 30
0.0
  9
$PEXTMAX
 10
0.0
 20
0.0
 30
0.0
  9
$PLIMMIN
 10
0.0
 20
0.0
  9
$PLIMMAX
 10
12.0
 20
9.0
  9
$UNITMODE
 70
     0
  9
$VISRETAIN
 70
     1
  9
$PLINEGEN
 70
     0
  9
$PSLTSCALE
 70
     1
  0
ENDSEC
  0
SECTION
  2
TABLES
  0
TABLE
  2
VPORT
 70
     1
  0
VPORT
  2
*ACTIVE
 70
     0
 10
0.0
 20
0.0
 11
1.0
 21
1.0
 12
226.50681693845581
 22
99.543483068316604
 13
0.0
 23
0.0
 14
0.5
 24
0.5
 15
0.5
 25
0.5
 16
0.0
 26
0.0
 36
1.0
 17
0.0
 27
0.0
 37
0.0
 40
268.266227757764
 41
2.1408934707903771
 42
50.0
 43
0.0
 44
0.0
 50
0.0
 51
0.0
 71
     0
 72
  1000
 73
     1
 74
     3
 75
     0
 76
     0
 77
     0
 78
     0
  0
ENDTAB
  0
TABLE
  2
LTYPE
 70
     5
  0
LTYPE
  2
CONTINUOUS
 70
     0
  3
Solid line
 72
    65
 73
     0
 40
0.0
  0
LTYPE
  2
CENTER
 70
     0
  3
____ _ ____ _ ____ _ ____ _ ____ _ ____ _ ____ 
 72
    65
 73
     4
 40
2.0
 49
1.25
 49
-0.25
 49
0.25
 49
-0.25
  0
LTYPE
  2
PHANTOM2
 70
     0
  3
Phantom (.5x) ___ _ _ ___ _ _ ___ _ _ ___ _ _
 72
    65
 73
     6
 40
1.25
 49
0.625
 49
-0.125
 49
0.125
 49
-0.125
 49
0.125
 49
-0.125
  0
ENDTAB
  0
TABLE
  2
LAYER
 70
     4
  0
LAYER
  2
0
 70
     0
 62
     7
  6
CONTINUOUS
  0
LAYER
  2
CENTER
 70
     0
 62
     3
  6
CENTER
  0
LAYER
  2
HIDE
 70
     0
 62
     1
  6
CONTINUOUS
  0
ENDTAB
  0
TABLE
  2
STYLE
 70
     7
  0
STYLE
  2
STANDARD
 70
     0
 40
0.0
 41
1.0
 50
0.0
 71
     0
 42
0.2
  3
txt
  4
whgtxt.shx
  0
STYLE
  2
DUKI7
 70
     0
 40
20.0
 41
1.0
 50
0.0
 71
     0
 42
6.0
  3
txt
  4

  0
ENDTAB
  0
TABLE
  2
VIEW
 70
     0
  0
ENDTAB
  0
TABLE
  2
UCS
 70
     0
  0
ENDTAB
  0
TABLE
  2
APPID
 70
    13
  0
APPID
  2
ACAD
 70
     0
  0
APPID
  2
ACADANNOPO
 70
     0
  0
APPID
  2
ACADANNOTATIVE
 70
     0
  0
APPID
  2
ACAD_DSTYLE_DIMJAG
 70
     0
  0
APPID
  2
ACAD_DSTYLE_DIMTALN
 70
     0
  0
APPID
  2
ACAD_MLEADERVER
 70
     0
  0
APPID
  2
ACAD_PSEXT
 70
     0
  0
APPID
  2
ACAECLAYERSTANDARD
 70
     0
  0
APPID
  2
ACAD_DSTYLE_DIMBREAK
 70
     0
  0
APPID
  2
ACAD_DSTYLE_DIMTEXT_FILL
 70
     0
  0
APPID
  2
ACAD_EXEMPT_FROM_CAD_STANDARDS
 70
     0
  0
APPID
  2
ACAD_NAV_VCDISPLAY
 70
     0
  0
APPID
  2
ACDBDYNAMICBLOCKTRUENAME2
 70
     0
  0
ENDTAB
  0
TABLE
  2
DIMSTYLE
 70
     7
  0
DIMSTYLE
  2
STANDARD
 70
     0
  3

  4

  5

  6

  7

 40
1.0
 41
0.18
 42
0.0625
 43
0.38
 44
0.18
 45
0.0
 46
0.0
 47
0.0
 48
0.0
140
0.18
141
0.09
142
0.0
143
25.399999999999999
144
1.0
145
0.0
146
1.0
147
0.09
 71
     0
 72
     0
 73
     1
 74
     1
 75
     0
 76
     0
 77
     0
 78
     0
170
     0
171
     2
172
     0
173
     0
174
     0
175
     0
176
     0
177
     0
178
     0
  0
ENDTAB
  0
ENDSEC
  0
SECTION
  2
BLOCKS
  0
BLOCK
  8
0
  2
$MODEL_SPACE
 70
     0
 10
0.0
 20
0.0
 30
0.0
  3
$MODEL_SPACE
  1

  0
ENDBLK
  5
21
  8
0
  0
BLOCK
 67
     1
  8
0
  2
$PAPER_SPACE
 70
     0
 10
0.0
 20
0.0
 30
0.0
  3
$PAPER_SPACE
  1

  0
ENDBLK
  5
5B
 67
     1
  8
0
  0
BLOCK
  8
0
  2
*U6
 70
     1
 10
0.0
 20
0.0
 30
0.0
  3
*U6
  1

  0
TEXT
  5
D9B
  8
0
 10
1.7970104529654729
 20
7.5649174786972111
 30
0.0
 40
20.0
  1
WBK17
  7
DUKI7
  0
ENDBLK
  5
D9D
  8
0
  0
BLOCK
  8
0
  2
*U7
 70
     1
 10
0.0
 20
0.0
 30
0.0
  3
*U7
  1

  0
TEXT
  5
D9F
  8
0
 10
143.5177720790453
 20
-4.6594647077337639
 30
0.0
 40
20.0
  1
WBK20
  7
DUKI7
  0
ENDBLK
  5
DA1
  8
0
  0
BLOCK
  8
0
  2
*X8
 70
     1
 10
0.0
 20
0.0
 30
0.0
  3
*X8
  1

  0
LINE
  5
DA3
  8
0
 62
     0
 10
92.517912785585153
 20
36.715900985071549
 30
0.0
 11
91.315272696147687
 21
37.038147425821599
 31
0.0
  0
LINE
  5
DA4
  8
0
 62
     0
 10
89.896334395499963
 20
36.15660795271495
 30
0.0
 11
89.822614884138815
 21
36.176361036250597
 31
0.0
  0
LINE
  5
DA5
  8
0
 62
     0
 10
93.379699175158606
 20
35.2232431730624
 30
0.0
 11
89.896334395500133
 21
36.156607952714907
 31
0.0
  0
LINE
  5
DA6
  8
0
 62
     0
 10
90.75812078506965
 20
34.663950140706859
 30
0.0
 11
88.329957072128565
 21
35.314574646679993
 31
0.0
  0
LINE
  5
DA7
  8
0
 62
     0
 10
93.236099967061136
 20
33.999977620031103
 30
0.0
 11
90.758120785074794
 21
34.663950140705481
 31
0.0
  0
LINE
  5
DA8
  8
0
 62
     0
 10
88.527211563895065
 20
33.999977620032944
 30
0.0
 11
88.136542394992844
 21
34.104657108348043
 31
0.0
  0
LINE
  5
DA9
  8
0
 62
     0
 10
93.551221659793555
 20
33.999977620031132
 30
0.0
 11
93.720724344816574
 21
34.632570252556413
 31
0.0
  0
LINE
  5
DAA
  8
0
 62
     0
 10
92.28947881491878
 20
33.999977620031132
 30
0.0
 11
92.858937955244855
 21
36.125228064562521
 31
0.0
  0
LINE
  5
DAB
  8
0
 62
     0
 10
91.063786786022916
 20
34.134521096918782
 30
0.0
 11
91.938174334836646
 21
37.397779854597253
 31
0.0
  0
LINE
  5
DAC
  8
0
 62
     0
 10
91.027735970044475
 20
33.999977620032951
 30
0.0
 11
91.063786786021055
 21
34.13452109691184
 31
0.0
  0
LINE
  5
DAD
  8
0
 62
     0
 10
90.202000396450842
 20
35.627178908923717
 30
0.0
 11
90.445516522828228
 21
36.535993465026479
 31
0.0
  0
LINE
  5
DAE
  8
0
 62
     0
 10
89.765993125169672
 20
33.999977620032951
 30
0.0
 11
90.20200039645033
 21
35.627178908921771
 31
0.0
  0
LINE
  5
DAF
  8
0
 62
     0
 10
88.504250280294883
 20
33.999977620032951
 30
0.0
 11
88.952858710820038
 21
35.674207075456557
 31
0.0
  0
ENDBLK
  5
DB1
  8
0
  0
BLOCK
  8
0
  2
*X9
 70
     1
 10
0.0
 20
0.0
 30
0.0
  3
*X9
  1

  0
LINE
  5
DB3
  8
0
 62
     0
 10
173.8173349501526
 20
96.482191210543107
 30
0.0
 11
172.6146948607151
 21
96.804437651293185
 31
0.0
  0
LINE
  5
DB4
  8
0
 62
     0
 10
171.19575656006731
 20
95.922898178186514
 30
0.0
 11
171.1220370487062
 21
95.942651261722148
 31
0.0
  0
LINE
  5
DB5
  8
0
 62
     0
 10
174.67912133972601
 20
94.989533398533965
 30
0.0
 11
171.19575656006751
 21
95.922898178186486
 31
0.0
  0
LINE
  5
DB6
  8
0
 62
     0
 10
172.057542949637
 20
94.430240366178438
 30
0.0
 11
169.629379236696
 21
95.080864872151537
 31
0.0
  0
LINE
  5
DB7
  8
0
 62
     0
 10
174.53552213162851
 20
93.766267845502654
 30
0.0
 11
172.0575429496422
 21
94.430240366177046
 31
0.0
  0
LINE
  5
DB8
  8
0
 62
     0
 10
169.8266337284625
 20
93.766267845504515
 30
0.0
 11
169.4359645595602
 21
93.870947333819601
 31
0.0
  0
LINE
  5
DB9
  8
0
 62
     0
 10
174.85064382436099
 20
93.766267845502711
 30
0.0
 11
175.02014650938401
 21
94.398860478027984
 31
0.0
  0
LINE
  5
DBA
  8
0
 62
     0
 10
173.5889009794862
 20
93.766267845502711
 30
0.0
 11
174.1583601198123
 21
95.891518290034114
 31
0.0
  0
LINE
  5
DBB
  8
0
 62
     0
 10
172.36320895059029
 20
93.900811322390354
 30
0.0
 11
173.23759649940411
 21
97.164070080068825
 31
0.0
  0
LINE
  5
DBC
  8
0
 62
     0
 10
172.32715813461189
 20
93.766267845504515
 30
0.0
 11
172.36320895058839
 21
93.90081132238339
 31
0.0
  0
LINE
  5
DBD
  8
0
 62
     0
 10
171.5014225610183
 20
95.393469134395303
 30
0.0
 11
171.7449386873956
 21
96.302283690498058
 31
0.0
  0
LINE
  5
DBE
  8
0
 62
     0
 10
171.0654152897371
 20
93.766267845504558
 30
0.0
 11
171.5014225610177
 21
95.393469134393342
 31
0.0
  0
LINE
  5
DBF
  8
0
 62
     0
 10
169.80367244486229
 20
93.766267845504515
 30
0.0
 11
170.25228087538741
 21
95.440497300928129
 31
0.0
  0
ENDBLK
  5
DC1
  8
0
  0
ENDSEC
  0
SECTION
  2
ENTITIES
  0
LINE
  5
26F
  8
HIDE
 10
242.64666402912161
 20
93.766259571445588
 30
0.0
 11
227.64666402913261
 21
93.766259571445588
 31
0.0
  0
LINE
  5
270
  8
0
 10
241.64666402912169
 20
118.76628034550509
 30
0.0
 11
210.64666402912169
 21
118.76628034550509
 31
0.0
  0
LINE
  5
271
  8
0
 10
242.64666402912161
 20
117.76628034550509
 30
0.0
 11
242.64666402912169
 21
49.766318796984081
 31
0.0
  0
LINE
  5
276
  8
0
 10
241.6466140291229
 20
118.76624034550611
 30
0.0
 11
242.64662402912271
 21
117.76624034550611
 31
0.0
  0
LINE
  5
278
  8
HIDE
 10
204.14666402912169
 20
134.76628034550509
 30
0.0
 11
204.14666402912169
 21
120.76628034550509
 31
0.0
  0
LINE
  5
279
  8
0
 10
210.64666402912169
 20
135.26628034550509
 30
0.0
 11
210.64666402912169
 21
118.76628034550509
 31
0.0
  0
LINE
  5
27A
  8
0
 10
195.64666402912169
 20
135.2662603455056
 30
0.0
 11
195.64666402912169
 21
119.76628034550509
 31
0.0
  0
LINE
  5
27B
  8
CENTER
  6
CENTER
 10
210.81912402912329
 20
97.991230345504931
 30
0.0
 11
199.4741940291203
 21
104.5412303455078
 31
0.0
  0
CIRCLE
  5
27C
  8
HIDE
 10
205.14666402912161
 20
101.26628034550509
 30
0.0
 40
3.1749990000000001
  0
LINE
  5
27D
  8
HIDE
 10
212.64666402912169
 20
104.76628034550509
 30
0.0
 11
206.54866402911989
 21
104.76628034550509
 31
0.0
  0
LINE
  5
27E
  8
HIDE
 10
211.64666402912169
 20
93.766259571445588
 30
0.0
 11
198.64666402912169
 21
93.766259571445588
 31
0.0
  0
LINE
  5
27F
  8
HIDE
 10
195.64666402912169
 20
107.26628034550509
 30
0.0
 11
211.64666402912169
 21
107.26628034550509
 31
0.0
  0
LINE
  5
280
  8
HIDE
 10
212.64666402912169
 20
106.26628034550509
 30
0.0
 11
212.64666402912169
 21
94.766259571445616
 31
0.0
  0
LINE
  5
281
  8
HIDE
 10
227.64666402912169
 20
107.26628034550509
 30
0.0
 11
227.6466640291315
 21
93.766259571445616
 31
0.0
  0
LINE
  5
282
  8
HIDE
 10
226.64666402912169
 20
93.766259571445588
 30
0.0
 11
213.64666402912169
 21
93.766259571445588
 31
0.0
  0
LINE
  5
283
  8
CENTER
  6
CENTER
 10
225.81906402912111
 20
104.5412403455076
 30
0.0
 11
214.47414402912159
 21
97.991250345508064
 31
0.0
  0
ARC
  5
284
  8
HIDE
 10
218.74465402912011
 20
104.26628034550509
 30
0.0
 40
0.5
 50
5.0037200000160658
 51
90.000018000116455
  0
CIRCLE
  5
285
  8
HIDE
 10
220.14666402912169
 20
101.26628034550509
 30
0.0
 40
3.1749990000000001
  0
ARC
  5
286
  8
HIDE
 10
226.64666402912169
 20
94.766259571445616
 30
0.0
 40
1.0
 50
270.0
 51
0.0000400000040257
  0
LINE
  5
287
  8
HIDE
 10
227.14666402912169
 20
98.266280345505123
 30
0.0
 11
221.18618402912011
 21
98.266280345505123
 31
0.0
  0
LINE
  5
288
  8
HIDE
 10
227.14666402912169
 20
101.26628034550509
 30
0.0
 11
223.3216440291215
 21
101.26628034550509
 31
0.0
  0
ARC
  5
289
  8
HIDE
 10
227.14666402912169
 20
97.766280345505123
 30
0.0
 40
0.5
 50
0.0000400000040257
 51
90.000018000116455
  0
ARC
  5
28A
  8
HIDE
 10
227.14666402912169
 20
101.76628034550509
 30
0.0
 40
0.5
 50
270.0
 51
0.0000400000040257
  0
ARC
  5
28B
  8
HIDE
 10
213.64666402912169
 20
94.766259571445616
 30
0.0
 40
1.0
 50
180.0
 51
269.9999800001022
  0
ARC
  5
28C
  8
HIDE
 10
211.64666402912169
 20
94.766259571445616
 30
0.0
 40
1.0
 50
269.9999800001022
 51
359.99995999999589
  0
LINE
  5
28D
  8
HIDE
 10
216.9716540291227
 20
101.26628034550509
 30
0.0
 11
213.14666402912169
 21
101.26628034550509
 31
0.0
  0
LINE
  5
28E
  8
HIDE
 10
218.74465402912011
 20
104.76628034550509
 30
0.0
 11
212.64666402912169
 21
104.76628034550509
 31
0.0
  0
ARC
  5
28F
  8
HIDE
 10
212.14666402912169
 20
100.76628034550509
 30
0.0
 40
0.5
 50
0.0000400000040257
 51
90.000018000116455
  0
LINE
  5
290
  8
HIDE
 10
212.14666402912169
 20
101.26628034550509
 30
0.0
 11
208.321664029121
 21
101.26628034550509
 31
0.0
  0
ARC
  5
291
  8
HIDE
 10
213.14666402912169
 20
100.76628034550509
 30
0.0
 40
0.5
 50
90.000018000116455
 51
180.0
  0
ARC
  5
292
  8
HIDE
 10
226.64666402912169
 20
106.26628034550509
 30
0.0
 40
1.0
 50
0.0000400000040257
 51
90.000018000116455
  0
ARC
  5
293
  8
HIDE
 10
213.64666402912169
 20
106.26628034550509
 30
0.0
 40
1.0
 50
90.000018000116455
 51
180.0
  0
ARC
  5
294
  8
HIDE
 10
211.64666402912169
 20
106.26628034550509
 30
0.0
 40
1.0
 50
0.0000400000040257
 51
90.000018000116455
  0
ARC
  5
296
  8
HIDE
 10
198.64666402912169
 20
94.766259571445616
 30
0.0
 40
1.0
 50
180.0
 51
269.9999800001022
  0
LINE
  5
297
  8
HIDE
 10
204.10714402912319
 20
98.266280345505123
 30
0.0
 11
198.14666402912161
 21
98.266280345505123
 31
0.0
  0
LINE
  5
298
  8
HIDE
 10
201.97167402912211
 20
101.26628034550509
 30
0.0
 11
198.14666402912161
 21
101.26628034550509
 31
0.0
  0
ARC
  5
299
  8
HIDE
 10
206.54866402911989
 20
104.26628034550509
 30
0.0
 40
0.5
 50
90.000018000116455
 51
174.9962780000821
  0
ARC
  5
29A
  8
HIDE
 10
198.14666402912161
 20
97.766280345505123
 30
0.0
 40
0.5
 50
90.000018000116455
 51
179.99996399997551
  0
ARC
  5
29B
  8
HIDE
 10
198.14666402912161
 20
101.76628034550509
 30
0.0
 40
0.5
 50
179.99995999999601
 51
269.9999800001022
  0
LINE
  5
29C
  8
HIDE
 10
204.14666402912169
 20
120.76628034550509
 30
0.0
 11
195.64666402912169
 21
120.76628034550509
 31
0.0
  0
ARC
  5
29D
  8
HIDE
 10
198.64666402912169
 20
106.26628034550509
 30
0.0
 40
1.0
 50
90.000018000116455
 51
179.99996399997551
  0
LINE
  5
29E
  8
HIDE
 10
195.64666402912169
 20
119.76628034550509
 30
0.0
 11
195.64666402912169
 21
107.26628034550509
 31
0.0
  0
LINE
  5
2A0
  8
HIDE
 10
210.64666402912169
 20
123.26628034550509
 30
0.0
 11
204.14666402912169
 21
123.26628034550509
 31
0.0
  0
LINE
  5
2A1
  8
HIDE
 10
210.64666402912169
 20
132.26628034550509
 30
0.0
 11
204.14666402912169
 21
132.26628034550509
 31
0.0
  0
LINE
  5
2A2
  8
CENTER
  6
CENTER
 10
215.59075402912251
 20
127.76628034550509
 30
0.0
 11
191.41973402912089
 21
127.76628034550509
 31
0.0
  0
LINE
  5
2A3
  8
0
 10
209.1466440291222
 20
136.76628034550509
 30
0.0
 11
197.14666402912161
 21
136.76628034550509
 31
0.0
  0
LINE
  5
2A4
  8
0
 10
210.6466340291224
 20
135.26623034550639
 30
0.0
 11
209.14662402912271
 21
136.76623034550639
 31
0.0
  0
LINE
  5
2A5
  8
HIDE
 10
204.14666402912169
 20
134.76628034550509
 30
0.0
 11
195.64666402912169
 21
134.76628034550509
 31
0.0
  0
LINE
  5
2A6
  8
0
 10
197.1466340291224
 20
136.76622034550661
 30
0.0
 11
195.6466340291224
 21
135.26622034550661
 31
0.0
  0
CIRCLE
  5
2AA
  8
0
 10
100.7017789407853
 20
83.766280345505109
 30
0.0
 40
21.0
  0
CIRCLE
  5
2AC
  8
CENTER
  6
CENTER
 10
100.7017789407853
 20
83.766280345505109
 30
0.0
 40
29.0
  0
CIRCLE
  5
2AD
  8
CENTER
  6
CENTER
 10
100.7017789407853
 20
83.766280345505109
 30
0.0
 40
44.0
  0
CIRCLE
  5
2AF
  8
0
 10
100.7017789407853
 20
83.766280345505109
 30
0.0
 40
22.5
  0
LINE
  5
2B0
  8
CENTER
  6
CENTER
 10
100.7017789407853
 20
143.76628034550509
 30
0.0
 11
100.7017789407853
 21
23.76628034550512
 31
0.0
  0
LINE
  5
2B1
  8
0
 10
140.70177894078529
 20
118.5369603455066
 30
0.0
 11
140.70177894078529
 21
48.995600345507313
 31
0.0
  0
LINE
  5
2B2
  8
0
 10
60.701798940784776
 20
118.5369603455066
 30
0.0
 11
60.701798940784776
 21
48.995600345507313
 31
0.0
  0
CIRCLE
  5
2B3
  8
0
 10
100.7017789407853
 20
83.766280345505109
 30
0.0
 40
36.0
  0
LINE
  5
2B4
  8
CENTER
  6
CENTER
 10
150.70176894078551
 20
83.766280345505109
 30
0.0
 11
50.701798940784776
 21
83.766280345505109
 31
0.0
  0
LINE
  5
2B5
  8
CENTER
  6
CENTER
 10
60.750278940786067
 20
43.814830345508277
 30
0.0
 11
83.324068940784628
 21
66.388630345506584
 31
0.0
  0
CIRCLE
  5
2B6
  8
0
 10
69.589128940786168
 20
52.653590345507013
 30
0.0
 40
4.5
  0
CIRCLE
  5
2B7
  8
0
 10
69.589128940786168
 20
52.653590345507013
 30
0.0
 40
7.0
  0
ARC
  5
2B8
  8
0
 10
100.7017789407853
 20
83.766280345505109
 30
0.0
 40
53.0
 50
220.99940000003949
 51
319.00062999999068
  0
LINE
  5
2BA
  8
CENTER
  6
CENTER
 10
118.0795289407849
 20
66.388600345507342
 30
0.0
 11
140.65331894078349
 21
43.814820345504891
 31
0.0
  0
CIRCLE
  5
2BB
  8
0
 10
131.8144889407865
 20
52.653590345507013
 30
0.0
 40
4.5
  0
CIRCLE
  5
2BC
  8
0
 10
131.8144889407865
 20
52.653590345507013
 30
0.0
 40
7.0
  0
LINE
  5
2BD
  8
CENTER
  6
CENTER
 10
134.68837894078541
 20
67.91812034550739
 30
0.0
 11
119.2811489407847
 21
75.102630345506526
 31
0.0
  0
CIRCLE
  5
2C0
  8
0
 10
126.9847389407857
 20
71.510360345505518
 30
0.0
 40
4.3099999999999987
  0
CIRCLE
  5
2C2
  8
0
 10
126.9847389407857
 20
71.510360345505518
 30
0.0
 40
5.5
  0
CIRCLE
  5
2CB
  8
0
 10
100.70181894078419
 20
54.766260345505621
 30
0.0
 40
4.3099999999999987
  0
CIRCLE
  5
2CD
  8
0
 10
100.70181894078419
 20
54.766260345505621
 30
0.0
 40
5.5
  0
CIRCLE
  5
2CE
  8
0
 10
100.7017989407848
 20
39.766300345508263
 30
0.0
 40
4.5
  0
CIRCLE
  5
2CF
  8
0
 10
100.7017989407848
 20
39.766300345508263
 30
0.0
 40
7.0
  0
LINE
  5
2D6
  8
CENTER
  6
CENTER
 10
66.715288940785967
 20
67.91812034550739
 30
0.0
 11
82.122528940786424
 21
75.102630345506526
 31
0.0
  0
CIRCLE
  5
2D9
  8
0
 10
74.418888940786701
 20
71.510310345506781
 30
0.0
 40
4.3099999999999987
  0
CIRCLE
  5
2DB
  8
0
 10
74.418888940786701
 20
71.510310345506781
 30
0.0
 40
5.5
  0
LINE
  5
2E2
  8
CENTER
  6
CENTER
 10
83.324118940783364
 20
101.1439903455058
 30
0.0
 11
60.750328940784811
 21
123.7177803455079
 31
0.0
  0
CIRCLE
  5
2E3
  8
0
 10
69.589128940786168
 20
114.8789703455068
 30
0.0
 40
4.5
  0
CIRCLE
  5
2E4
  8
0
 10
69.589128940786168
 20
114.8789703455068
 30
0.0
 40
7.0
  0
ARC
  5
2E5
  8
0
 10
100.7017789407853
 20
83.766280345505109
 30
0.0
 40
53.0
 50
40.999370000009073
 51
139.00064900004611
  0
LINE
  5
2E6
  8
CENTER
  6
CENTER
 10
140.65328894078419
 20
123.7177803455079
 30
0.0
 11
118.0795089407854
 21
101.1440003455055
 31
0.0
  0
CIRCLE
  5
2E7
  8
0
 10
131.8144889407865
 20
114.8789703455068
 30
0.0
 40
7.0
  0
CIRCLE
  5
2E8
  8
0
 10
131.8144889407865
 20
114.8789703455068
 30
0.0
 40
4.5
  0
LINE
  5
2EB
  8
CENTER
  6
CENTER
 10
119.28115894078449
 20
92.429940345507106
 30
0.0
 11
134.68838894078519
 21
99.614450345506242
 31
0.0
  0
CIRCLE
  5
2EC
  8
0
 10
126.984728940786
 20
96.022220345507861
 30
0.0
 40
4.3099999999999987
  0
CIRCLE
  5
2EE
  8
0
 10
126.984728940786
 20
96.022220345507861
 30
0.0
 40
5.5
  0
CIRCLE
  5
2F5
  8
0
 10
100.7017989407848
 20
127.7662603455056
 30
0.0
 40
7.0
  0
CIRCLE
  5
2FB
  8
0
 10
100.7017789407853
 20
112.76628034550509
 30
0.0
 40
5.5
  0
LINE
  5
302
  8
CENTER
  6
CENTER
 10
82.122498940783544
 20
92.429940345507106
 30
0.0
 11
66.715268940786473
 21
99.614450345506242
 31
0.0
  0
CIRCLE
  5
303
  8
0
 10
74.418858940783821
 20
96.022190345504995
 30
0.0
 40
4.3099999999999987
  0
CIRCLE
  5
305
  8
0
 10
74.418858940783821
 20
96.022190345504995
 30
0.0
 40
5.5
  0
CIRCLE
  5
30C
  8
0
 10
100.7017989407848
 20
127.7662603455056
 30
0.0
 40
4.5
  0
LINE
  5
30E
  8
CENTER
 10
246.9677071583971
 20
83.766259571445588
 30
0.0
 11
162.11225153678581
 21
83.766259571445588
 31
0.0
  0
LINE
  5
315
  8
HIDE
 10
182.64666402912161
 20
93.766259571445588
 30
0.0
 11
197.6466640291107
 21
93.766259571445588
 31
0.0
  0
LINE
  5
320
  8
HIDE
 10
242.64666402912169
 20
73.766259571445602
 30
0.0
 11
227.64666402913261
 21
73.766259571445602
 31
0.0
  0
LINE
  5
321
  8
0
 10
241.64666402912169
 20
48.76623879738608
 30
0.0
 11
210.64666402912169
 21
48.76623879738608
 31
0.0
  0
LINE
  5
327
  8
0
 10
241.6466140291229
 20
48.766278797385063
 30
0.0
 11
242.64666402912161
 21
49.766318796984073
 31
0.0
  0
LINE
  5
329
  8
HIDE
 10
204.14666402912169
 20
32.76623879738608
 30
0.0
 11
204.14666402912169
 21
46.76623879738608
 31
0.0
  0
LINE
  5
32A
  8
0
 10
210.64666402912169
 20
32.26623879738608
 30
0.0
 11
210.64666402912169
 21
48.76623879738608
 31
0.0
  0
LINE
  5
32B
  8
0
 10
195.64666402912169
 20
32.266258797385582
 30
0.0
 11
195.64666402912169
 21
47.76623879738608
 31
0.0
  0
LINE
  5
32C
  8
CENTER
  6
CENTER
 10
210.81912402912329
 20
69.541288797386272
 30
0.0
 11
199.4741940291203
 21
62.991288797383362
 31
0.0
  0
CIRCLE
  5
32D
  8
HIDE
 10
205.14666402912161
 20
66.26623879738608
 30
0.0
 40
3.1749990000000001
  0
LINE
  5
32E
  8
HIDE
 10
212.64666402912169
 20
62.76623879738608
 30
0.0
 11
206.54866402911989
 21
62.76623879738608
 31
0.0
  0
LINE
  5
32F
  8
HIDE
 10
211.64666402912169
 20
73.766259571445602
 30
0.0
 11
198.64666402912169
 21
73.766259571445602
 31
0.0
  0
LINE
  5
330
  8
HIDE
 10
195.64666402912169
 20
60.26623879738608
 30
0.0
 11
211.64666402912169
 21
60.26623879738608
 31
0.0
  0
LINE
  5
331
  8
HIDE
 10
212.64666402912169
 20
61.26623879738608
 30
0.0
 11
212.64666402912169
 21
72.766259571445602
 31
0.0
  0
LINE
  5
332
  8
HIDE
 10
227.64666402912169
 20
60.26623879738608
 30
0.0
 11
227.6466640291315
 21
73.766259571445602
 31
0.0
  0
LINE
  5
333
  8
HIDE
 10
226.64666402912169
 20
73.766259571445602
 30
0.0
 11
213.64666402912169
 21
73.766259571445602
 31
0.0
  0
LINE
  5
334
  8
CENTER
  6
CENTER
 10
225.81906402912111
 20
62.991278797383607
 30
0.0
 11
214.47414402912159
 21
69.54126879738314
 31
0.0
  0
ARC
  5
335
  8
HIDE
 10
218.74465402912011
 20
63.26623879738608
 30
0.0
 40
0.5
 50
269.99998200030041
 51
354.99628000019158
  0
CIRCLE
  5
336
  8
HIDE
 10
220.14666402912169
 20
66.26623879738608
 30
0.0
 40
3.1749990000000001
  0
ARC
  5
337
  8
HIDE
 10
226.64666402912169
 20
72.766259571445602
 30
0.0
 40
1.0
 50
359.99995999978751
 51
90.0
  0
LINE
  5
338
  8
HIDE
 10
227.14666402912169
 20
69.26623879738608
 30
0.0
 11
221.18618402912011
 21
69.26623879738608
 31
0.0
  0
LINE
  5
339
  8
HIDE
 10
227.14666402912169
 20
66.26623879738608
 30
0.0
 11
223.3216440291215
 21
66.26623879738608
 31
0.0
  0
ARC
  5
33A
  8
HIDE
 10
227.14666402912169
 20
69.76623879738608
 30
0.0
 40
0.5
 50
269.99998200030041
 51
359.99995999978751
  0
ARC
  5
33B
  8
HIDE
 10
227.14666402912169
 20
65.76623879738608
 30
0.0
 40
0.5
 50
359.99995999978751
 51
90.0
  0
ARC
  5
33C
  8
HIDE
 10
213.64666402912169
 20
72.766259571445602
 30
0.0
 40
1.0
 50
90.000019999897773
 51
180.0
  0
ARC
  5
33D
  8
HIDE
 10
211.64666402912169
 20
72.766259571445602
 30
0.0
 40
1.0
 50
0.0000399997955849
 51
90.000019999897773
  0
LINE
  5
33E
  8
HIDE
 10
216.9716540291227
 20
66.26623879738608
 30
0.0
 11
213.14666402912169
 21
66.26623879738608
 31
0.0
  0
LINE
  5
33F
  8
HIDE
 10
218.74465402912011
 20
62.76623879738608
 30
0.0
 11
212.64666402912169
 21
62.76623879738608
 31
0.0
  0
ARC
  5
340
  8
HIDE
 10
212.14666402912169
 20
66.76623879738608
 30
0.0
 40
0.5
 50
269.99998200030041
 51
359.99995999978751
  0
LINE
  5
341
  8
HIDE
 10
212.14666402912169
 20
66.26623879738608
 30
0.0
 11
208.321664029121
 21
66.26623879738608
 31
0.0
  0
ARC
  5
342
  8
HIDE
 10
213.14666402912169
 20
66.76623879738608
 30
0.0
 40
0.5
 50
180.0
 51
269.99998200030041
  0
ARC
  5
343
  8
HIDE
 10
226.64666402912169
 20
61.26623879738608
 30
0.0
 40
1.0
 50
269.99998200030041
 51
359.99995999978751
  0
ARC
  5
344
  8
HIDE
 10
213.64666402912169
 20
61.26623879738608
 30
0.0
 40
1.0
 50
180.0
 51
269.99998200030041
  0
ARC
  5
345
  8
HIDE
 10
211.64666402912169
 20
61.26623879738608
 30
0.0
 40
1.0
 50
269.99998200030041
 51
359.99995999978751
  0
ARC
  5
347
  8
HIDE
 10
198.64666402912169
 20
72.766259571445602
 30
0.0
 40
1.0
 50
90.000019999897773
 51
180.0
  0
LINE
  5
348
  8
HIDE
 10
204.10714402912319
 20
69.26623879738608
 30
0.0
 11
198.14666402912161
 21
69.26623879738608
 31
0.0
  0
LINE
  5
349
  8
HIDE
 10
201.97167402912211
 20
66.26623879738608
 30
0.0
 11
198.14666402912161
 21
66.26623879738608
 31
0.0
  0
ARC
  5
34A
  8
HIDE
 10
206.54866402911989
 20
63.26623879738608
 30
0.0
 40
0.5
 50
185.00372199971031
 51
269.99998200030041
  0
ARC
  5
34B
  8
HIDE
 10
198.14666402912161
 20
69.76623879738608
 30
0.0
 40
0.5
 50
180.00003600023291
 51
269.99998200030041
  0
ARC
  5
34C
  8
HIDE
 10
198.14666402912161
 20
65.76623879738608
 30
0.0
 40
0.5
 50
90.000019999897788
 51
180.00003999979549
  0
LINE
  5
34D
  8
HIDE
 10
204.14666402912169
 20
46.76623879738608
 30
0.0
 11
195.64666402912169
 21
46.76623879738608
 31
0.0
  0
ARC
  5
34E
  8
HIDE
 10
198.64666402912169
 20
61.26623879738608
 30
0.0
 40
1.0
 50
180.00003600023291
 51
269.99998200030041
  0
LINE
  5
34F
  8
HIDE
 10
195.64666402912169
 20
47.76623879738608
 30
0.0
 11
195.64666402912169
 21
60.26623879738608
 31
0.0
  0
LINE
  5
350
  8
0
 10
195.64666402912169
 20
47.76623879738608
 30
0.0
 11
183.64665902912
 21
47.76623879738608
 31
0.0
  0
LINE
  5
351
  8
HIDE
 10
210.64666402912169
 20
44.26623879738608
 30
0.0
 11
204.14666402912169
 21
44.26623879738608
 31
0.0
  0
LINE
  5
352
  8
HIDE
 10
210.64666402912169
 20
35.26623879738608
 30
0.0
 11
204.14666402912169
 21
35.26623879738608
 31
0.0
  0
LINE
  5
353
  8
CENTER
  6
CENTER
 10
215.59075402912251
 20
39.76623879738608
 30
0.0
 11
191.41973402912089
 21
39.76623879738608
 31
0.0
  0
LINE
  5
354
  8
0
 10
209.1466440291222
 20
30.76623879738608
 30
0.0
 11
197.14666402912161
 21
30.76623879738608
 31
0.0
  0
LINE
  5
355
  8
0
 10
210.6466340291224
 20
32.266288797384817
 30
0.0
 11
209.14662402912271
 21
30.766288797384821
 31
0.0
  0
LINE
  5
356
  8
HIDE
 10
204.14666402912169
 20
32.76623879738608
 30
0.0
 11
195.64666402912169
 21
32.76623879738608
 31
0.0
  0
LINE
  5
357
  8
0
 10
197.1466340291224
 20
30.766298797384572
 30
0.0
 11
195.6466340291224
 21
32.266298797384572
 31
0.0
  0
LINE
  5
360
  8
HIDE
 10
182.64666402912169
 20
73.766259571445602
 30
0.0
 11
197.6466640291107
 21
73.766259571445602
 31
0.0
  0
LINE
  5
36D
  8
0
 10
182.64665902911989
 20
118.76625534550389
 30
0.0
 11
182.64665902912
 21
48.766238797386087
 31
0.0
  0
LINE
  5
41E
  8
CENTER
  6
CENTER
 10
279.39953363041371
 20
143.76628034550509
 30
0.0
 11
279.39953363041371
 21
23.76628034550512
 31
0.0
  0
LINE
  5
41F
  8
CENTER
  6
CENTER
 10
329.39952363041391
 20
83.766280345505109
 30
0.0
 11
279.39953363041371
 21
83.766280345505109
 31
0.0
  0
ARC
  5
42B
  8
0
 10
279.39953363041371
 20
83.766280345505109
 30
0.0
 40
22.5
 50
270.0
 51
90.0
  0
ARC
  5
42C
  8
0
 10
279.39953363041371
 20
83.766280345505109
 30
0.0
 40
22.5
 50
270.0
 51
90.0
  0
ARC
  5
42D
  8
0
 10
279.39953363041371
 20
83.766280345505109
 30
0.0
 40
34.99996000000101
 50
270.0
 51
90.0
  0
LINE
  5
430
  8
CENTER
 10
296.24459725441483
 20
66.921216721504052
 30
0.0
 11
303.16097448433669
 21
60.00483949158216
 31
0.0
  0
ARC
  5
432
  8
CENTER
 10
279.39953363041371
 20
83.766280345505109
 30
0.0
 40
29.0
 50
270.0
 51
90.0
  0
LINE
  5
438
  8
CENTER
 10
296.24459725441483
 20
100.61134396950619
 30
0.0
 11
303.16097448433669
 21
107.5277211994281
 31
0.0
  0
LINE
  5
454
  8
0
 10
182.64665902912
 20
48.766238797386087
 30
0.0
 11
183.64665902912
 21
47.76623879738608
 31
0.0
  0
LINE
  5
455
  8
0
 10
195.64666402912169
 20
119.76628034550509
 30
0.0
 11
183.64665902912
 21
119.76628034550509
 31
0.0
  0
LINE
  5
456
  8
0
 10
182.64665902912
 20
118.76628034550509
 30
0.0
 11
183.64665902912
 21
119.76628034550509
 31
0.0
  0
LINE
  5
460
  8
CENTER
 10
244.69958755583889
 20
112.76628034550509
 30
0.0
 11
228.69958755583889
 21
112.76628034550509
 31
0.0
  0
LINE
  5
466
  8
HIDE
 10
242.64666402912169
 20
115.26628034550509
 30
0.0
 11
235.42608689252771
 21
115.26628034550509
 31
0.0
  0
LINE
  5
479
  8
HIDE
 10
242.64666402912161
 20
110.7162803455051
 30
0.0
 11
232.64666402912169
 21
110.7162803455051
 31
0.0
  0
LINE
  5
47A
  8
HIDE
 10
242.64666402912161
 20
114.81628034550511
 30
0.0
 11
232.64666402912169
 21
114.81628034550511
 31
0.0
  0
LINE
  5
481
  8
HIDE
 10
234.64666402912161
 20
114.81628034550511
 30
0.0
 11
234.64666402912169
 21
110.7162803455051
 31
0.0
  0
LINE
  5
489
  8
HIDE
 10
234.64666402912169
 20
114.81628034550511
 30
0.0
 11
235.42608689252771
 21
115.26628034550509
 31
0.0
  0
LINE
  5
48C
  8
HIDE
 10
242.64666402912169
 20
110.266280345505
 30
0.0
 11
235.42608689252771
 21
110.26628034550509
 31
0.0
  0
LINE
  5
48D
  8
HIDE
 10
234.64666402912169
 20
110.7162803455051
 30
0.0
 11
235.42608689252771
 21
110.26628034550509
 31
0.0
  0
LINE
  5
491
  8
HIDE
 10
232.64666402912169
 20
114.81628034550511
 30
0.0
 11
232.64666402912169
 21
110.7162803455051
 31
0.0
  0
LINE
  5
498
  8
HIDE
 10
231.4630959772829
 20
112.76628034550509
 30
0.0
 11
232.64666402912169
 21
110.7162803455051
 31
0.0
  0
LINE
  5
499
  8
HIDE
 10
231.4630959772829
 20
112.76628034550509
 30
0.0
 11
232.64666402912169
 21
114.81628034550511
 31
0.0
  0
LINE
  5
49A
  8
HIDE
 10
235.42608689252771
 20
110.26628034550509
 30
0.0
 11
235.42608689252771
 21
115.26628034550509
 31
0.0
  0
LINE
  5
49B
  8
HIDE
 10
234.64666402912161
 20
52.71623879738609
 30
0.0
 11
234.64666402912169
 21
56.816238797386092
 31
0.0
  0
LINE
  5
49C
  8
0
 10
241.6466140291229
 20
48.766278797385063
 30
0.0
 11
242.64662402912271
 21
49.76627879738507
 31
0.0
  0
LINE
  5
49D
  8
CENTER
 10
244.69958755583889
 20
54.766238797386087
 30
0.0
 11
228.69958755583889
 21
54.766238797386087
 31
0.0
  0
LINE
  5
49E
  8
HIDE
 10
242.64666402912161
 20
52.716238797386112
 30
0.0
 11
232.64666402912169
 21
52.71623879738609
 31
0.0
  0
LINE
  5
49F
  8
HIDE
 10
242.64666402912161
 20
56.816238797386099
 30
0.0
 11
232.64666402912169
 21
56.816238797386077
 31
0.0
  0
LINE
  5
4A0
  8
HIDE
 10
242.64666402912169
 20
52.266238797386073
 30
0.0
 11
235.42608689252771
 21
52.26623879738608
 31
0.0
  0
LINE
  5
4A1
  8
HIDE
 10
234.64666402912169
 20
52.71623879738609
 30
0.0
 11
235.42608689252771
 21
52.26623879738608
 31
0.0
  0
LINE
  5
4A2
  8
HIDE
 10
242.64666402912169
 20
57.266238797386123
 30
0.0
 11
235.42608689252771
 21
57.266238797386102
 31
0.0
  0
LINE
  5
4A3
  8
HIDE
 10
234.64666402912169
 20
56.816238797386092
 30
0.0
 11
235.42608689252771
 21
57.266238797386102
 31
0.0
  0
LINE
  5
4A4
  8
HIDE
 10
232.64666402912169
 20
52.71623879738609
 30
0.0
 11
232.64666402912169
 21
56.816238797386077
 31
0.0
  0
LINE
  5
4A5
  8
HIDE
 10
231.4630959772829
 20
54.766238797386087
 30
0.0
 11
232.64666402912169
 21
56.816238797386092
 31
0.0
  0
LINE
  5
4A6
  8
HIDE
 10
231.4630959772829
 20
54.766238797386087
 30
0.0
 11
232.64666402912169
 21
52.71623879738609
 31
0.0
  0
LINE
  5
4A7
  8
HIDE
 10
235.42608689252771
 20
57.266238797386102
 30
0.0
 11
235.42608689252771
 21
52.26623879738608
 31
0.0
  0
LINE
  5
4B6
  8
HIDE
 10
197.64666402912169
 20
73.766259571445602
 30
0.0
 11
197.64666402912169
 21
60.26623879738608
 31
0.0
  0
LINE
  5
4B7
  8
HIDE
 10
197.64666402912169
 20
93.766259571445588
 30
0.0
 11
197.64666402912169
 21
107.26628034550509
 31
0.0
  0
ARC
  5
4C4
  8
HIDE
 10
80.195707286390274
 20
104.2724019998994
 30
0.0
 40
2.5
 50
220.14967582497789
 51
127.21532272894081
  0
CIRCLE
  5
4C5
  8
0
 10
80.195707286390274
 20
104.2724019998994
 30
0.0
 40
2.0499999999999989
  0
ARC
  5
4C9
  8
HIDE
 10
121.2078805951942
 20
104.2723719999148
 30
0.0
 40
2.5
 50
220.14967582497809
 51
127.21532272894081
  0
CIRCLE
  5
4CA
  8
0
 10
121.2078805951942
 20
104.2723719999148
 30
0.0
 40
2.0499999999999989
  0
ARC
  5
4CB
  8
HIDE
 10
80.195707286390245
 20
63.260280076915777
 30
0.0
 40
2.5
 50
220.14967582497789
 51
127.21532272894081
  0
CIRCLE
  5
4CC
  8
0
 10
80.195707286390245
 20
63.260280076915777
 30
0.0
 40
2.0499999999999989
  0
ARC
  5
4CD
  8
HIDE
 10
121.2078805951941
 20
63.260250076931172
 30
0.0
 40
2.5
 50
220.14967582497809
 51
127.21532272894081
  0
CIRCLE
  5
4CE
  8
0
 10
121.2078805951941
 20
63.260250076931172
 30
0.0
 40
2.0499999999999989
  0
ARC
  5
4CF
  8
HIDE
 10
299.90562528482337
 20
104.2723719999148
 30
0.0
 40
2.5
 50
220.14967582497829
 51
127.2153227289412
  0
CIRCLE
  5
4D0
  8
0
 10
299.90562528482337
 20
104.2723719999148
 30
0.0
 40
2.0499999999999989
  0
ARC
  5
4D1
  8
HIDE
 10
299.90562528482337
 20
63.260188691095458
 30
0.0
 40
2.5
 50
220.14967582497829
 51
127.2153227289412
  0
CIRCLE
  5
4D2
  8
0
 10
299.90562528482337
 20
63.260188691095458
 30
0.0
 40
2.0499999999999989
  0
LINE
  5
500
  8
HIDE
 10
185.64665902912
 20
106.26628034550509
 30
0.0
 11
185.64665902912
 21
98.266259571445602
 31
0.0
  0
LINE
  5
501
  8
HIDE
 10
194.64665902912
 20
104.76628034550291
 30
0.0
 11
194.64665902911651
 21
98.266259571445602
 31
0.0
  0
LINE
  5
502
  8
HIDE
 10
182.64665902912
 20
106.26628034550509
 30
0.0
 11
185.64665902912
 21
106.26628034550509
 31
0.0
  0
LINE
  5
503
  8
HIDE
 10
185.64665902912
 20
104.76628034550291
 30
0.0
 11
194.64665902912
 21
104.76628034550291
 31
0.0
  0
LINE
  5
504
  8
HIDE
 10
194.64665902911941
 20
103.76628034550509
 30
0.0
 11
197.64665902912009
 21
103.76628034550509
 31
0.0
  0
LINE
  5
505
  8
HIDE
 10
182.6466590291202
 20
98.266259571445602
 30
0.0
 11
197.64665902910929
 21
98.266259571445602
 31
0.0
  0
ARC
  5
542
  8
0
 10
279.39953363041371
 20
83.766280345505109
 30
0.0
 40
21.0
 50
270.0
 51
90.0
  0
ARC
  5
543
  8
0
 10
279.39953363041371
 20
83.766280345505109
 30
0.0
 40
20.0
 50
270.0
 51
90.0
  0
ARC
  5
546
  8
0
 10
279.39953363041371
 20
83.766280345505109
 30
0.0
 40
8.5
 50
270.0
 51
90.0
  0
LINE
  5
54D
  8
HIDE
 10
185.64665902912
 20
61.26623879738608
 30
0.0
 11
185.64665902912
 21
69.266259571445616
 31
0.0
  0
LINE
  5
54E
  8
HIDE
 10
194.64665902912
 20
62.766238797388297
 30
0.0
 11
194.64665902911651
 21
69.266259571445616
 31
0.0
  0
LINE
  5
54F
  8
HIDE
 10
182.64665902912
 20
61.26623879738608
 30
0.0
 11
185.64665902912
 21
61.26623879738608
 31
0.0
  0
LINE
  5
550
  8
HIDE
 10
185.64665902912
 20
62.766238797388297
 30
0.0
 11
194.64665902912
 21
62.766238797388297
 31
0.0
  0
LINE
  5
551
  8
HIDE
 10
194.64665902911941
 20
63.766238797386052
 30
0.0
 11
197.64665902912009
 21
63.76623879738608
 31
0.0
  0
LINE
  5
552
  8
HIDE
 10
182.64665902911969
 20
69.266259571445616
 30
0.0
 11
197.6466590291088
 21
69.266259571445616
 31
0.0
  0
LINE
  5
553
  8
HIDE
 10
239.64666402912169
 20
106.26628034550509
 30
0.0
 11
239.64666402912169
 21
98.266259571445588
 31
0.0
  0
LINE
  5
554
  8
HIDE
 10
230.64666402912161
 20
104.76628034550291
 30
0.0
 11
230.64666402912519
 21
98.266259571445602
 31
0.0
  0
LINE
  5
555
  8
HIDE
 10
242.64666402912161
 20
106.26628034550509
 30
0.0
 11
239.64666402912169
 21
106.26628034550509
 31
0.0
  0
LINE
  5
556
  8
HIDE
 10
239.64666402912169
 20
104.76628034550291
 30
0.0
 11
230.64666402912161
 21
104.76628034550291
 31
0.0
  0
LINE
  5
557
  8
HIDE
 10
230.64666402912209
 20
103.76628034550509
 30
0.0
 11
227.6466640291215
 21
103.76628034550509
 31
0.0
  0
LINE
  5
558
  8
HIDE
 10
242.64666402912189
 20
98.266259571445588
 30
0.0
 11
227.64666402913281
 21
98.266259571445588
 31
0.0
  0
LINE
  5
559
  8
HIDE
 10
239.64666402912169
 20
61.266238797386059
 30
0.0
 11
239.64666402912169
 21
69.266259571445602
 31
0.0
  0
LINE
  5
55A
  8
HIDE
 10
230.64666402912161
 20
62.766238797388283
 30
0.0
 11
230.64666402912519
 21
69.266259571445602
 31
0.0
  0
LINE
  5
55B
  8
HIDE
 10
242.64666402912161
 20
61.266238797386059
 30
0.0
 11
239.64666402912169
 21
61.266238797386059
 31
0.0
  0
LINE
  5
55C
  8
HIDE
 10
239.64666402912169
 20
62.766238797388283
 30
0.0
 11
230.64666402912161
 21
62.766238797388283
 31
0.0
  0
LINE
  5
55D
  8
HIDE
 10
230.64666402912209
 20
63.766238797386038
 30
0.0
 11
227.6466640291215
 21
63.766238797386059
 31
0.0
  0
LINE
  5
55E
  8
HIDE
 10
242.64666402912141
 20
69.266259571445602
 30
0.0
 11
227.6466640291323
 21
69.266259571445602
 31
0.0
  0
LINE
  5
55F
  8
HIDE
 10
213.64666402912169
 20
60.26623879738608
 30
0.0
 11
227.64666402912169
 21
60.26623879738608
 31
0.0
  0
LINE
  5
560
  8
HIDE
 10
213.64666402912169
 20
107.26628034550509
 30
0.0
 11
227.64666402912169
 21
107.26628034550509
 31
0.0
  0
ARC
  5
574
  8
0
 10
279.39953363041371
 20
83.766280345505109
 30
0.0
 40
14.5
 50
270.0
 51
90.0
  0
CIRCLE
  5
5A6
  8
0
 10
100.7017789407853
 20
112.76628034550509
 30
0.0
 40
5.0
  0
LINE
  5
5A7
  8
0
 10
98.176778940785283
 20
114.3862726294373
 30
0.0
 11
98.176778940785283
 21
111.1462880615728
 31
0.0
  0
LINE
  5
5AD
  8
0
 10
103.22677894078529
 20
114.3862726294373
 30
0.0
 11
103.2267789407852
 21
111.1462880615728
 31
0.0
  0
LINE
  5
5B2
  8
0
 10
98.176778940785283
 20
111.1462880615728
 30
0.0
 11
100.7017789407853
 21
109.76628034550509
 31
0.0
  0
LINE
  5
5B3
  8
0
 10
100.7017789407853
 20
109.76628034550509
 30
0.0
 11
103.2267789407852
 21
111.1462880615728
 31
0.0
  0
LINE
  5
5B4
  8
0
 10
103.22677894078529
 20
114.3862726294373
 30
0.0
 11
100.7017789407853
 21
115.76628034550509
 31
0.0
  0
LINE
  5
5B5
  8
0
 10
98.176778940785283
 20
114.3862726294373
 30
0.0
 11
100.7017789407853
 21
115.76628034550509
 31
0.0
  0
LINE
  5
5B8
  8
0
 10
124.45972894078599
 20
97.642212629440081
 30
0.0
 11
124.45972894078599
 21
94.402228061575613
 31
0.0
  0
LINE
  5
5B9
  8
0
 10
129.509728940786
 20
97.642212629440081
 30
0.0
 11
129.509728940786
 21
94.402228061575585
 31
0.0
  0
LINE
  5
5BA
  8
0
 10
124.45972894078599
 20
94.402228061575613
 30
0.0
 11
126.984728940786
 21
93.022220345507847
 31
0.0
  0
LINE
  5
5BB
  8
0
 10
126.984728940786
 20
93.022220345507847
 30
0.0
 11
129.509728940786
 21
94.402228061575585
 31
0.0
  0
LINE
  5
5BC
  8
0
 10
129.509728940786
 20
97.642212629440081
 30
0.0
 11
126.984728940786
 21
99.022220345507876
 31
0.0
  0
LINE
  5
5BD
  8
0
 10
124.45972894078599
 20
97.642212629440081
 30
0.0
 11
126.984728940786
 21
99.022220345507876
 31
0.0
  0
LINE
  5
5BE
  8
0
 10
124.4597389407857
 20
73.130352629437738
 30
0.0
 11
124.4597389407857
 21
69.89036806157327
 31
0.0
  0
LINE
  5
5BF
  8
0
 10
129.5097389407857
 20
73.130352629437738
 30
0.0
 11
129.5097389407857
 21
69.890368061573241
 31
0.0
  0
LINE
  5
5C0
  8
0
 10
124.4597389407857
 20
69.89036806157327
 30
0.0
 11
126.9847389407857
 21
68.510360345505518
 31
0.0
  0
LINE
  5
5C1
  8
0
 10
126.9847389407857
 20
68.510360345505518
 30
0.0
 11
129.5097389407857
 21
69.890368061573241
 31
0.0
  0
LINE
  5
5C2
  8
0
 10
129.5097389407857
 20
73.130352629437738
 30
0.0
 11
126.9847389407857
 21
74.510360345505504
 31
0.0
  0
LINE
  5
5C3
  8
0
 10
124.4597389407857
 20
73.130352629437738
 30
0.0
 11
126.9847389407857
 21
74.510360345505504
 31
0.0
  0
LINE
  5
5C4
  8
0
 10
98.176818940784273
 20
56.386252629437848
 30
0.0
 11
98.176818940784273
 21
53.14626806157338
 31
0.0
  0
LINE
  5
5C5
  8
0
 10
103.2268189407843
 20
56.386252629437848
 30
0.0
 11
103.2268189407842
 21
53.146268061573352
 31
0.0
  0
LINE
  5
5C6
  8
0
 10
98.176818940784273
 20
53.14626806157338
 30
0.0
 11
100.70181894078419
 21
51.766260345505628
 31
0.0
  0
LINE
  5
5C7
  8
0
 10
100.70181894078419
 20
51.766260345505628
 30
0.0
 11
103.2268189407842
 21
53.146268061573352
 31
0.0
  0
LINE
  5
5C8
  8
0
 10
103.2268189407843
 20
56.386252629437848
 30
0.0
 11
100.70181894078419
 21
57.766260345505628
 31
0.0
  0
LINE
  5
5C9
  8
0
 10
98.176818940784273
 20
56.386252629437848
 30
0.0
 11
100.70181894078431
 21
57.766260345505628
 31
0.0
  0
LINE
  5
5CA
  8
0
 10
71.893888940786695
 20
73.130302629439001
 30
0.0
 11
71.893888940786695
 21
69.890318061574533
 31
0.0
  0
LINE
  5
5CB
  8
0
 10
76.943888940786707
 20
73.130302629439001
 30
0.0
 11
76.943888940786664
 21
69.890318061574504
 31
0.0
  0
LINE
  5
5CC
  8
0
 10
71.893888940786695
 20
69.890318061574533
 30
0.0
 11
74.418888940786701
 21
68.510310345506781
 31
0.0
  0
LINE
  5
5CD
  8
0
 10
74.418888940786701
 20
68.510310345506781
 30
0.0
 11
76.943888940786664
 21
69.890318061574504
 31
0.0
  0
LINE
  5
5CE
  8
0
 10
76.943888940786707
 20
73.130302629439001
 30
0.0
 11
74.418888940786701
 21
74.510310345506781
 31
0.0
  0
LINE
  5
5CF
  8
0
 10
71.893888940786695
 20
73.130302629439001
 30
0.0
 11
74.418888940786715
 21
74.510310345506781
 31
0.0
  0
LINE
  5
5D0
  8
0
 10
71.893858940783815
 20
97.642182629437215
 30
0.0
 11
71.893858940783815
 21
94.402198061572733
 31
0.0
  0
LINE
  5
5D1
  8
0
 10
76.943858940783826
 20
97.642182629437215
 30
0.0
 11
76.943858940783784
 21
94.402198061572705
 31
0.0
  0
LINE
  5
5D2
  8
0
 10
71.893858940783815
 20
94.402198061572733
 30
0.0
 11
74.418858940783821
 21
93.022190345504981
 31
0.0
  0
LINE
  5
5D3
  8
0
 10
74.418858940783821
 20
93.022190345504981
 30
0.0
 11
76.943858940783784
 21
94.402198061572705
 31
0.0
  0
LINE
  5
5D4
  8
0
 10
76.943858940783826
 20
97.642182629437215
 30
0.0
 11
74.418858940783821
 21
99.022190345504981
 31
0.0
  0
LINE
  5
5D5
  8
0
 10
71.893858940783815
 20
97.642182629437215
 30
0.0
 11
74.418858940783835
 21
99.022190345504981
 31
0.0
  0
INSERT
  5
C11
  8
0
  2
*U7
 10
0.0
 20
0.0
 30
0.0
  0
CIRCLE
  5
C74
  8
0
 10
100.70178394078511
 20
83.766280345505109
 30
0.0
 40
19.0
  0
CIRCLE
  5
C75
  8
0
 10
100.70178394078511
 20
83.766280345505109
 30
0.0
 40
10.0
  0
ARC
  5
C76
  8
HIDE
 10
100.70178394078511
 20
83.766280345505109
 30
0.0
 40
10.5
 50
270.0
 51
180.0
  0
ARC
  5
C77
  8
CENTER
 10
100.70178394078511
 20
83.766280345505109
 30
0.0
 40
14.5
 50
348.12445509681999
 51
11.87554490317997
  0
CIRCLE
  5
C78
  8
0
 10
115.20178394078511
 20
83.766280345505109
 30
0.0
 40
2.149999999999999
  0
LINE
  5
C79
  8
CENTER
 10
112.20178394078511
 20
83.766280345505109
 30
0.0
 11
118.20178394078511
 21
83.766280345505109
 31
0.0
  0
ARC
  5
C7A
  8
CENTER
 10
100.70178394078511
 20
83.766280345506942
 30
0.0
 40
14.5
 50
48.124455097075653
 51
71.875544903502856
  0
CIRCLE
  5
C7B
  8
0
 10
107.95178394078511
 20
96.323648700382435
 30
0.0
 40
2.149999999999999
  0
LINE
  5
C7C
  8
CENTER
 10
106.45178394078511
 20
93.725572489028394
 30
0.0
 11
109.45178394078511
 21
98.921724911732866
 31
0.0
  0
ARC
  5
C7D
  8
CENTER
 10
100.70178394078511
 20
83.766280345506942
 30
0.0
 40
14.5
 50
108.1244550964971
 51
131.8755449029243
  0
CIRCLE
  5
C7E
  8
0
 10
93.451783940785162
 20
96.32364870038063
 30
0.0
 40
2.149999999999999
  0
LINE
  5
C7F
  8
CENTER
 10
94.951783940785162
 20
93.725572489028394
 30
0.0
 11
91.951783940785148
 21
98.921724911734685
 31
0.0
  0
ARC
  5
C80
  8
CENTER
 10
100.70178394078511
 20
83.766280345506942
 30
0.0
 40
14.5
 50
168.12445509681999
 51
191.8755449031799
  0
CIRCLE
  5
C81
  8
0
 10
86.201783940785162
 20
83.766280345506942
 30
0.0
 40
2.149999999999999
  0
LINE
  5
C82
  8
CENTER
 10
89.201783940785177
 20
83.766280345506942
 30
0.0
 11
83.201783940785148
 21
83.766280345506942
 31
0.0
  0
ARC
  5
C83
  8
CENTER
 10
100.70178394078511
 20
83.766280345505109
 30
0.0
 40
14.5
 50
228.1244550970757
 51
251.87554490350291
  0
CIRCLE
  5
C84
  8
0
 10
93.451783940785162
 20
71.208911990631435
 30
0.0
 40
2.149999999999999
  0
LINE
  5
C85
  8
CENTER
 10
94.951783940785162
 20
73.806988201983671
 30
0.0
 11
91.951783940785148
 21
68.61083577927738
 31
0.0
  0
ARC
  5
C86
  8
CENTER
 10
100.70178394078511
 20
83.766280345503304
 30
0.0
 40
14.5
 50
288.12445509649712
 51
311.87554490292428
  0
CIRCLE
  5
C87
  8
0
 10
107.95178394078511
 20
71.208911990631435
 30
0.0
 40
2.149999999999999
  0
LINE
  5
C88
  8
CENTER
 10
106.45178394078511
 20
73.806988201981852
 30
0.0
 11
109.45178394078511
 21
68.61083577927738
 31
0.0
  0
LINE
  5
C8B
  8
0
 10
164.64665902911989
 20
102.7662678455045
 30
0.0
 11
164.64665902911989
 21
64.766267845504515
 31
0.0
  0
LINE
  5
C8C
  8
0
 10
177.64665902912
 20
102.7662678455045
 30
0.0
 11
177.64665902912
 21
64.766267845504515
 31
0.0
  0
LINE
  5
C8D
  8
0
 10
182.64665902912
 20
83.766267845504515
 30
0.0
 11
182.64665902912
 21
68.766267845506334
 31
0.0
  0
LINE
  5
C8E
  8
0
 10
180.64665902912
 20
83.766267845504515
 30
0.0
 11
180.64665902912
 21
68.766267845504515
 31
0.0
  0
LINE
  5
C8F
  8
0
 10
164.64665902911989
 20
102.7662678455045
 30
0.0
 11
177.64665902912
 21
102.7662678455045
 31
0.0
  0
LINE
  5
C90
  8
0
 10
164.64665902911989
 20
64.766267845504515
 30
0.0
 11
177.64665902912
 21
64.766267845504515
 31
0.0
  0
LINE
  5
C91
  8
0
 10
180.64665902912
 20
68.766267845504515
 30
0.0
 11
182.64665902912
 21
68.766267845504515
 31
0.0
  0
LINE
  5
C93
  8
HIDE
 10
164.64665902911989
 20
73.766267845504515
 30
0.0
 11
182.64665902912
 21
73.766267845504515
 31
0.0
  0
LINE
  5
C94
  8
HIDE
 10
164.64665902911989
 20
93.766267845504515
 30
0.0
 11
182.64665902912
 21
93.766267845504515
 31
0.0
  0
LINE
  5
C95
  8
0
 10
180.64665902912
 20
68.766267845504515
 30
0.0
 11
177.64665902912
 21
64.766267845504515
 31
0.0
  0
LINE
  5
C96
  8
0
 10
182.64665902912
 20
83.766267845504515
 30
0.0
 11
182.64665902912
 21
98.766267845502696
 31
0.0
  0
LINE
  5
C97
  8
0
 10
180.64665902912
 20
83.766267845504515
 30
0.0
 11
180.64665902912
 21
98.766267845504515
 31
0.0
  0
LINE
  5
C98
  8
0
 10
180.64665902912
 20
98.766267845504515
 30
0.0
 11
182.64665902912
 21
98.766267845504515
 31
0.0
  0
LINE
  5
C99
  8
0
 10
180.64665902912
 20
98.766267845504515
 30
0.0
 11
177.64665902912
 21
102.7662678455045
 31
0.0
  0
LINE
  5
C9A
  8
CENTER
 10
172.64665902912
 20
70.930310446364345
 30
0.0
 11
172.64665902912
 21
63.552099644925939
 31
0.0
  0
LINE
  5
C9B
  8
HIDE
 10
170.64665902911989
 20
69.603741501107905
 30
0.0
 11
170.64665902911989
 21
65.102685444718261
 31
0.0
  0
LINE
  5
C9C
  8
HIDE
 10
174.64665902911989
 20
69.603741501107905
 30
0.0
 11
174.64665902911989
 21
65.102685444718261
 31
0.0
  0
LINE
  5
C9D
  8
HIDE
 10
174.64665902911989
 20
69.603741501107905
 30
0.0
 11
170.64665902911989
 21
69.603741501107905
 31
0.0
  0
LINE
  5
C9E
  8
HIDE
 10
170.64665902911989
 20
69.603741501107905
 30
0.0
 11
172.64665902912
 21
70.508416143518005
 31
0.0
  0
LINE
  5
C9F
  8
HIDE
 10
174.64665902911989
 20
69.603741501107905
 30
0.0
 11
172.64665902912
 21
70.508416143518005
 31
0.0
  0
LINE
  5
CA0
  8
HIDE
 10
170.3686438441689
 20
64.766267845504515
 30
0.0
 11
170.64665902911989
 21
65.102685444718261
 31
0.0
  0
LINE
  5
CA1
  8
HIDE
 10
174.92467421407099
 20
64.766267845504515
 30
0.0
 11
174.64665902911989
 21
65.102685444718261
 31
0.0
  0
LINE
  5
CA2
  8
HIDE
 10
170.64665902911989
 20
65.102685444718261
 30
0.0
 11
174.64665902911989
 21
65.102685444718261
 31
0.0
  0
POINT
  5
CA3
  8
HIDE
 10
174.64665902911989
 20
65.102685444718261
 30
0.0
  0
POINT
  5
CA4
  8
HIDE
 10
170.64665902911989
 20
65.102685444718261
 30
0.0
  0
LINE
  5
CA5
  8
HIDE
 10
164.87929739222071
 20
67.116267845506698
 30
0.0
 11
168.50405197373379
 21
67.116267845506698
 31
0.0
  0
LINE
  5
CA6
  8
HIDE
 10
164.87929739222071
 20
71.41626784550779
 30
0.0
 11
168.50405197373379
 21
71.41626784550779
 31
0.0
  0
LINE
  5
CA7
  8
HIDE
 10
168.50266405175691
 20
71.418585650356434
 30
0.0
 11
169.79149092603231
 21
69.266267845506334
 31
0.0
  0
LINE
  5
CA8
  8
HIDE
 10
168.50405197373379
 20
67.116267845506698
 30
0.0
 11
169.79149092603231
 21
69.266267845506334
 31
0.0
  0
LINE
  5
CA9
  8
HIDE
 10
168.50405197373379
 20
67.116267845506698
 30
0.0
 11
168.50405197373379
 21
71.41626784550779
 31
0.0
  0
LINE
  5
CAA
  8
HIDE
 10
164.64665902911989
 20
66.926430735894499
 30
0.0
 11
164.87929739222071
 21
67.116267845506698
 31
0.0
  0
LINE
  5
CAB
  8
HIDE
 10
164.64665902911989
 20
71.60610495511817
 30
0.0
 11
164.87929739222071
 21
71.41626784550779
 31
0.0
  0
LINE
  5
CAC
  8
HIDE
 10
164.87929739222071
 20
67.116267845506698
 30
0.0
 11
164.87929739222071
 21
71.41626784550779
 31
0.0
  0
POINT
  5
CAD
  8
HIDE
 10
164.87929739222071
 20
67.116267845506698
 30
0.0
  0
POINT
  5
CAE
  8
HIDE
 10
164.87929739222071
 20
71.41626784550779
 30
0.0
  0
LINE
  5
CAF
  8
CENTER
 10
161.8743018287966
 20
69.266267845504515
 30
0.0
 11
171.51265597483479
 21
69.266267845504515
 31
0.0
  0
LINE
  5
CB0
  8
HIDE
 10
164.83415902912
 20
98.374521020977298
 30
0.0
 11
172.35386861033811
 21
102.71602737192281
 31
0.0
  0
LINE
  5
CB1
  8
HIDE
 10
171.14184955750139
 20
102.0162678455045
 30
0.0
 11
173.57934955750139
 21
97.794394002055085
 31
0.0
  0
LINE
  5
CB2
  8
HIDE
 10
165.94569713479331
 20
99.016267845504515
 30
0.0
 11
168.38319713479331
 21
94.794394002055085
 31
0.0
  0
LINE
  5
CB3
  8
HIDE
 10
170.75213812580091
 20
101.79126784550959
 30
0.0
 11
175.38537403606071
 21
93.766267845504515
 31
0.0
  0
LINE
  5
CB4
  8
HIDE
  6
CONTINUOUS
 10
166.3354085665012
 20
99.241267845506698
 30
0.0
 11
169.49640129031809
 21
93.766267845504515
 31
0.0
  0
LINE
  5
CB5
  8
HIDE
 10
168.89545666121899
 20
94.657134475634919
 30
0.0
 11
173.4420900310904
 21
97.282134475634919
 31
0.0
  0
LINE
  5
CB6
  8
HIDE
 10
173.4420900310904
 20
97.282134475634919
 30
0.0
 11
173.57934955750139
 21
97.794394002055085
 31
0.0
  0
LINE
  5
CB7
  8
HIDE
 10
168.89545666121899
 20
94.657134475634919
 30
0.0
 11
168.38319713479331
 21
94.794394002055085
 31
0.0
  0
LINE
  5
CB8
  8
HIDE
 10
168.38319713479331
 20
94.794394002055085
 30
0.0
 11
173.57934955750139
 21
97.794394002055085
 31
0.0
  0
ARC
  5
CB9
  8
HIDE
 10
172.54136861033811
 20
102.3912678455045
 30
0.0
 40
0.375
 50
90.0
 51
120.00000000001
  0
ARC
  5
CBA
  8
HIDE
 10
165.02165902912
 20
98.049761494557131
 30
0.0
 40
0.375
 50
120.00000000001
 51
180.0
  0
INSERT
  5
CBB
  8
HIDE
  6
CONTINUOUS
  2
*X9
 10
0.0
 20
0.0
 30
0.0
1001
ACAD
1000
HATCH
1002
{
1070
    19
1000
ANSI37
1040
9.75
1040
0.5235987755982988
1000
R14_HATCH_DATA
1000
CBB
1011
1.0
1021
0.0
1031
0.0
1021
0.0
1031
0.0
1011
0.0
1021
0.0
1031
0.0
1021
1.0
1031
0.0
1011
0.0
1021
0.0
1031
0.0
1021
0.0
1031
1.0
1040
0.0
1010
0.0
1020
0.0
1030
1.0
1000
ANSI37
1070
     0
1070
     0
1071
        2
1071
        1
1071
        4
1070
     1
1040
169.49640129031809
1040
93.766267845504515
1040
172.44088766318211
1040
93.766267845504515
1070
     1
1040
172.44088766318211
1040
93.766267845504515
1040
171.16877334615469
1040
95.969634475634919
1070
     1
1040
171.16877334615469
1040
95.969634475634919
1040
168.9604085665012
1040
94.694634475635283
1070
     1
1040
168.9604085665012
1040
94.694634475635283
1040
169.49640129031809
1040
93.766267845504515
1071
        0
1071
        1
1071
        4
1070
     1
1040
172.44088766318939
1040
93.766267845502696
1040
175.38537403606071
1040
93.766267845502696
1070
     1
1040
175.38537403606071
1040
93.766267845502696
1040
173.37713812580819
1040
97.244634475636374
1070
     1
1040
173.37713812580819
1040
97.244634475636374
1040
171.16877334615469
1040
95.969634475634919
1070
     1
1040
171.16877334615469
1040
95.969634475634919
1040
172.44088766318939
1040
93.766267845502696
1071
        0
1070
     0
1070
     1
1040
0.5235987755982988
1040
9.75
1070
     0
1070
     2
1040
1.3089969389957461
1040
26.94317495914197
1040
-86.229736928828899
1040
-1.1772221007898021
1040
0.3154357112186975
1070
     0
1040
2.8797932657906431
1040
26.94317495914197
1040
-86.229736928828899
1040
-0.3154357112186975
1040
-1.1772221007898021
1070
     0
1071
        4
1040
170.4432893508453
1040
93.654970358157755
1040
0.0
1040
172.97015160764181
1040
94.676804744510335
1040
0.0
1040
172.06770012311949
1040
92.152274442743035
1040
0.0
1040
174.4140725579816
1040
91.971951843746027
1040
0.0
1002
}
  0
LINE
  5
CBC
  8
HIDE
 10
164.64665902911989
 20
94.266267845504515
 30
0.0
 11
182.64665902912
 21
94.266267845504515
 31
0.0
  0
LINE
  5
CBD
  8
CENTER
  6
CENTER
 10
168.0806453127623
 20
101.3184291297412
 30
0.0
 11
174.30041620294989
 21
90.545469936497355
 31
0.0
  0
LINE
  5
CBE
  8
HIDE
 10
164.64665902911989
 20
73.266267845504515
 30
0.0
 11
182.64665902912
 21
73.266267845504515
 31
0.0
  0
ARC
  5
CBF
  8
0
 10
100.70178394078511
 20
102.78706416740989
 30
0.0
 40
4.7392728971135512
 50
187.40975764516199
 51
352.59024235483798
  0
ARC
  5
CC0
  8
0
 10
84.229301951119623
 20
74.255888434542697
 30
0.0
 40
4.7392728971135512
 50
307.40975764524109
 51
112.5902423547121
  0
ARC
  5
CC1
  8
0
 10
117.17426593045801
 20
74.255888434546335
 30
0.0
 40
4.7392728971135512
 50
67.409757645287826
 51
232.5902423547588
  0
ENDSEC
  0
EOF
