  0
SECTION
  2
HEADER
  9
$ACADVER
  1
AC1009
  9
$INSBASE
 10
0.0
 20
0.0
 30
0.0
  9
$EXTMIN
 10
50.701798940784776
 20
-14.446452438600501
 30
0.0
  9
$EXTMAX
 10
346.77813640561061
 20
220.25127302278671
 30
0.0
  9
$LIMMIN
 10
0.0
 20
0.0
  9
$LIMMAX
 10
12.0
 20
9.0
  9
$ORTHOMODE
 70
     1
  9
$REGENMODE
 70
     1
  9
$FILLMODE
 70
     1
  9
$QTEXTMODE
 70
     0
  9
$MIRRTEXT
 70
     0
  9
$DRAGMODE
 70
     2
  9
$LTSCALE
 40
1.0
  9
$OSMODE
 70
  2239
  9
$ATTMODE
 70
     1
  9
$TEXTSIZE
 40
0.2
  9
$TRACEWID
 40
0.05
  9
$TEXTSTYLE
  7
STANDARD
  9
$CLAYER
  8
0
  9
$CELTYPE
  6
BYLAYER
  9
$CECOLOR
 62
   256
  9
$DIMSCALE
 40
1.0
  9
$DIMASZ
 40
0.18
  9
$DIMEXO
 40
0.0625
  9
$DIMDLI
 40
0.38
  9
$DIMRND
 40
0.0
  9
$DIMDLE
 40
0.0
  9
$DIMEXE
 40
0.18
  9
$DIMTP
 40
0.0
  9
$DIMTM
 40
0.0
  9
$DIMTXT
 40
0.18
  9
$DIMCEN
 40
0.09
  9
$DIMTSZ
 40
0.0
  9
$DIMTOL
 70
     0
  9
$DIMLIM
 70
     0
  9
$DIMTIH
 70
     1
  9
$DIMTOH
 70
     1
  9
$DIMSE1
 70
     0
  9
$DIMSE2
 70
     0
  9
$DIMTAD
 70
     0
  9
$DIMZIN
 70
     0
  9
$DIMBLK
  1

  9
$DIMASO
 70
     1
  9
$DIMSHO
 70
     1
  9
$DIMPOST
  1

  9
$DIMAPOST
  1

  9
$DIMALT
 70
     0
  9
$DIMALTD
 70
     2
  9
$DIMALTF
 40
25.399999999999999
  9
$DIMLFAC
 40
1.0
  9
$DIMTOFL
 70
     0
  9
$DIMTVP
 40
0.0
  9
$DIMTIX
 70
     0
  9
$DIMSOXD
 70
     0
  9
$DIMSAH
 70
     0
  9
$DIMBLK1
  1

  9
$DIMBLK2
  1

  9
$DIMSTYLE
  2
STANDARD
  9
$DIMCLRD
 70
     0
  9
$DIMCLRE
 70
     0
  9
$DIMCLRT
 70
     0
  9
$DIMTFAC
 40
1.0
  9
$DIMGAP
 40
0.09
  9
$LUNITS
 70
     2
  9
$LUPREC
 70
     4
  9
$SKETCHINC
 40
0.1
  9
$FILLETRAD
 40
0.0
  9
$AUNITS
 70
     0
  9
$AUPREC
 70
     0
  9
$MENU
  1
.
  9
$ELEVATION
 40
0.0
  9
$PELEVATION
 40
0.0
  9
$THICKNESS
 40
0.0
  9
$LIMCHECK
 70
     0
  9
$BLIPMODE
 70
     0
  9
$CHAMFERA
 40
1.0
  9
$CHAMFERB
 40
1.0
  9
$SKPOLY
 70
     0
  9
$TDCREATE
 40
2455485.671822188
  9
$TDUPDATE
 40
2456645.4889848381
  9
$TDINDWG
 40
0.1443978588
  9
$TDUSRTIMER
 40
0.1443978588
  9
$USRTIMER
 70
     1
  9
$ANGBASE
 50
0.0
  9
$ANGDIR
 70
     0
  9
$PDMODE
 70
     0
  9
$PDSIZE
 40
0.0
  9
$PLINEWID
 40
0.0
  9
$COORDS
 70
     1
  9
$SPLFRAME
 70
     0
  9
$SPLINETYPE
 70
     6
  9
$SPLINESEGS
 70
     8
  9
$ATTDIA
 70
     0
  9
$ATTREQ
 70
     1
  9
$HANDLING
 70
     1
  9
$HANDSEED
  5
E17
  9
$SURFTAB1
 70
     6
  9
$SURFTAB2
 70
     6
  9
$SURFTYPE
 70
     6
  9
$SURFU
 70
     6
  9
$SURFV
 70
     6
  9
$UCSNAME
  2

  9
$UCSORG
 10
0.0
 20
0.0
 30
0.0
  9
$UCSXDIR
 10
1.0
 20
0.0
 30
0.0
  9
$UCSYDIR
 10
0.0
 20
1.0
 30
0.0
  9
$PUCSNAME
  2

  9
$PUCSORG
 10
0.0
 20
0.0
 30
0.0
  9
$PUCSXDIR
 10
1.0
 20
0.0
 30
0.0
  9
$PUCSYDIR
 10
0.0
 20
1.0
 30
0.0
  9
$USERI1
 70
     0
  9
$USERI2
 70
     0
  9
$USERI3
 70
     0
  9
$USERI4
 70
     0
  9
$USERI5
 70
     0
  9
$USERR1
 40
0.0
  9
$USERR2
 40
0.0
  9
$USERR3
 40
0.0
  9
$USERR4
 40
0.0
  9
$USERR5
 40
0.0
  9
$WORLDVIEW
 70
     1
  9
$SHADEDGE
 70
     3
  9
$SHADEDIF
 70
    70
  9
$TILEMODE
 70
     1
  9
$MAXACTVP
 70
    48
  9
$PLIMCHECK
 70
     0
  9
$PEXTMIN
 10
0.0
 20
0.0
 30
0.0
  9
$PEXTMAX
 10
0.0
 20
0.0
 30
0.0
  9
$PLIMMIN
 10
0.0
 20
0.0
  9
$PLIMMAX
 10
12.0
 20
9.0
  9
$UNITMODE
 70
     0
  9
$VISRETAIN
 70
     1
  9
$PLINEGEN
 70
     0
  9
$PSLTSCALE
 70
     1
  0
ENDSEC
  0
SECTION
  2
TABLES
  0
TABLE
  2
VPORT
 70
     1
  0
VPORT
  2
*ACTIVE
 70
     0
 10
0.0
 20
0.0
 11
1.0
 21
1.0
 12
198.738961029558
 22
67.753424877496883
 13
0.0
 23
0.0
 14
0.5
 24
0.5
 15
0.5
 25
0.5
 16
0.0
 26
0.0
 36
1.0
 17
0.0
 27
0.0
 37
0.0
 40
160.39130977244849
 41
2.1408934707903771
 42
50.0
 43
0.0
 44
0.0
 50
0.0
 51
0.0
 71
     0
 72
  1000
 73
     1
 74
     3
 75
     0
 76
     0
 77
     0
 78
     0
  0
ENDTAB
  0
TABLE
  2
LTYPE
 70
     4
  0
LTYPE
  2
CONTINUOUS
 70
     0
  3
Solid line
 72
    65
 73
     0
 40
0.0
  0
LTYPE
  2
CENTER
 70
     0
  3
____ _ ____ _ ____ _ ____ _ ____ _ ____ _ ____ 
 72
    65
 73
     4
 40
2.0
 49
1.25
 49
-0.25
 49
0.25
 49
-0.25
  0
LTYPE
  2
PHANTOM2
 70
     0
  3
Phantom (.5x) ___ _ _ ___ _ _ ___ _ _ ___ _ _
 72
    65
 73
     6
 40
1.25
 49
0.625
 49
-0.125
 49
0.125
 49
-0.125
 49
0.125
 49
-0.125
  0
ENDTAB
  0
TABLE
  2
LAYER
 70
     3
  0
LAYER
  2
0
 70
     0
 62
     7
  6
CONTINUOUS
  0
LAYER
  2
CENTER
 70
     0
 62
     3
  6
CENTER
  0
LAYER
  2
HIDE
 70
     0
 62
     1
  6
CONTINUOUS
  0
ENDTAB
  0
TABLE
  2
STYLE
 70
     7
  0
STYLE
  2
STANDARD
 70
     0
 40
0.0
 41
1.0
 50
0.0
 71
     0
 42
0.2
  3
txt
  4
whgtxt.shx
  0
STYLE
  2
DUKI7
 70
     0
 40
20.0
 41
1.0
 50
0.0
 71
     0
 42
20.0
  3
txt
  4

  0
ENDTAB
  0
TABLE
  2
VIEW
 70
     0
  0
ENDTAB
  0
TABLE
  2
UCS
 70
     0
  0
ENDTAB
  0
TABLE
  2
APPID
 70
    13
  0
APPID
  2
ACAD
 70
     0
  0
APPID
  2
ACADANNOPO
 70
     0
  0
APPID
  2
ACADANNOTATIVE
 70
     0
  0
APPID
  2
ACAD_DSTYLE_DIMJAG
 70
     0
  0
APPID
  2
ACAD_DSTYLE_DIMTALN
 70
     0
  0
APPID
  2
ACAD_MLEADERVER
 70
     0
  0
APPID
  2
ACAD_PSEXT
 70
     0
  0
APPID
  2
ACAECLAYERSTANDARD
 70
     0
  0
APPID
  2
ACAD_DSTYLE_DIMBREAK
 70
     0
  0
APPID
  2
ACAD_DSTYLE_DIMTEXT_FILL
 70
     0
  0
APPID
  2
ACAD_EXEMPT_FROM_CAD_STANDARDS
 70
     0
  0
APPID
  2
ACAD_NAV_VCDISPLAY
 70
     0
  0
APPID
  2
ACDBDYNAMICBLOCKTRUENAME2
 70
     0
  0
ENDTAB
  0
TABLE
  2
DIMSTYLE
 70
     6
  0
DIMSTYLE
  2
STANDARD
 70
     0
  3

  4

  5

  6

  7

 40
1.0
 41
0.18
 42
0.0625
 43
0.38
 44
0.18
 45
0.0
 46
0.0
 47
0.0
 48
0.0
140
0.18
141
0.09
142
0.0
143
25.399999999999999
144
1.0
145
0.0
146
1.0
147
0.09
 71
     0
 72
     0
 73
     1
 74
     1
 75
     0
 76
     0
 77
     0
 78
     0
170
     0
171
     2
172
     0
173
     0
174
     0
175
     0
176
     0
177
     0
178
     0
  0
ENDTAB
  0
ENDSEC
  0
SECTION
  2
BLOCKS
  0
BLOCK
  8
0
  2
$MODEL_SPACE
 70
     0
 10
0.0
 20
0.0
 30
0.0
  3
$MODEL_SPACE
  1

  0
ENDBLK
  5
21
  8
0
  0
BLOCK
 67
     1
  8
0
  2
$PAPER_SPACE
 70
     0
 10
0.0
 20
0.0
 30
0.0
  3
$PAPER_SPACE
  1

  0
ENDBLK
  5
5B
 67
     1
  8
0
  0
BLOCK
  8
0
  2
*U3
 70
     1
 10
0.0
 20
0.0
 30
0.0
  3
*U3
  1

  0
TEXT
  5
DF0
  8
0
 10
1.797011202458229
 20
7.5649177908420446
 30
0.0
 40
20.0
  1
WBK17
  7
DUKI7
  0
ENDBLK
  5
DF2
  8
0
  0
BLOCK
  8
0
  2
*U4
 70
     1
 10
0.0
 20
0.0
 30
0.0
  3
*U4
  1

  0
TEXT
  5
DF4
  8
0
 10
169.75723701225641
 20
-7.5986263516439747
 30
0.0
 40
20.0
  1
WBK20-DFD
  7
DUKI7
  0
ENDBLK
  5
DF6
  8
0
  0
BLOCK
  8
0
  2
*X5
 70
     1
 10
0.0
 20
0.0
 30
0.0
  3
*X5
  1

  0
LINE
  5
DF8
  8
0
 62
     0
 10
92.517912785585153
 20
36.715900985071549
 30
0.0
 11
91.315272696147687
 21
37.038147425821599
 31
0.0
  0
LINE
  5
DF9
  8
0
 62
     0
 10
89.896334395499963
 20
36.15660795271495
 30
0.0
 11
89.822614884138815
 21
36.176361036250597
 31
0.0
  0
LINE
  5
DFA
  8
0
 62
     0
 10
93.379699175158606
 20
35.2232431730624
 30
0.0
 11
89.896334395500133
 21
36.156607952714907
 31
0.0
  0
LINE
  5
DFB
  8
0
 62
     0
 10
90.75812078506965
 20
34.663950140706859
 30
0.0
 11
88.329957072128565
 21
35.314574646679993
 31
0.0
  0
LINE
  5
DFC
  8
0
 62
     0
 10
93.236099967061136
 20
33.999977620031103
 30
0.0
 11
90.758120785074794
 21
34.663950140705481
 31
0.0
  0
LINE
  5
DFD
  8
0
 62
     0
 10
88.527211563895065
 20
33.999977620032944
 30
0.0
 11
88.136542394992844
 21
34.104657108348043
 31
0.0
  0
LINE
  5
DFE
  8
0
 62
     0
 10
93.551221659793555
 20
33.999977620031132
 30
0.0
 11
93.720724344816574
 21
34.632570252556413
 31
0.0
  0
LINE
  5
DFF
  8
0
 62
     0
 10
92.28947881491878
 20
33.999977620031132
 30
0.0
 11
92.858937955244855
 21
36.125228064562521
 31
0.0
  0
LINE
  5
E00
  8
0
 62
     0
 10
91.063786786022916
 20
34.134521096918782
 30
0.0
 11
91.938174334836646
 21
37.397779854597253
 31
0.0
  0
LINE
  5
E01
  8
0
 62
     0
 10
91.027735970044475
 20
33.999977620032951
 30
0.0
 11
91.063786786021055
 21
34.13452109691184
 31
0.0
  0
LINE
  5
E02
  8
0
 62
     0
 10
90.202000396450842
 20
35.627178908923717
 30
0.0
 11
90.445516522828228
 21
36.535993465026479
 31
0.0
  0
LINE
  5
E03
  8
0
 62
     0
 10
89.765993125169672
 20
33.999977620032951
 30
0.0
 11
90.20200039645033
 21
35.627178908921771
 31
0.0
  0
LINE
  5
E04
  8
0
 62
     0
 10
88.504250280294883
 20
33.999977620032951
 30
0.0
 11
88.952858710820038
 21
35.674207075456557
 31
0.0
  0
ENDBLK
  5
E06
  8
0
  0
BLOCK
  8
0
  2
*X6
 70
     1
 10
0.0
 20
0.0
 30
0.0
  3
*X6
  1

  0
LINE
  5
E08
  8
0
 62
     0
 10
184.6357055386342
 20
96.482170436483585
 30
0.0
 11
183.43306544919659
 21
96.804416877233663
 31
0.0
  0
LINE
  5
E09
  8
0
 62
     0
 10
182.01412714854891
 20
95.922877404126993
 30
0.0
 11
181.94040763718769
 21
95.942630487662626
 31
0.0
  0
LINE
  5
E0A
  8
0
 62
     0
 10
185.49749192820761
 20
94.989512624474429
 30
0.0
 11
182.01412714854911
 21
95.92287740412695
 31
0.0
  0
LINE
  5
E0B
  8
0
 62
     0
 10
182.8759135381186
 20
94.430219592118902
 30
0.0
 11
180.44774982517751
 21
95.08084409809203
 31
0.0
  0
LINE
  5
E0C
  8
0
 62
     0
 10
185.35389272011011
 20
93.766247071443146
 30
0.0
 11
182.8759135381238
 21
94.430219592117524
 31
0.0
  0
LINE
  5
E0D
  8
0
 62
     0
 10
180.6450043169441
 20
93.766247071444994
 30
0.0
 11
180.2543351480418
 21
93.870926559760079
 31
0.0
  0
LINE
  5
E0E
  8
0
 62
     0
 10
185.6690144128425
 20
93.766247071443189
 30
0.0
 11
185.8385170978656
 21
94.398839703968477
 31
0.0
  0
LINE
  5
E0F
  8
0
 62
     0
 10
184.40727156796771
 20
93.766247071443189
 30
0.0
 11
184.97673070829379
 21
95.891497515974578
 31
0.0
  0
LINE
  5
E10
  8
0
 62
     0
 10
183.18157953907189
 20
93.900790548330832
 30
0.0
 11
184.05596708788559
 21
97.164049306009304
 31
0.0
  0
LINE
  5
E11
  8
0
 62
     0
 10
183.14552872309349
 20
93.766247071444994
 30
0.0
 11
183.1815795390701
 21
93.900790548323926
 31
0.0
  0
LINE
  5
E12
  8
0
 62
     0
 10
182.31979314949979
 20
95.393448360335753
 30
0.0
 11
182.5633092758772
 21
96.302262916438536
 31
0.0
  0
LINE
  5
E13
  8
0
 62
     0
 10
181.88378587821859
 20
93.766247071444994
 30
0.0
 11
182.3197931494993
 21
95.393448360333821
 31
0.0
  0
LINE
  5
E14
  8
0
 62
     0
 10
180.6220430333438
 20
93.766247071444994
 30
0.0
 11
181.07065146386901
 21
95.440476526868608
 31
0.0
  0
ENDBLK
  5
E16
  8
0
  0
ENDSEC
  0
SECTION
  2
ENTITIES
  0
LINE
  5
26F
  8
HIDE
 10
268.46503461760068
 20
93.766259571445588
 30
0.0
 11
253.46503461761159
 21
93.766259571445588
 31
0.0
  0
LINE
  5
270
  8
0
 10
267.46503461760068
 20
118.76628034550509
 30
0.0
 11
221.46503461760321
 21
118.76628034550509
 31
0.0
  0
LINE
  5
271
  8
0
 10
268.46503461760068
 20
117.76628034550509
 30
0.0
 11
268.46503461760068
 21
49.766238797386087
 31
0.0
  0
LINE
  5
278
  8
HIDE
 10
214.96503461760329
 20
134.76628034550509
 30
0.0
 11
214.96503461760329
 21
120.76628034550509
 31
0.0
  0
LINE
  5
279
  8
0
 10
221.46503461760321
 20
135.26628034550509
 30
0.0
 11
221.46503461760321
 21
118.76628034550509
 31
0.0
  0
LINE
  5
27A
  8
0
 10
206.46503461760329
 20
135.2662603455056
 30
0.0
 11
206.46503461760329
 21
119.76628034550509
 31
0.0
  0
LINE
  5
27B
  8
CENTER
  6
CENTER
 10
221.6374946176048
 20
97.991230345504931
 30
0.0
 11
210.2925646176019
 21
104.5412303455078
 31
0.0
  0
CIRCLE
  5
27C
  8
HIDE
 10
215.96503461760321
 20
101.26628034550509
 30
0.0
 40
3.1749990000000001
  0
LINE
  5
27D
  8
HIDE
 10
223.46503461760321
 20
104.76628034550509
 30
0.0
 11
217.3670346176014
 21
104.76628034550509
 31
0.0
  0
LINE
  5
27E
  8
HIDE
 10
222.46503461760321
 20
93.766259571445588
 30
0.0
 11
209.46503461760321
 21
93.766259571445588
 31
0.0
  0
LINE
  5
27F
  8
HIDE
 10
206.46503461760329
 20
107.26628034550509
 30
0.0
 11
222.46503461760321
 21
107.26628034550509
 31
0.0
  0
LINE
  5
280
  8
HIDE
 10
223.46503461760321
 20
106.26628034550509
 30
0.0
 11
223.46503461760321
 21
94.766259571445616
 31
0.0
  0
LINE
  5
281
  8
HIDE
 10
253.46503461760071
 20
107.26628034550509
 30
0.0
 11
253.46503461761051
 21
93.766259571445616
 31
0.0
  0
LINE
  5
282
  8
HIDE
 10
237.46503461760321
 20
93.766259571445588
 30
0.0
 11
224.46503461760321
 21
93.766259571445588
 31
0.0
  0
LINE
  5
283
  8
CENTER
  6
CENTER
 10
236.63743461760271
 20
104.5412403455076
 30
0.0
 11
225.29251461760319
 21
97.991250345508064
 31
0.0
  0
ARC
  5
284
  8
HIDE
 10
229.5630246176016
 20
104.26628034550509
 30
0.0
 40
0.5
 50
5.0037200000160631
 51
90.000018000116455
  0
CIRCLE
  5
285
  8
HIDE
 10
230.96503461760321
 20
101.26628034550509
 30
0.0
 40
3.1749990000000001
  0
LINE
  5
287
  8
HIDE
 10
237.96503461760321
 20
98.266280345505123
 30
0.0
 11
232.00455461760171
 21
98.266280345505123
 31
0.0
  0
LINE
  5
288
  8
HIDE
 10
237.96503461760321
 20
101.26628034550509
 30
0.0
 11
234.14001461760299
 21
101.26628034550509
 31
0.0
  0
ARC
  5
28B
  8
HIDE
 10
224.46503461760321
 20
94.766259571445616
 30
0.0
 40
1.0
 50
180.0
 51
269.9999800001022
  0
ARC
  5
28C
  8
HIDE
 10
222.46503461760321
 20
94.766259571445616
 30
0.0
 40
1.0
 50
269.9999800001022
 51
359.99995999999589
  0
LINE
  5
28D
  8
HIDE
 10
227.79002461760419
 20
101.26628034550509
 30
0.0
 11
223.96503461760321
 21
101.26628034550509
 31
0.0
  0
LINE
  5
28E
  8
HIDE
 10
229.5630246176016
 20
104.76628034550509
 30
0.0
 11
223.46503461760321
 21
104.76628034550509
 31
0.0
  0
ARC
  5
28F
  8
HIDE
 10
222.96503461760329
 20
100.76628034550509
 30
0.0
 40
0.5
 50
0.0000400000040257
 51
90.000018000116455
  0
LINE
  5
290
  8
HIDE
 10
222.96503461760329
 20
101.26628034550509
 30
0.0
 11
219.14003461760251
 21
101.26628034550509
 31
0.0
  0
ARC
  5
291
  8
HIDE
 10
223.96503461760321
 20
100.76628034550509
 30
0.0
 40
0.5
 50
90.000018000116455
 51
180.0
  0
ARC
  5
293
  8
HIDE
 10
224.46503461760321
 20
106.26628034550509
 30
0.0
 40
1.0
 50
90.000018000116455
 51
180.0
  0
ARC
  5
294
  8
HIDE
 10
222.46503461760321
 20
106.26628034550509
 30
0.0
 40
1.0
 50
0.0000400000040257
 51
90.000018000116455
  0
ARC
  5
296
  8
HIDE
 10
209.46503461760321
 20
94.766259571445616
 30
0.0
 40
1.0
 50
180.0
 51
269.9999800001022
  0
LINE
  5
297
  8
HIDE
 10
214.92551461760479
 20
98.266280345505123
 30
0.0
 11
208.96503461760321
 21
98.266280345505123
 31
0.0
  0
LINE
  5
298
  8
HIDE
 10
212.79004461760371
 20
101.26628034550509
 30
0.0
 11
208.96503461760321
 21
101.26628034550509
 31
0.0
  0
ARC
  5
299
  8
HIDE
 10
217.3670346176014
 20
104.26628034550509
 30
0.0
 40
0.5
 50
90.000018000116455
 51
174.9962780000821
  0
ARC
  5
29A
  8
HIDE
 10
208.96503461760321
 20
97.766280345505123
 30
0.0
 40
0.5
 50
90.000018000116455
 51
179.99996399997551
  0
ARC
  5
29B
  8
HIDE
 10
208.96503461760321
 20
101.76628034550509
 30
0.0
 40
0.5
 50
179.99995999999601
 51
269.9999800001022
  0
LINE
  5
29C
  8
HIDE
 10
214.96503461760329
 20
120.76628034550509
 30
0.0
 11
206.46503461760329
 21
120.76628034550509
 31
0.0
  0
ARC
  5
29D
  8
HIDE
 10
209.46503461760321
 20
106.26628034550509
 30
0.0
 40
1.0
 50
90.000018000116455
 51
179.99996399997551
  0
LINE
  5
29E
  8
HIDE
 10
206.46503461760329
 20
119.76628034550509
 30
0.0
 11
206.46503461760329
 21
107.26628034550509
 31
0.0
  0
LINE
  5
2A0
  8
HIDE
 10
221.46503461760321
 20
123.26628034550509
 30
0.0
 11
214.96503461760329
 21
123.26628034550509
 31
0.0
  0
LINE
  5
2A1
  8
HIDE
 10
221.46503461760321
 20
132.26628034550509
 30
0.0
 11
214.96503461760329
 21
132.26628034550509
 31
0.0
  0
LINE
  5
2A2
  8
CENTER
  6
CENTER
 10
226.40912461760411
 20
127.76628034550509
 30
0.0
 11
202.23810461760249
 21
127.76628034550509
 31
0.0
  0
LINE
  5
2A3
  8
0
 10
219.9650146176038
 20
136.76628034550509
 30
0.0
 11
207.96503461760321
 21
136.76628034550509
 31
0.0
  0
LINE
  5
2A4
  8
0
 10
221.465004617604
 20
135.26623034550639
 30
0.0
 11
219.96499461760419
 21
136.76623034550639
 31
0.0
  0
LINE
  5
2A5
  8
HIDE
 10
214.96503461760329
 20
134.76628034550509
 30
0.0
 11
206.46503461760329
 21
134.76628034550509
 31
0.0
  0
LINE
  5
2A6
  8
0
 10
207.965004617604
 20
136.76622034550661
 30
0.0
 11
206.465004617604
 21
135.26622034550661
 31
0.0
  0
CIRCLE
  5
2AA
  8
0
 10
100.7017789407853
 20
83.766280345505109
 30
0.0
 40
21.0
  0
CIRCLE
  5
2AC
  8
CENTER
  6
CENTER
 10
100.7017789407853
 20
83.766280345505109
 30
0.0
 40
29.0
  0
CIRCLE
  5
2AD
  8
CENTER
  6
CENTER
 10
100.7017789407853
 20
83.766280345505109
 30
0.0
 40
44.0
  0
CIRCLE
  5
2AF
  8
0
 10
100.7017789407853
 20
83.766280345505109
 30
0.0
 40
22.5
  0
LINE
  5
2B0
  8
CENTER
  6
CENTER
 10
100.7017789407853
 20
143.76628034550509
 30
0.0
 11
100.7017789407853
 21
23.76628034550512
 31
0.0
  0
LINE
  5
2B1
  8
0
 10
140.70177894078529
 20
118.5369603455066
 30
0.0
 11
140.70177894078529
 21
48.995600345507313
 31
0.0
  0
LINE
  5
2B2
  8
0
 10
60.701798940784776
 20
118.5369603455066
 30
0.0
 11
60.701798940784776
 21
48.995600345507313
 31
0.0
  0
CIRCLE
  5
2B3
  8
0
 10
100.7017789407853
 20
83.766280345505109
 30
0.0
 40
36.0
  0
LINE
  5
2B4
  8
CENTER
  6
CENTER
 10
150.70176894078551
 20
83.766280345505109
 30
0.0
 11
50.701798940784776
 21
83.766280345505109
 31
0.0
  0
LINE
  5
2B5
  8
CENTER
  6
CENTER
 10
60.750278940786067
 20
43.814830345508277
 30
0.0
 11
83.324068940784628
 21
66.388630345506584
 31
0.0
  0
CIRCLE
  5
2B6
  8
0
 10
69.589128940786168
 20
52.653590345507013
 30
0.0
 40
4.5
  0
CIRCLE
  5
2B7
  8
0
 10
69.589128940786168
 20
52.653590345507013
 30
0.0
 40
7.0
  0
ARC
  5
2B8
  8
0
 10
100.7017789407853
 20
83.766280345505109
 30
0.0
 40
53.0
 50
220.99940000003949
 51
319.00062999999068
  0
LINE
  5
2BA
  8
CENTER
  6
CENTER
 10
118.0795289407849
 20
66.388600345507342
 30
0.0
 11
140.65331894078349
 21
43.814820345504891
 31
0.0
  0
CIRCLE
  5
2BB
  8
0
 10
131.8144889407865
 20
52.653590345507013
 30
0.0
 40
4.5
  0
CIRCLE
  5
2BC
  8
0
 10
131.8144889407865
 20
52.653590345507013
 30
0.0
 40
7.0
  0
LINE
  5
2BD
  8
CENTER
  6
CENTER
 10
134.68837894078541
 20
67.91812034550739
 30
0.0
 11
119.2811489407847
 21
75.102630345506526
 31
0.0
  0
CIRCLE
  5
2C0
  8
0
 10
126.9847389407857
 20
71.510360345505518
 30
0.0
 40
4.3099999999999987
  0
CIRCLE
  5
2C2
  8
0
 10
126.9847389407857
 20
71.510360345505518
 30
0.0
 40
5.5
  0
CIRCLE
  5
2CB
  8
0
 10
100.70181894078419
 20
54.766260345505621
 30
0.0
 40
4.3099999999999987
  0
CIRCLE
  5
2CD
  8
0
 10
100.70181894078419
 20
54.766260345505621
 30
0.0
 40
5.5
  0
CIRCLE
  5
2CE
  8
0
 10
100.7017989407848
 20
39.766300345508263
 30
0.0
 40
4.5
  0
CIRCLE
  5
2CF
  8
0
 10
100.7017989407848
 20
39.766300345508263
 30
0.0
 40
7.0
  0
LINE
  5
2D6
  8
CENTER
  6
CENTER
 10
66.715288940785967
 20
67.91812034550739
 30
0.0
 11
82.122528940786424
 21
75.102630345506526
 31
0.0
  0
CIRCLE
  5
2D9
  8
0
 10
74.418888940786701
 20
71.510310345506781
 30
0.0
 40
4.3099999999999987
  0
CIRCLE
  5
2DB
  8
0
 10
74.418888940786701
 20
71.510310345506781
 30
0.0
 40
5.5
  0
LINE
  5
2E2
  8
CENTER
  6
CENTER
 10
83.324118940783364
 20
101.1439903455058
 30
0.0
 11
60.750328940784811
 21
123.7177803455079
 31
0.0
  0
CIRCLE
  5
2E3
  8
0
 10
69.589128940786168
 20
114.8789703455068
 30
0.0
 40
4.5
  0
CIRCLE
  5
2E4
  8
0
 10
69.589128940786168
 20
114.8789703455068
 30
0.0
 40
7.0
  0
ARC
  5
2E5
  8
0
 10
100.7017789407853
 20
83.766280345505109
 30
0.0
 40
53.0
 50
40.999370000009073
 51
139.00064900004611
  0
LINE
  5
2E6
  8
CENTER
  6
CENTER
 10
140.65328894078419
 20
123.7177803455079
 30
0.0
 11
118.0795089407854
 21
101.1440003455055
 31
0.0
  0
CIRCLE
  5
2E7
  8
0
 10
131.8144889407865
 20
114.8789703455068
 30
0.0
 40
7.0
  0
CIRCLE
  5
2E8
  8
0
 10
131.8144889407865
 20
114.8789703455068
 30
0.0
 40
4.5
  0
LINE
  5
2EB
  8
CENTER
  6
CENTER
 10
119.28115894078449
 20
92.429940345507106
 30
0.0
 11
134.68838894078519
 21
99.614450345506242
 31
0.0
  0
CIRCLE
  5
2EC
  8
0
 10
126.984728940786
 20
96.022220345507861
 30
0.0
 40
4.3099999999999987
  0
CIRCLE
  5
2EE
  8
0
 10
126.984728940786
 20
96.022220345507861
 30
0.0
 40
5.5
  0
CIRCLE
  5
2F5
  8
0
 10
100.7017989407848
 20
127.7662603455056
 30
0.0
 40
7.0
  0
CIRCLE
  5
2FB
  8
0
 10
100.7017789407853
 20
112.76628034550509
 30
0.0
 40
5.5
  0
LINE
  5
302
  8
CENTER
  6
CENTER
 10
82.122498940783544
 20
92.429940345507106
 30
0.0
 11
66.715268940786473
 21
99.614450345506242
 31
0.0
  0
CIRCLE
  5
303
  8
0
 10
74.418858940783821
 20
96.022190345504995
 30
0.0
 40
4.3099999999999987
  0
CIRCLE
  5
305
  8
0
 10
74.418858940783821
 20
96.022190345504995
 30
0.0
 40
5.5
  0
CIRCLE
  5
30C
  8
0
 10
100.7017989407848
 20
127.7662603455056
 30
0.0
 40
4.5
  0
LINE
  5
30E
  8
CENTER
 10
284.0390526959651
 20
83.766259571445588
 30
0.0
 11
164.88619312824741
 21
83.766259571445588
 31
0.0
  0
LINE
  5
315
  8
HIDE
 10
193.46503461760321
 20
93.766259571445588
 30
0.0
 11
208.46503461759229
 21
93.766259571445588
 31
0.0
  0
LINE
  5
320
  8
HIDE
 10
268.46503461760068
 20
73.766259571445602
 30
0.0
 11
253.46503461761159
 21
73.766259571445602
 31
0.0
  0
LINE
  5
321
  8
0
 10
267.46503461760068
 20
48.766238797386087
 30
0.0
 11
221.46503461760321
 21
48.76623879738608
 31
0.0
  0
LINE
  5
329
  8
HIDE
 10
214.96503461760329
 20
32.76623879738608
 30
0.0
 11
214.96503461760329
 21
46.76623879738608
 31
0.0
  0
LINE
  5
32A
  8
0
 10
221.46503461760321
 20
32.26623879738608
 30
0.0
 11
221.46503461760321
 21
48.76623879738608
 31
0.0
  0
LINE
  5
32B
  8
0
 10
206.46503461760329
 20
32.266258797385582
 30
0.0
 11
206.46503461760329
 21
47.76623879738608
 31
0.0
  0
LINE
  5
32C
  8
CENTER
  6
CENTER
 10
221.6374946176048
 20
69.541288797386272
 30
0.0
 11
210.2925646176019
 21
62.991288797383362
 31
0.0
  0
CIRCLE
  5
32D
  8
HIDE
 10
215.96503461760321
 20
66.26623879738608
 30
0.0
 40
3.1749990000000001
  0
LINE
  5
32E
  8
HIDE
 10
223.46503461760321
 20
62.76623879738608
 30
0.0
 11
217.3670346176014
 21
62.76623879738608
 31
0.0
  0
LINE
  5
32F
  8
HIDE
 10
222.46503461760329
 20
73.766259571445602
 30
0.0
 11
209.46503461760329
 21
73.766259571445602
 31
0.0
  0
LINE
  5
330
  8
HIDE
 10
206.46503461760329
 20
60.26623879738608
 30
0.0
 11
222.46503461760321
 21
60.26623879738608
 31
0.0
  0
LINE
  5
331
  8
HIDE
 10
223.46503461760321
 20
61.26623879738608
 30
0.0
 11
223.46503461760321
 21
72.766259571445602
 31
0.0
  0
LINE
  5
332
  8
HIDE
 10
253.46503461760071
 20
60.26623879738608
 30
0.0
 11
253.46503461761051
 21
73.766259571445602
 31
0.0
  0
LINE
  5
333
  8
HIDE
 10
237.46503461760329
 20
73.766259571445602
 30
0.0
 11
224.46503461760329
 21
73.766259571445602
 31
0.0
  0
LINE
  5
334
  8
CENTER
  6
CENTER
 10
236.63743461760271
 20
62.991278797383607
 30
0.0
 11
225.29251461760319
 21
69.54126879738314
 31
0.0
  0
ARC
  5
335
  8
HIDE
 10
229.5630246176016
 20
63.26623879738608
 30
0.0
 40
0.5
 50
269.99998200030041
 51
354.99628000019158
  0
CIRCLE
  5
336
  8
HIDE
 10
230.96503461760321
 20
66.26623879738608
 30
0.0
 40
3.1749990000000001
  0
LINE
  5
338
  8
HIDE
 10
237.96503461760321
 20
69.26623879738608
 30
0.0
 11
232.00455461760171
 21
69.26623879738608
 31
0.0
  0
LINE
  5
339
  8
HIDE
 10
237.96503461760321
 20
66.26623879738608
 30
0.0
 11
234.14001461760299
 21
66.26623879738608
 31
0.0
  0
ARC
  5
33C
  8
HIDE
 10
224.46503461760329
 20
72.766259571445602
 30
0.0
 40
1.0
 50
90.000019999897788
 51
180.0
  0
ARC
  5
33D
  8
HIDE
 10
222.46503461760329
 20
72.766259571445602
 30
0.0
 40
1.0
 50
0.0000399997955849
 51
90.000019999897788
  0
LINE
  5
33E
  8
HIDE
 10
227.79002461760419
 20
66.26623879738608
 30
0.0
 11
223.96503461760321
 21
66.26623879738608
 31
0.0
  0
LINE
  5
33F
  8
HIDE
 10
229.5630246176016
 20
62.76623879738608
 30
0.0
 11
223.46503461760321
 21
62.76623879738608
 31
0.0
  0
ARC
  5
340
  8
HIDE
 10
222.96503461760329
 20
66.76623879738608
 30
0.0
 40
0.5
 50
269.99998200030041
 51
359.99995999978751
  0
LINE
  5
341
  8
HIDE
 10
222.96503461760329
 20
66.26623879738608
 30
0.0
 11
219.14003461760251
 21
66.26623879738608
 31
0.0
  0
ARC
  5
342
  8
HIDE
 10
223.96503461760321
 20
66.76623879738608
 30
0.0
 40
0.5
 50
180.0
 51
269.99998200030041
  0
ARC
  5
344
  8
HIDE
 10
224.46503461760321
 20
61.26623879738608
 30
0.0
 40
1.0
 50
180.0
 51
269.99998200030041
  0
ARC
  5
345
  8
HIDE
 10
222.46503461760321
 20
61.26623879738608
 30
0.0
 40
1.0
 50
269.99998200030041
 51
359.99995999978751
  0
ARC
  5
347
  8
HIDE
 10
209.46503461760329
 20
72.766259571445602
 30
0.0
 40
1.0
 50
90.000019999897788
 51
180.0
  0
LINE
  5
348
  8
HIDE
 10
214.92551461760479
 20
69.26623879738608
 30
0.0
 11
208.96503461760321
 21
69.26623879738608
 31
0.0
  0
LINE
  5
349
  8
HIDE
 10
212.79004461760371
 20
66.26623879738608
 30
0.0
 11
208.96503461760321
 21
66.26623879738608
 31
0.0
  0
ARC
  5
34A
  8
HIDE
 10
217.3670346176014
 20
63.26623879738608
 30
0.0
 40
0.5
 50
185.00372199971031
 51
269.99998200030041
  0
ARC
  5
34B
  8
HIDE
 10
208.96503461760321
 20
69.76623879738608
 30
0.0
 40
0.5
 50
180.00003600023291
 51
269.99998200030041
  0
ARC
  5
34C
  8
HIDE
 10
208.96503461760321
 20
65.76623879738608
 30
0.0
 40
0.5
 50
90.000019999897788
 51
180.00003999979549
  0
LINE
  5
34D
  8
HIDE
 10
214.96503461760329
 20
46.76623879738608
 30
0.0
 11
206.46503461760329
 21
46.76623879738608
 31
0.0
  0
ARC
  5
34E
  8
HIDE
 10
209.46503461760321
 20
61.26623879738608
 30
0.0
 40
1.0
 50
180.00003600023291
 51
269.99998200030041
  0
LINE
  5
34F
  8
HIDE
 10
206.46503461760329
 20
47.76623879738608
 30
0.0
 11
206.46503461760329
 21
60.26623879738608
 31
0.0
  0
LINE
  5
350
  8
0
 10
206.46503461760329
 20
47.76623879738608
 30
0.0
 11
194.4650296176016
 21
47.76623879738608
 31
0.0
  0
LINE
  5
351
  8
HIDE
 10
221.46503461760321
 20
44.26623879738608
 30
0.0
 11
214.96503461760329
 21
44.26623879738608
 31
0.0
  0
LINE
  5
352
  8
HIDE
 10
221.46503461760321
 20
35.26623879738608
 30
0.0
 11
214.96503461760329
 21
35.26623879738608
 31
0.0
  0
LINE
  5
353
  8
CENTER
  6
CENTER
 10
226.40912461760411
 20
39.76623879738608
 30
0.0
 11
202.23810461760249
 21
39.76623879738608
 31
0.0
  0
LINE
  5
354
  8
0
 10
219.9650146176038
 20
30.76623879738608
 30
0.0
 11
207.96503461760321
 21
30.76623879738608
 31
0.0
  0
LINE
  5
355
  8
0
 10
221.465004617604
 20
32.266288797384817
 30
0.0
 11
219.96499461760419
 21
30.766288797384821
 31
0.0
  0
LINE
  5
356
  8
HIDE
 10
214.96503461760329
 20
32.76623879738608
 30
0.0
 11
206.46503461760329
 21
32.76623879738608
 31
0.0
  0
LINE
  5
357
  8
0
 10
207.965004617604
 20
30.766298797384572
 30
0.0
 11
206.465004617604
 21
32.266298797384572
 31
0.0
  0
LINE
  5
360
  8
HIDE
 10
193.46503461760321
 20
73.766259571445602
 30
0.0
 11
208.46503461759229
 21
73.766259571445602
 31
0.0
  0
LINE
  5
36D
  8
0
 10
193.46502961760149
 20
118.76625534550389
 30
0.0
 11
193.4650296176016
 21
48.766238797386087
 31
0.0
  0
LINE
  5
41E
  8
CENTER
  6
CENTER
 10
296.7781464056103
 20
143.76628034550509
 30
0.0
 11
296.7781464056103
 21
23.76628034550512
 31
0.0
  0
LINE
  5
41F
  8
CENTER
  6
CENTER
 10
346.77813640561061
 20
83.766280345505109
 30
0.0
 11
296.77814640561041
 21
83.766280345505109
 31
0.0
  0
ARC
  5
42B
  8
0
 10
296.7781464056103
 20
83.766280345505109
 30
0.0
 40
22.5
 50
270.0
 51
90.0
  0
ARC
  5
42C
  8
0
 10
296.7781464056103
 20
83.766280345505109
 30
0.0
 40
22.5
 50
270.0
 51
90.0
  0
ARC
  5
42D
  8
0
 10
296.7781464056103
 20
83.766280345505109
 30
0.0
 40
34.99996000000101
 50
270.0
 51
90.0
  0
LINE
  5
430
  8
CENTER
 10
313.62321002961141
 20
66.921216721504052
 30
0.0
 11
320.53958725953328
 21
60.00483949158216
 31
0.0
  0
ARC
  5
432
  8
CENTER
 10
296.7781464056103
 20
83.766280345505109
 30
0.0
 40
29.0
 50
270.0
 51
90.0
  0
LINE
  5
438
  8
CENTER
 10
313.62321002961141
 20
100.61134396950619
 30
0.0
 11
320.53958725953328
 21
107.5277211994281
 31
0.0
  0
LINE
  5
454
  8
0
 10
193.4650296176016
 20
48.766238797386087
 30
0.0
 11
194.4650296176016
 21
47.76623879738608
 31
0.0
  0
LINE
  5
455
  8
0
 10
206.46503461760329
 20
119.76628034550509
 30
0.0
 11
194.4650296176016
 21
119.76628034550509
 31
0.0
  0
LINE
  5
456
  8
0
 10
193.4650296176016
 20
118.76628034550509
 30
0.0
 11
194.4650296176016
 21
119.76628034550509
 31
0.0
  0
LINE
  5
460
  8
CENTER
 10
270.5179581443179
 20
112.76628034550509
 30
0.0
 11
254.5179581443179
 21
112.76628034550509
 31
0.0
  0
LINE
  5
466
  8
HIDE
 10
268.46503461760068
 20
115.26628034550509
 30
0.0
 11
261.24445748100669
 21
115.26628034550509
 31
0.0
  0
LINE
  5
479
  8
HIDE
 10
268.46503461760068
 20
110.7162803455051
 30
0.0
 11
258.46503461760068
 21
110.7162803455051
 31
0.0
  0
LINE
  5
47A
  8
HIDE
 10
268.46503461760068
 20
114.81628034550511
 30
0.0
 11
258.46503461760068
 21
114.81628034550511
 31
0.0
  0
LINE
  5
481
  8
HIDE
 10
260.46503461760068
 20
114.81628034550511
 30
0.0
 11
260.46503461760068
 21
110.7162803455051
 31
0.0
  0
LINE
  5
489
  8
HIDE
 10
260.46503461760068
 20
114.81628034550511
 30
0.0
 11
261.24445748100669
 21
115.26628034550509
 31
0.0
  0
LINE
  5
48C
  8
HIDE
 10
268.46503461760068
 20
110.266280345505
 30
0.0
 11
261.24445748100669
 21
110.26628034550509
 31
0.0
  0
LINE
  5
48D
  8
HIDE
 10
260.46503461760068
 20
110.7162803455051
 30
0.0
 11
261.24445748100669
 21
110.26628034550509
 31
0.0
  0
LINE
  5
491
  8
HIDE
 10
258.46503461760068
 20
114.81628034550511
 30
0.0
 11
258.46503461760068
 21
110.7162803455051
 31
0.0
  0
LINE
  5
498
  8
HIDE
 10
257.28146656576189
 20
112.76628034550509
 30
0.0
 11
258.46503461760068
 21
110.7162803455051
 31
0.0
  0
LINE
  5
499
  8
HIDE
 10
257.28146656576189
 20
112.76628034550509
 30
0.0
 11
258.46503461760068
 21
114.81628034550511
 31
0.0
  0
LINE
  5
49A
  8
HIDE
 10
261.24445748100669
 20
110.26628034550509
 30
0.0
 11
261.24445748100669
 21
115.26628034550509
 31
0.0
  0
LINE
  5
49B
  8
HIDE
 10
260.46503461760068
 20
52.71623879738609
 30
0.0
 11
260.46503461760068
 21
56.816238797386092
 31
0.0
  0
LINE
  5
49D
  8
CENTER
 10
270.5179581443179
 20
54.766238797386087
 30
0.0
 11
254.5179581443179
 21
54.766238797386087
 31
0.0
  0
LINE
  5
49E
  8
HIDE
 10
268.46503461760068
 20
52.716238797386112
 30
0.0
 11
258.46503461760068
 21
52.71623879738609
 31
0.0
  0
LINE
  5
49F
  8
HIDE
 10
268.46503461760068
 20
56.816238797386099
 30
0.0
 11
258.46503461760068
 21
56.816238797386077
 31
0.0
  0
LINE
  5
4A0
  8
HIDE
 10
268.46503461760068
 20
52.266238797386073
 30
0.0
 11
261.24445748100669
 21
52.26623879738608
 31
0.0
  0
LINE
  5
4A1
  8
HIDE
 10
260.46503461760068
 20
52.71623879738609
 30
0.0
 11
261.24445748100669
 21
52.26623879738608
 31
0.0
  0
LINE
  5
4A2
  8
HIDE
 10
268.46503461760068
 20
57.266238797386123
 30
0.0
 11
261.24445748100669
 21
57.266238797386102
 31
0.0
  0
LINE
  5
4A3
  8
HIDE
 10
260.46503461760068
 20
56.816238797386092
 30
0.0
 11
261.24445748100669
 21
57.266238797386102
 31
0.0
  0
LINE
  5
4A4
  8
HIDE
 10
258.46503461760068
 20
52.71623879738609
 30
0.0
 11
258.46503461760068
 21
56.816238797386077
 31
0.0
  0
LINE
  5
4A5
  8
HIDE
 10
257.28146656576189
 20
54.766238797386087
 30
0.0
 11
258.46503461760068
 21
56.816238797386092
 31
0.0
  0
LINE
  5
4A6
  8
HIDE
 10
257.28146656576189
 20
54.766238797386087
 30
0.0
 11
258.46503461760068
 21
52.71623879738609
 31
0.0
  0
LINE
  5
4A7
  8
HIDE
 10
261.24445748100669
 20
57.266238797386102
 30
0.0
 11
261.24445748100669
 21
52.26623879738608
 31
0.0
  0
LINE
  5
4B6
  8
HIDE
 10
208.46503461760329
 20
73.766259571445602
 30
0.0
 11
208.46503461760329
 21
60.26623879738608
 31
0.0
  0
LINE
  5
4B7
  8
HIDE
 10
208.46503461760329
 20
93.766259571445588
 30
0.0
 11
208.46503461760329
 21
107.26628034550509
 31
0.0
  0
ARC
  5
4C4
  8
HIDE
 10
80.195707286390274
 20
104.2724019998994
 30
0.0
 40
2.5
 50
220.14967582497789
 51
127.21532272894081
  0
CIRCLE
  5
4C5
  8
0
 10
80.195707286390274
 20
104.2724019998994
 30
0.0
 40
2.0499999999999989
  0
ARC
  5
4C9
  8
HIDE
 10
121.2078805951942
 20
104.2723719999148
 30
0.0
 40
2.5
 50
220.14967582497809
 51
127.21532272894081
  0
CIRCLE
  5
4CA
  8
0
 10
121.2078805951942
 20
104.2723719999148
 30
0.0
 40
2.0499999999999989
  0
ARC
  5
4CB
  8
HIDE
 10
80.195707286390245
 20
63.260280076915777
 30
0.0
 40
2.5
 50
220.14967582497789
 51
127.21532272894081
  0
CIRCLE
  5
4CC
  8
0
 10
80.195707286390245
 20
63.260280076915777
 30
0.0
 40
2.0499999999999989
  0
ARC
  5
4CD
  8
HIDE
 10
121.2078805951941
 20
63.260250076931172
 30
0.0
 40
2.5
 50
220.14967582497809
 51
127.21532272894081
  0
CIRCLE
  5
4CE
  8
0
 10
121.2078805951941
 20
63.260250076931172
 30
0.0
 40
2.0499999999999989
  0
ARC
  5
4CF
  8
HIDE
 10
317.28423806002002
 20
104.2723719999148
 30
0.0
 40
2.5
 50
220.1496758249782
 51
127.2153227289412
  0
CIRCLE
  5
4D0
  8
0
 10
317.28423806002002
 20
104.2723719999148
 30
0.0
 40
2.0499999999999989
  0
ARC
  5
4D1
  8
HIDE
 10
317.28423806002002
 20
63.260188691095458
 30
0.0
 40
2.5
 50
220.1496758249782
 51
127.2153227289412
  0
CIRCLE
  5
4D2
  8
0
 10
317.28423806002002
 20
63.260188691095458
 30
0.0
 40
2.0499999999999989
  0
CIRCLE
  5
4F3
  8
0
 10
100.7017789407853
 20
83.766280345505109
 30
0.0
 40
20.0
  0
LINE
  5
500
  8
HIDE
 10
196.46502961760149
 20
106.26628034550509
 30
0.0
 11
196.46502961760149
 21
98.266259571445602
 31
0.0
  0
LINE
  5
501
  8
HIDE
 10
205.4650296176016
 20
104.76628034550291
 30
0.0
 11
205.46502961759811
 21
98.266259571445602
 31
0.0
  0
LINE
  5
502
  8
HIDE
 10
193.46502961760149
 20
106.26628034550509
 30
0.0
 11
196.46502961760149
 21
106.26628034550509
 31
0.0
  0
LINE
  5
503
  8
HIDE
 10
196.46502961760149
 20
104.76628034550291
 30
0.0
 11
205.4650296176016
 21
104.76628034550291
 31
0.0
  0
LINE
  5
504
  8
HIDE
 10
205.465029617601
 20
103.76628034550509
 30
0.0
 11
208.46502961760169
 21
103.76628034550509
 31
0.0
  0
LINE
  5
505
  8
HIDE
 10
193.4650296176018
 20
98.266259571445602
 30
0.0
 11
208.46502961759089
 21
98.266259571445602
 31
0.0
  0
ARC
  5
542
  8
0
 10
296.77814640561041
 20
83.766280345505109
 30
0.0
 40
21.0
 50
270.0
 51
90.0
  0
ARC
  5
543
  8
0
 10
296.77814640561041
 20
83.766280345505109
 30
0.0
 40
20.0
 50
270.0
 51
90.0
  0
ARC
  5
546
  8
0
 10
296.77814640561041
 20
83.766280345505109
 30
0.0
 40
8.5
 50
270.0
 51
90.0
  0
LINE
  5
54D
  8
HIDE
 10
196.46502961760149
 20
61.26623879738608
 30
0.0
 11
196.46502961760149
 21
69.266259571445616
 31
0.0
  0
LINE
  5
54E
  8
HIDE
 10
205.4650296176016
 20
62.766238797388297
 30
0.0
 11
205.46502961759811
 21
69.266259571445616
 31
0.0
  0
LINE
  5
54F
  8
HIDE
 10
193.46502961760149
 20
61.26623879738608
 30
0.0
 11
196.46502961760149
 21
61.26623879738608
 31
0.0
  0
LINE
  5
550
  8
HIDE
 10
196.46502961760149
 20
62.766238797388297
 30
0.0
 11
205.4650296176016
 21
62.766238797388297
 31
0.0
  0
LINE
  5
551
  8
HIDE
 10
205.465029617601
 20
63.766238797386052
 30
0.0
 11
208.46502961760169
 21
63.76623879738608
 31
0.0
  0
LINE
  5
552
  8
HIDE
 10
193.4650296176012
 20
69.266259571445616
 30
0.0
 11
208.4650296175904
 21
69.266259571445616
 31
0.0
  0
LINE
  5
553
  8
HIDE
 10
265.46503461760068
 20
106.26628034550509
 30
0.0
 11
265.46503461760068
 21
98.266259571445588
 31
0.0
  0
LINE
  5
554
  8
HIDE
 10
256.46503461760062
 20
104.76628034550291
 30
0.0
 11
256.4650346176042
 21
98.266259571445602
 31
0.0
  0
LINE
  5
555
  8
HIDE
 10
268.46503461760068
 20
106.26628034550509
 30
0.0
 11
265.46503461760068
 21
106.26628034550509
 31
0.0
  0
LINE
  5
556
  8
HIDE
 10
265.46503461760068
 20
104.76628034550291
 30
0.0
 11
256.46503461760062
 21
104.76628034550291
 31
0.0
  0
LINE
  5
557
  8
HIDE
 10
256.46503461760108
 20
103.76628034550509
 30
0.0
 11
253.46503461760051
 21
103.76628034550509
 31
0.0
  0
LINE
  5
558
  8
HIDE
 10
268.46503461760091
 20
98.266259571445588
 30
0.0
 11
253.46503461761179
 21
98.266259571445588
 31
0.0
  0
LINE
  5
559
  8
HIDE
 10
265.46503461760068
 20
61.266238797386059
 30
0.0
 11
265.46503461760068
 21
69.266259571445602
 31
0.0
  0
LINE
  5
55A
  8
HIDE
 10
256.46503461760062
 20
62.766238797388283
 30
0.0
 11
256.4650346176042
 21
69.266259571445602
 31
0.0
  0
LINE
  5
55B
  8
HIDE
 10
268.46503461760068
 20
61.266238797386059
 30
0.0
 11
265.46503461760068
 21
61.266238797386059
 31
0.0
  0
LINE
  5
55C
  8
HIDE
 10
265.46503461760068
 20
62.766238797388283
 30
0.0
 11
256.46503461760062
 21
62.766238797388283
 31
0.0
  0
LINE
  5
55D
  8
HIDE
 10
256.46503461760108
 20
63.766238797386038
 30
0.0
 11
253.46503461760051
 21
63.766238797386059
 31
0.0
  0
LINE
  5
55E
  8
HIDE
 10
268.46503461760039
 20
69.266259571445602
 30
0.0
 11
253.46503461761131
 21
69.266259571445602
 31
0.0
  0
LINE
  5
55F
  8
HIDE
 10
224.46503461760321
 20
60.26623879738608
 30
0.0
 11
237.4650346175992
 21
60.26623879738608
 31
0.0
  0
LINE
  5
560
  8
HIDE
 10
224.46503461760321
 20
107.26628034550509
 30
0.0
 11
237.4650346175992
 21
107.26628034550509
 31
0.0
  0
ARC
  5
574
  8
0
 10
296.7781464056103
 20
83.766280345505109
 30
0.0
 40
14.5
 50
270.0
 51
90.0
  0
CIRCLE
  5
5A6
  8
0
 10
100.7017789407853
 20
112.76628034550509
 30
0.0
 40
5.0
  0
LINE
  5
5A7
  8
0
 10
98.176778940785283
 20
114.3862726294373
 30
0.0
 11
98.176778940785283
 21
111.1462880615728
 31
0.0
  0
LINE
  5
5AD
  8
0
 10
103.22677894078529
 20
114.3862726294373
 30
0.0
 11
103.2267789407852
 21
111.1462880615728
 31
0.0
  0
LINE
  5
5B2
  8
0
 10
98.176778940785283
 20
111.1462880615728
 30
0.0
 11
100.7017789407853
 21
109.76628034550509
 31
0.0
  0
LINE
  5
5B3
  8
0
 10
100.7017789407853
 20
109.76628034550509
 30
0.0
 11
103.2267789407852
 21
111.1462880615728
 31
0.0
  0
LINE
  5
5B4
  8
0
 10
103.22677894078529
 20
114.3862726294373
 30
0.0
 11
100.7017789407853
 21
115.76628034550509
 31
0.0
  0
LINE
  5
5B5
  8
0
 10
98.176778940785283
 20
114.3862726294373
 30
0.0
 11
100.7017789407853
 21
115.76628034550509
 31
0.0
  0
LINE
  5
5B8
  8
0
 10
124.45972894078599
 20
97.642212629440081
 30
0.0
 11
124.45972894078599
 21
94.402228061575613
 31
0.0
  0
LINE
  5
5B9
  8
0
 10
129.509728940786
 20
97.642212629440081
 30
0.0
 11
129.509728940786
 21
94.402228061575585
 31
0.0
  0
LINE
  5
5BA
  8
0
 10
124.45972894078599
 20
94.402228061575613
 30
0.0
 11
126.984728940786
 21
93.022220345507847
 31
0.0
  0
LINE
  5
5BB
  8
0
 10
126.984728940786
 20
93.022220345507847
 30
0.0
 11
129.509728940786
 21
94.402228061575585
 31
0.0
  0
LINE
  5
5BC
  8
0
 10
129.509728940786
 20
97.642212629440081
 30
0.0
 11
126.984728940786
 21
99.022220345507876
 31
0.0
  0
LINE
  5
5BD
  8
0
 10
124.45972894078599
 20
97.642212629440081
 30
0.0
 11
126.984728940786
 21
99.022220345507876
 31
0.0
  0
LINE
  5
5BE
  8
0
 10
124.4597389407857
 20
73.130352629437738
 30
0.0
 11
124.4597389407857
 21
69.89036806157327
 31
0.0
  0
LINE
  5
5BF
  8
0
 10
129.5097389407857
 20
73.130352629437738
 30
0.0
 11
129.5097389407857
 21
69.890368061573241
 31
0.0
  0
LINE
  5
5C0
  8
0
 10
124.4597389407857
 20
69.89036806157327
 30
0.0
 11
126.9847389407857
 21
68.510360345505518
 31
0.0
  0
LINE
  5
5C1
  8
0
 10
126.9847389407857
 20
68.510360345505518
 30
0.0
 11
129.5097389407857
 21
69.890368061573241
 31
0.0
  0
LINE
  5
5C2
  8
0
 10
129.5097389407857
 20
73.130352629437738
 30
0.0
 11
126.9847389407857
 21
74.510360345505504
 31
0.0
  0
LINE
  5
5C3
  8
0
 10
124.4597389407857
 20
73.130352629437738
 30
0.0
 11
126.9847389407857
 21
74.510360345505504
 31
0.0
  0
LINE
  5
5C4
  8
0
 10
98.176818940784273
 20
56.386252629437848
 30
0.0
 11
98.176818940784273
 21
53.14626806157338
 31
0.0
  0
LINE
  5
5C5
  8
0
 10
103.2268189407843
 20
56.386252629437848
 30
0.0
 11
103.2268189407842
 21
53.146268061573352
 31
0.0
  0
LINE
  5
5C6
  8
0
 10
98.176818940784273
 20
53.14626806157338
 30
0.0
 11
100.70181894078419
 21
51.766260345505628
 31
0.0
  0
LINE
  5
5C7
  8
0
 10
100.70181894078419
 20
51.766260345505628
 30
0.0
 11
103.2268189407842
 21
53.146268061573352
 31
0.0
  0
LINE
  5
5C8
  8
0
 10
103.2268189407843
 20
56.386252629437848
 30
0.0
 11
100.70181894078419
 21
57.766260345505628
 31
0.0
  0
LINE
  5
5C9
  8
0
 10
98.176818940784273
 20
56.386252629437848
 30
0.0
 11
100.70181894078431
 21
57.766260345505628
 31
0.0
  0
LINE
  5
5CA
  8
0
 10
71.893888940786695
 20
73.130302629439001
 30
0.0
 11
71.893888940786695
 21
69.890318061574533
 31
0.0
  0
LINE
  5
5CB
  8
0
 10
76.943888940786707
 20
73.130302629439001
 30
0.0
 11
76.943888940786664
 21
69.890318061574504
 31
0.0
  0
LINE
  5
5CC
  8
0
 10
71.893888940786695
 20
69.890318061574533
 30
0.0
 11
74.418888940786701
 21
68.510310345506781
 31
0.0
  0
LINE
  5
5CD
  8
0
 10
74.418888940786701
 20
68.510310345506781
 30
0.0
 11
76.943888940786664
 21
69.890318061574504
 31
0.0
  0
LINE
  5
5CE
  8
0
 10
76.943888940786707
 20
73.130302629439001
 30
0.0
 11
74.418888940786701
 21
74.510310345506781
 31
0.0
  0
LINE
  5
5CF
  8
0
 10
71.893888940786695
 20
73.130302629439001
 30
0.0
 11
74.418888940786715
 21
74.510310345506781
 31
0.0
  0
LINE
  5
5D0
  8
0
 10
71.893858940783815
 20
97.642182629437215
 30
0.0
 11
71.893858940783815
 21
94.402198061572733
 31
0.0
  0
LINE
  5
5D1
  8
0
 10
76.943858940783826
 20
97.642182629437215
 30
0.0
 11
76.943858940783784
 21
94.402198061572705
 31
0.0
  0
LINE
  5
5D2
  8
0
 10
71.893858940783815
 20
94.402198061572733
 30
0.0
 11
74.418858940783821
 21
93.022190345504981
 31
0.0
  0
LINE
  5
5D3
  8
0
 10
74.418858940783821
 20
93.022190345504981
 30
0.0
 11
76.943858940783784
 21
94.402198061572705
 31
0.0
  0
LINE
  5
5D4
  8
0
 10
76.943858940783826
 20
97.642182629437215
 30
0.0
 11
74.418858940783821
 21
99.022190345504981
 31
0.0
  0
LINE
  5
5D5
  8
0
 10
71.893858940783815
 20
97.642182629437215
 30
0.0
 11
74.418858940783835
 21
99.022190345504981
 31
0.0
  0
LINE
  5
5E8
  8
HIDE
 10
239.46503461760321
 20
107.26628034550509
 30
0.0
 11
253.46503461760321
 21
107.26628034550509
 31
0.0
  0
LINE
  5
5E9
  8
HIDE
 10
252.46503461760329
 20
93.766259571445588
 30
0.0
 11
239.46503461760321
 21
93.766259571445588
 31
0.0
  0
LINE
  5
5EA
  8
CENTER
  6
CENTER
 10
251.63743461760271
 20
104.5412403455076
 30
0.0
 11
240.2925146176031
 21
97.991250345508064
 31
0.0
  0
CIRCLE
  5
5EC
  8
HIDE
 10
245.96503461760329
 20
101.26628034550509
 30
0.0
 40
3.1749990000000001
  0
ARC
  5
5EF
  8
HIDE
 10
239.46503461760321
 20
94.766259571445616
 30
0.0
 40
1.0
 50
180.0
 51
269.9999800001022
  0
ARC
  5
5F2
  8
HIDE
 10
239.46503461760321
 20
106.26628034550509
 30
0.0
 40
1.0
 50
90.000018000116455
 51
180.0
  0
LINE
  5
5F3
  8
HIDE
 10
239.46503461760321
 20
60.26623879738608
 30
0.0
 11
253.46503461760321
 21
60.26623879738608
 31
0.0
  0
LINE
  5
5F4
  8
HIDE
 10
252.46503461760329
 20
73.766259571445602
 30
0.0
 11
239.46503461760329
 21
73.766259571445602
 31
0.0
  0
LINE
  5
5F5
  8
CENTER
  6
CENTER
 10
251.63743461760271
 20
62.991278797383607
 30
0.0
 11
240.2925146176031
 21
69.54126879738314
 31
0.0
  0
ARC
  5
5F6
  8
HIDE
 10
244.5630246176016
 20
63.26623879738608
 30
0.0
 40
0.5
 50
269.99998200030041
 51
354.99628000019158
  0
CIRCLE
  5
5F7
  8
HIDE
 10
245.96503461760329
 20
66.26623879738608
 30
0.0
 40
3.1749990000000001
  0
LINE
  5
5F8
  8
HIDE
 10
252.96503461760321
 20
69.26623879738608
 30
0.0
 11
247.00455461760171
 21
69.26623879738608
 31
0.0
  0
LINE
  5
5F9
  8
HIDE
 10
252.96503461760321
 20
66.26623879738608
 30
0.0
 11
249.14001461760299
 21
66.26623879738608
 31
0.0
  0
ARC
  5
5FA
  8
HIDE
 10
239.46503461760329
 20
72.766259571445602
 30
0.0
 40
1.0
 50
90.000019999897788
 51
180.0
  0
LINE
  5
5FC
  8
HIDE
 10
244.5630246176016
 20
62.76623879738608
 30
0.0
 11
238.46503461760321
 21
62.76623879738608
 31
0.0
  0
ARC
  5
5FD
  8
HIDE
 10
239.46503461760321
 20
61.26623879738608
 30
0.0
 40
1.0
 50
180.0
 51
269.99998200030041
  0
LINE
  5
5FE
  8
HIDE
 10
238.46503461760321
 20
106.26628034550509
 30
0.0
 11
238.46503461760321
 21
94.766259571445616
 31
0.0
  0
LINE
  5
5FF
  8
HIDE
 10
238.46503461760321
 20
61.26623879738608
 30
0.0
 11
238.46503461760329
 21
72.766259571445602
 31
0.0
  0
ARC
  5
602
  8
HIDE
 10
252.46503461759929
 20
94.766259571445616
 30
0.0
 40
1.0
 50
270.0
 51
0.0000400000040257
  0
ARC
  5
605
  8
HIDE
 10
252.46503461759929
 20
106.26628034550509
 30
0.0
 40
1.0
 50
0.0000400000040257
 51
90.000018000116455
  0
ARC
  5
606
  8
HIDE
 10
237.4650346175992
 20
94.766259571445616
 30
0.0
 40
1.0
 50
270.0
 51
0.0000400000040257
  0
ARC
  5
607
  8
HIDE
 10
237.9650346175992
 20
97.766280345505123
 30
0.0
 40
0.5
 50
0.0000400000040257
 51
90.000018000116455
  0
ARC
  5
608
  8
HIDE
 10
237.9650346175992
 20
101.76628034550509
 30
0.0
 40
0.5
 50
270.0
 51
0.0000400000040257
  0
ARC
  5
609
  8
HIDE
 10
237.4650346175992
 20
106.26628034550509
 30
0.0
 40
1.0
 50
0.0000400000040257
 51
90.000018000116455
  0
ARC
  5
60F
  8
HIDE
 10
237.46503461759929
 20
72.766259571445673
 30
0.0
 40
1.0
 50
359.99995999978751
 51
90.0
  0
ARC
  5
610
  8
HIDE
 10
237.9650346175992
 20
69.766238797386151
 30
0.0
 40
0.5
 50
269.99998200030041
 51
359.99995999978751
  0
ARC
  5
611
  8
HIDE
 10
237.9650346175992
 20
65.766238797386151
 30
0.0
 40
0.5
 50
359.99995999978751
 51
90.0
  0
ARC
  5
612
  8
HIDE
 10
237.4650346175992
 20
61.266238797386151
 30
0.0
 40
1.0
 50
269.99998200030041
 51
359.99995999978751
  0
ARC
  5
613
  8
HIDE
 10
252.46503461759929
 20
72.766259571445602
 30
0.0
 40
1.0
 50
359.99995999978751
 51
90.0
  0
ARC
  5
614
  8
HIDE
 10
252.9650347746803
 20
69.766238797386052
 30
0.0
 40
0.5
 50
269.99998200030041
 51
359.99995999978751
  0
ARC
  5
616
  8
HIDE
 10
252.4650346175992
 20
61.26623879738608
 30
0.0
 40
1.0
 50
269.99998200030041
 51
359.99995999978751
  0
LINE
  5
619
  8
0
 10
267.46503461760068
 20
118.76628034550509
 30
0.0
 11
268.46503461760068
 21
117.76628034550509
 31
0.0
  0
LINE
  5
61A
  8
0
 10
267.46503461760068
 20
48.766238797386087
 30
0.0
 11
268.46503461760068
 21
49.766238797386087
 31
0.0
  0
ARC
  5
87B
  8
HIDE
 10
252.96503461760321
 20
65.766238797386151
 30
0.0
 40
0.5
 50
359.99995999978751
 51
90.0
  0
LINE
  5
87C
  8
HIDE
 10
242.7900246176043
 20
66.266238797386038
 30
0.0
 11
238.96503461760341
 21
66.266238797386038
 31
0.0
  0
ARC
  5
87D
  8
HIDE
 10
238.96503461760341
 20
66.766238797386023
 30
0.0
 40
0.5
 50
180.0
 51
269.99998200030041
  0
ARC
  5
87E
  8
HIDE
 10
244.5630246176016
 20
104.26628034550509
 30
0.0
 40
0.5
 50
5.0037199998080517
 51
90.000017999699566
  0
LINE
  5
87F
  8
HIDE
 10
252.96503461760321
 20
98.266280345505123
 30
0.0
 11
247.00455461760171
 21
98.266280345505123
 31
0.0
  0
LINE
  5
880
  8
HIDE
 10
252.96503461760321
 20
101.26628034550509
 30
0.0
 11
249.14001461760299
 21
101.26628034550509
 31
0.0
  0
LINE
  5
881
  8
HIDE
 10
244.5630246176016
 20
104.76628034550509
 30
0.0
 11
238.46503461760321
 21
104.76628034550509
 31
0.0
  0
ARC
  5
882
  8
HIDE
 10
252.9650347746803
 20
97.766280345505152
 30
0.0
 40
0.5
 50
0.0000400002124665
 51
90.000017999699566
  0
ARC
  5
883
  8
HIDE
 10
252.96503461760321
 20
101.766280345505
 30
0.0
 40
0.5
 50
270.0
 51
0.0000400002124665
  0
LINE
  5
884
  8
HIDE
 10
242.7900246176043
 20
101.26628034550509
 30
0.0
 11
238.96503461760341
 21
101.26628034550509
 31
0.0
  0
ARC
  5
885
  8
HIDE
 10
238.96503461760341
 20
100.76628034550509
 30
0.0
 40
0.5
 50
90.000017999699566
 51
180.0
  0
INSERT
  5
C45
  8
0
  2
*U4
 10
0.0
 20
0.0
 30
0.0
  0
CIRCLE
  5
CA8
  8
0
 10
100.70178394078511
 20
83.766280345505109
 30
0.0
 40
19.0
  0
CIRCLE
  5
CA9
  8
0
 10
100.70178394078511
 20
83.766280345505109
 30
0.0
 40
10.0
  0
ARC
  5
CAA
  8
HIDE
 10
100.70178394078511
 20
83.766280345505109
 30
0.0
 40
10.5
 50
270.0
 51
180.0
  0
ARC
  5
CAB
  8
CENTER
 10
100.70178394078511
 20
83.766280345505109
 30
0.0
 40
14.5
 50
348.12445509681999
 51
11.87554490317998
  0
CIRCLE
  5
CAC
  8
0
 10
115.20178394078511
 20
83.766280345505109
 30
0.0
 40
2.149999999999999
  0
LINE
  5
CAD
  8
CENTER
 10
112.20178394078511
 20
83.766280345505109
 30
0.0
 11
118.20178394078511
 21
83.766280345505109
 31
0.0
  0
ARC
  5
CAE
  8
CENTER
 10
100.70178394078511
 20
83.766280345506942
 30
0.0
 40
14.5
 50
48.124455097075682
 51
71.875544903502998
  0
CIRCLE
  5
CAF
  8
0
 10
107.95178394078511
 20
96.323648700382435
 30
0.0
 40
2.149999999999999
  0
LINE
  5
CB0
  8
CENTER
 10
106.45178394078511
 20
93.725572489028394
 30
0.0
 11
109.45178394078511
 21
98.921724911732866
 31
0.0
  0
ARC
  5
CB1
  8
CENTER
 10
100.70178394078511
 20
83.766280345506942
 30
0.0
 40
14.5
 50
108.124455096497
 51
131.8755449029243
  0
CIRCLE
  5
CB2
  8
0
 10
93.451783940785162
 20
96.32364870038063
 30
0.0
 40
2.149999999999999
  0
LINE
  5
CB3
  8
CENTER
 10
94.951783940785162
 20
93.725572489028394
 30
0.0
 11
91.951783940785148
 21
98.921724911734685
 31
0.0
  0
ARC
  5
CB4
  8
CENTER
 10
100.70178394078511
 20
83.766280345506942
 30
0.0
 40
14.5
 50
168.12445509681999
 51
191.87554490318001
  0
CIRCLE
  5
CB5
  8
0
 10
86.201783940785162
 20
83.766280345506942
 30
0.0
 40
2.149999999999999
  0
LINE
  5
CB6
  8
CENTER
 10
89.201783940785177
 20
83.766280345506942
 30
0.0
 11
83.201783940785148
 21
83.766280345506942
 31
0.0
  0
ARC
  5
CB7
  8
CENTER
 10
100.70178394078511
 20
83.766280345505109
 30
0.0
 40
14.5
 50
228.1244550970757
 51
251.875544903503
  0
CIRCLE
  5
CB8
  8
0
 10
93.451783940785162
 20
71.208911990631435
 30
0.0
 40
2.149999999999999
  0
LINE
  5
CB9
  8
CENTER
 10
94.951783940785162
 20
73.806988201983671
 30
0.0
 11
91.951783940785148
 21
68.61083577927738
 31
0.0
  0
ARC
  5
CBA
  8
CENTER
 10
100.70178394078511
 20
83.766280345503304
 30
0.0
 40
14.5
 50
288.124455096497
 51
311.87554490292428
  0
CIRCLE
  5
CBB
  8
0
 10
107.95178394078511
 20
71.208911990631435
 30
0.0
 40
2.149999999999999
  0
LINE
  5
CBC
  8
CENTER
 10
106.45178394078511
 20
73.806988201981852
 30
0.0
 11
109.45178394078511
 21
68.61083577927738
 31
0.0
  0
LINE
  5
CBF
  8
0
 10
175.46502961760149
 20
102.76624707144499
 30
0.0
 11
175.46502961760149
 21
64.766247071444994
 31
0.0
  0
LINE
  5
CC0
  8
0
 10
188.46502961760149
 20
102.76624707144499
 30
0.0
 11
188.46502961760149
 21
64.766247071444994
 31
0.0
  0
LINE
  5
CC1
  8
0
 10
193.46502961760149
 20
83.766247071444994
 30
0.0
 11
193.46502961760149
 21
68.766247071446813
 31
0.0
  0
LINE
  5
CC2
  8
0
 10
191.46502961760149
 20
83.766247071444994
 30
0.0
 11
191.46502961760149
 21
68.766247071444994
 31
0.0
  0
LINE
  5
CC3
  8
0
 10
175.46502961760149
 20
102.76624707144499
 30
0.0
 11
188.46502961760149
 21
102.76624707144499
 31
0.0
  0
LINE
  5
CC4
  8
0
 10
175.46502961760149
 20
64.766247071444994
 30
0.0
 11
188.46502961760149
 21
64.766247071444994
 31
0.0
  0
LINE
  5
CC5
  8
0
 10
191.46502961760149
 20
68.766247071444994
 30
0.0
 11
193.46502961760149
 21
68.766247071444994
 31
0.0
  0
LINE
  5
CC7
  8
HIDE
 10
175.46502961760149
 20
73.766247071444994
 30
0.0
 11
193.46502961760149
 21
73.766247071444994
 31
0.0
  0
LINE
  5
CC8
  8
HIDE
 10
175.46502961760149
 20
93.766247071444994
 30
0.0
 11
193.46502961760149
 21
93.766247071444994
 31
0.0
  0
LINE
  5
CC9
  8
0
 10
191.46502961760149
 20
68.766247071444994
 30
0.0
 11
188.46502961760149
 21
64.766247071444994
 31
0.0
  0
LINE
  5
CCA
  8
0
 10
193.46502961760149
 20
83.766247071444994
 30
0.0
 11
193.46502961760149
 21
98.766247071443175
 31
0.0
  0
LINE
  5
CCB
  8
0
 10
191.46502961760149
 20
83.766247071444994
 30
0.0
 11
191.46502961760149
 21
98.766247071444994
 31
0.0
  0
LINE
  5
CCC
  8
0
 10
191.46502961760149
 20
98.766247071444994
 30
0.0
 11
193.46502961760149
 21
98.766247071444994
 31
0.0
  0
LINE
  5
CCD
  8
0
 10
191.46502961760149
 20
98.766247071444994
 30
0.0
 11
188.46502961760149
 21
102.76624707144499
 31
0.0
  0
LINE
  5
CCE
  8
CENTER
 10
183.46502961760149
 20
70.930289672304824
 30
0.0
 11
183.46502961760149
 21
63.552078870866417
 31
0.0
  0
LINE
  5
CCF
  8
HIDE
 10
181.46502961760149
 20
69.603720727048383
 30
0.0
 11
181.46502961760149
 21
65.10266467065874
 31
0.0
  0
LINE
  5
CD0
  8
HIDE
 10
185.46502961760149
 20
69.603720727048383
 30
0.0
 11
185.46502961760149
 21
65.10266467065874
 31
0.0
  0
LINE
  5
CD1
  8
HIDE
 10
185.46502961760149
 20
69.603720727048383
 30
0.0
 11
181.46502961760149
 21
69.603720727048383
 31
0.0
  0
LINE
  5
CD2
  8
HIDE
 10
181.46502961760149
 20
69.603720727048383
 30
0.0
 11
183.46502961760149
 21
70.508395369458484
 31
0.0
  0
LINE
  5
CD3
  8
HIDE
 10
185.46502961760149
 20
69.603720727048383
 30
0.0
 11
183.46502961760149
 21
70.508395369458484
 31
0.0
  0
LINE
  5
CD4
  8
HIDE
 10
181.1870144326505
 20
64.766247071444994
 30
0.0
 11
181.46502961760149
 21
65.10266467065874
 31
0.0
  0
LINE
  5
CD5
  8
HIDE
 10
185.74304480255259
 20
64.766247071444994
 30
0.0
 11
185.46502961760149
 21
65.10266467065874
 31
0.0
  0
LINE
  5
CD6
  8
HIDE
 10
181.46502961760149
 20
65.10266467065874
 30
0.0
 11
185.46502961760149
 21
65.10266467065874
 31
0.0
  0
POINT
  5
CD7
  8
HIDE
 10
185.46502961760149
 20
65.10266467065874
 30
0.0
  0
POINT
  5
CD8
  8
HIDE
 10
181.46502961760149
 20
65.10266467065874
 30
0.0
  0
LINE
  5
CD9
  8
HIDE
 10
175.69766798070219
 20
67.116247071447177
 30
0.0
 11
179.32242256221539
 21
67.116247071447177
 31
0.0
  0
LINE
  5
CDA
  8
HIDE
 10
175.69766798070219
 20
71.416247071448268
 30
0.0
 11
179.32242256221539
 21
71.416247071448268
 31
0.0
  0
LINE
  5
CDB
  8
HIDE
 10
179.32103464023851
 20
71.418564876296912
 30
0.0
 11
180.60986151451391
 21
69.266247071446813
 31
0.0
  0
LINE
  5
CDC
  8
HIDE
 10
179.32242256221539
 20
67.116247071447177
 30
0.0
 11
180.60986151451391
 21
69.266247071446813
 31
0.0
  0
LINE
  5
CDD
  8
HIDE
 10
179.32242256221539
 20
67.116247071447177
 30
0.0
 11
179.32242256221539
 21
71.416247071448268
 31
0.0
  0
LINE
  5
CDE
  8
HIDE
 10
175.46502961760149
 20
66.926409961834977
 30
0.0
 11
175.69766798070219
 21
67.116247071447177
 31
0.0
  0
LINE
  5
CDF
  8
HIDE
 10
175.46502961760149
 20
71.606084181058648
 30
0.0
 11
175.69766798070219
 21
71.416247071448268
 31
0.0
  0
LINE
  5
CE0
  8
HIDE
 10
175.69766798070219
 20
67.116247071447177
 30
0.0
 11
175.69766798070219
 21
71.416247071448268
 31
0.0
  0
POINT
  5
CE1
  8
HIDE
 10
175.69766798070219
 20
67.116247071447177
 30
0.0
  0
POINT
  5
CE2
  8
HIDE
 10
175.69766798070219
 20
71.416247071448268
 30
0.0
  0
LINE
  5
CE3
  8
CENTER
 10
172.6926724172782
 20
69.266247071444994
 30
0.0
 11
182.33102656331641
 21
69.266247071444994
 31
0.0
  0
LINE
  5
CE4
  8
HIDE
 10
175.65252961760149
 20
98.374500246917776
 30
0.0
 11
183.17223919881971
 21
102.7160065978633
 31
0.0
  0
LINE
  5
CE5
  8
HIDE
 10
181.96022014598299
 20
102.01624707144499
 30
0.0
 11
184.39772014598299
 21
97.794373227995564
 31
0.0
  0
LINE
  5
CE6
  8
HIDE
 10
176.76406772327491
 20
99.016247071444994
 30
0.0
 11
179.20156772327491
 21
94.794373227995564
 31
0.0
  0
LINE
  5
CE7
  8
HIDE
 10
181.57050871428251
 20
101.7912470714501
 30
0.0
 11
186.20374462454231
 21
93.766247071444994
 31
0.0
  0
LINE
  5
CE8
  8
HIDE
  6
CONTINUOUS
 10
177.1537791549828
 20
99.241247071447177
 30
0.0
 11
180.31477187879969
 21
93.766247071444994
 31
0.0
  0
LINE
  5
CE9
  8
HIDE
 10
179.7138272497005
 20
94.657113701575398
 30
0.0
 11
184.26046061957189
 21
97.282113701575398
 31
0.0
  0
LINE
  5
CEA
  8
HIDE
 10
184.26046061957189
 20
97.282113701575398
 30
0.0
 11
184.39772014598299
 21
97.794373227995564
 31
0.0
  0
LINE
  5
CEB
  8
HIDE
 10
179.7138272497005
 20
94.657113701575398
 30
0.0
 11
179.20156772327491
 21
94.794373227995564
 31
0.0
  0
LINE
  5
CEC
  8
HIDE
 10
179.20156772327491
 20
94.794373227995564
 30
0.0
 11
184.39772014598299
 21
97.794373227995564
 31
0.0
  0
ARC
  5
CED
  8
HIDE
 10
183.35973919881971
 20
102.39124707144499
 30
0.0
 40
0.375
 50
90.0
 51
120.00000000001
  0
ARC
  5
CEE
  8
HIDE
 10
175.84002961760149
 20
98.04974072049761
 30
0.0
 40
0.375
 50
120.00000000001
 51
180.0
  0
INSERT
  5
CEF
  8
HIDE
  6
CONTINUOUS
  2
*X6
 10
0.0
 20
0.0
 30
0.0
1001
ACAD
1000
HATCH
1002
{
1070
    19
1000
ANSI37
1040
9.75
1040
0.5235987755982988
1000
R14_HATCH_DATA
1000
CEF
1011
1.0
1021
0.0
1031
0.0
1021
0.0
1031
0.0
1011
0.0
1021
0.0
1031
0.0
1021
1.0
1031
0.0
1011
0.0
1021
0.0
1031
0.0
1021
0.0
1031
1.0
1040
0.0
1010
0.0
1020
0.0
1030
1.0
1000
ANSI37
1070
     0
1070
     0
1071
        2
1071
        1
1071
        4
1070
     1
1040
180.31477187879969
1040
93.766247071444994
1040
183.25925825166371
1040
93.766247071444994
1070
     1
1040
183.25925825166371
1040
93.766247071444994
1040
181.98714393463621
1040
95.969613701575398
1070
     1
1040
181.98714393463621
1040
95.969613701575398
1040
179.77877915498269
1040
94.694613701575761
1070
     1
1040
179.77877915498269
1040
94.694613701575761
1040
180.31477187879969
1040
93.766247071444994
1071
        0
1071
        1
1071
        4
1070
     1
1040
183.25925825167101
1040
93.766247071443175
1040
186.20374462454231
1040
93.766247071443175
1070
     1
1040
186.20374462454231
1040
93.766247071443175
1040
184.1955087142897
1040
97.244613701576853
1070
     1
1040
184.1955087142897
1040
97.244613701576853
1040
181.98714393463621
1040
95.969613701575398
1070
     1
1040
181.98714393463621
1040
95.969613701575398
1040
183.25925825167101
1040
93.766247071443175
1071
        0
1070
     0
1070
     1
1040
0.5235987755982988
1040
9.75
1070
     0
1070
     2
1040
1.3089969389957461
1040
37.761545547623541
1040
-86.229757702888421
1040
-1.1772221007898021
1040
0.3154357112186975
1070
     0
1040
2.8797932657906431
1040
37.761545547623541
1040
-86.229757702888421
1040
-0.3154357112186975
1040
-1.1772221007898021
1070
     0
1071
        4
1040
181.2616599393269
1040
93.654949584098233
1040
0.0
1040
183.78852219612341
1040
94.676783970450813
1040
0.0
1040
182.88607071160101
1040
92.152253668683514
1040
0.0
1040
185.2324431464632
1040
91.971931069686505
1040
0.0
1002
}
  0
LINE
  5
CF0
  8
HIDE
 10
175.46502961760149
 20
94.266247071444994
 30
0.0
 11
193.46502961760149
 21
94.266247071444994
 31
0.0
  0
LINE
  5
CF1
  8
CENTER
  6
CENTER
 10
178.89901590124381
 20
101.3184083556817
 30
0.0
 11
185.11878679143149
 21
90.545449162437819
 31
0.0
  0
LINE
  5
CF2
  8
HIDE
 10
175.46502961760149
 20
73.266247071444994
 30
0.0
 11
193.46502961760149
 21
73.266247071444994
 31
0.0
  0
ARC
  5
CF3
  8
0
 10
100.70178394078511
 20
102.78706416740989
 30
0.0
 40
4.7392728971135512
 50
187.40975764516199
 51
352.59024235483798
  0
ARC
  5
CF4
  8
0
 10
84.229301951119623
 20
74.255888434542697
 30
0.0
 40
4.7392728971135512
 50
307.4097576452412
 51
112.590242354712
  0
ARC
  5
CF5
  8
0
 10
117.17426593045801
 20
74.255888434546335
 30
0.0
 40
4.7392728971135512
 50
67.409757645287968
 51
232.5902423547588
  0
ENDSEC
  0
EOF
