  0
SECTION
  2
HEADER
  9
$ACADVER
  1
AC1009
  9
$INSBASE
 10
0.0
 20
0.0
 30
0.0
  9
$EXTMIN
 10
40.254012523151147
 20
-22.499218547804851
 30
0.0
  9
$EXTMAX
 10
362.60872863117032
 20
216.99009910674479
 30
0.0
  9
$LIMMIN
 10
0.0
 20
0.0
  9
$LIMMAX
 10
12.0
 20
9.0
  9
$ORTHOMODE
 70
     1
  9
$REGENMODE
 70
     1
  9
$FILLMODE
 70
     1
  9
$QTEXTMODE
 70
     0
  9
$MIRRTEXT
 70
     0
  9
$DRAGMODE
 70
     2
  9
$LTSCALE
 40
1.0
  9
$OSMODE
 70
  2239
  9
$ATTMODE
 70
     1
  9
$TEXTSIZE
 40
0.2
  9
$TRACEWID
 40
0.05
  9
$TEXTSTYLE
  7
STANDARD
  9
$CLAYER
  8
0
  9
$CELTYPE
  6
BYLAYER
  9
$CECOLOR
 62
   256
  9
$DIMSCALE
 40
1.0
  9
$DIMASZ
 40
0.18
  9
$DIMEXO
 40
0.0625
  9
$DIMDLI
 40
0.38
  9
$DIMRND
 40
0.0
  9
$DIMDLE
 40
0.0
  9
$DIMEXE
 40
0.18
  9
$DIMTP
 40
0.0
  9
$DIMTM
 40
0.0
  9
$DIMTXT
 40
0.18
  9
$DIMCEN
 40
0.09
  9
$DIMTSZ
 40
0.0
  9
$DIMTOL
 70
     0
  9
$DIMLIM
 70
     0
  9
$DIMTIH
 70
     1
  9
$DIMTOH
 70
     1
  9
$DIMSE1
 70
     0
  9
$DIMSE2
 70
     0
  9
$DIMTAD
 70
     0
  9
$DIMZIN
 70
     0
  9
$DIMBLK
  1

  9
$DIMASO
 70
     1
  9
$DIMSHO
 70
     1
  9
$DIMPOST
  1

  9
$DIMAPOST
  1

  9
$DIMALT
 70
     0
  9
$DIMALTD
 70
     2
  9
$DIMALTF
 40
25.399999999999999
  9
$DIMLFAC
 40
1.0
  9
$DIMTOFL
 70
     0
  9
$DIMTVP
 40
0.0
  9
$DIMTIX
 70
     0
  9
$DIMSOXD
 70
     0
  9
$DIMSAH
 70
     0
  9
$DIMBLK1
  1

  9
$DIMBLK2
  1

  9
$DIMSTYLE
  2
STANDARD
  9
$DIMCLRD
 70
     0
  9
$DIMCLRE
 70
     0
  9
$DIMCLRT
 70
     0
  9
$DIMTFAC
 40
1.0
  9
$DIMGAP
 40
0.09
  9
$LUNITS
 70
     2
  9
$LUPREC
 70
     4
  9
$SKETCHINC
 40
0.1
  9
$FILLETRAD
 40
0.0
  9
$AUNITS
 70
     0
  9
$AUPREC
 70
     0
  9
$MENU
  1
.
  9
$ELEVATION
 40
0.0
  9
$PELEVATION
 40
0.0
  9
$THICKNESS
 40
0.0
  9
$LIMCHECK
 70
     0
  9
$BLIPMODE
 70
     0
  9
$CHAMFERA
 40
1.0
  9
$CHAMFERB
 40
1.0
  9
$SKPOLY
 70
     0
  9
$TDCREATE
 40
2455485.671822188
  9
$TDUPDATE
 40
2456645.6543015628
  9
$TDINDWG
 40
0.3831639931
  9
$TDUSRTIMER
 40
0.3831639931
  9
$USRTIMER
 70
     1
  9
$ANGBASE
 50
0.0
  9
$ANGDIR
 70
     0
  9
$PDMODE
 70
     0
  9
$PDSIZE
 40
0.0
  9
$PLINEWID
 40
0.0
  9
$COORDS
 70
     1
  9
$SPLFRAME
 70
     0
  9
$SPLINETYPE
 70
     6
  9
$SPLINESEGS
 70
     8
  9
$ATTDIA
 70
     0
  9
$ATTREQ
 70
     1
  9
$HANDLING
 70
     1
  9
$HANDSEED
  5
B62
  9
$SURFTAB1
 70
     6
  9
$SURFTAB2
 70
     6
  9
$SURFTYPE
 70
     6
  9
$SURFU
 70
     6
  9
$SURFV
 70
     6
  9
$UCSNAME
  2

  9
$UCSORG
 10
0.0
 20
0.0
 30
0.0
  9
$UCSXDIR
 10
1.0
 20
0.0
 30
0.0
  9
$UCSYDIR
 10
0.0
 20
1.0
 30
0.0
  9
$PUCSNAME
  2

  9
$PUCSORG
 10
0.0
 20
0.0
 30
0.0
  9
$PUCSXDIR
 10
1.0
 20
0.0
 30
0.0
  9
$PUCSYDIR
 10
0.0
 20
1.0
 30
0.0
  9
$USERI1
 70
     0
  9
$USERI2
 70
     0
  9
$USERI3
 70
     0
  9
$USERI4
 70
     0
  9
$USERI5
 70
     0
  9
$USERR1
 40
0.0
  9
$USERR2
 40
0.0
  9
$USERR3
 40
0.0
  9
$USERR4
 40
0.0
  9
$USERR5
 40
0.0
  9
$WORLDVIEW
 70
     1
  9
$SHADEDGE
 70
     3
  9
$SHADEDIF
 70
    70
  9
$TILEMODE
 70
     1
  9
$MAXACTVP
 70
    48
  9
$PLIMCHECK
 70
     0
  9
$PEXTMIN
 10
0.0
 20
0.0
 30
0.0
  9
$PEXTMAX
 10
0.0
 20
0.0
 30
0.0
  9
$PLIMMIN
 10
0.0
 20
0.0
  9
$PLIMMAX
 10
12.0
 20
9.0
  9
$UNITMODE
 70
     0
  9
$VISRETAIN
 70
     1
  9
$PLINEGEN
 70
     0
  9
$PSLTSCALE
 70
     1
  0
ENDSEC
  0
SECTION
  2
TABLES
  0
TABLE
  2
VPORT
 70
     1
  0
VPORT
  2
*ACTIVE
 70
     0
 10
0.0
 20
0.0
 11
1.0
 21
1.0
 12
262.26977736791628
 22
95.109086204775267
 13
0.0
 23
0.0
 14
0.5
 24
0.5
 15
0.5
 25
0.5
 16
0.0
 26
0.0
 36
1.0
 17
0.0
 27
0.0
 37
0.0
 40
328.40164593002601
 41
2.1408934707903771
 42
50.0
 43
0.0
 44
0.0
 50
0.0
 51
0.0
 71
     0
 72
  1000
 73
     1
 74
     3
 75
     0
 76
     0
 77
     0
 78
     0
  0
ENDTAB
  0
TABLE
  2
LTYPE
 70
     4
  0
LTYPE
  2
CONTINUOUS
 70
     0
  3
Solid line
 72
    65
 73
     0
 40
0.0
  0
LTYPE
  2
CENTER
 70
     0
  3
____ _ ____ _ ____ _ ____ _ ____ _ ____ _ ____ 
 72
    65
 73
     4
 40
2.0
 49
1.25
 49
-0.25
 49
0.25
 49
-0.25
  0
LTYPE
  2
PHANTOM2
 70
     0
  3
Phantom (.5x) ___ _ _ ___ _ _ ___ _ _ ___ _ _
 72
    65
 73
     6
 40
1.25
 49
0.625
 49
-0.125
 49
0.125
 49
-0.125
 49
0.125
 49
-0.125
  0
ENDTAB
  0
TABLE
  2
LAYER
 70
     4
  0
LAYER
  2
0
 70
     0
 62
     7
  6
CONTINUOUS
  0
LAYER
  2
CENTER
 70
     0
 62
     3
  6
CENTER
  0
LAYER
  2
HIDE
 70
     0
 62
     1
  6
CONTINUOUS
  0
LAYER
  2
DEFPOINTS
 70
     0
 62
     7
  6
CONTINUOUS
  0
ENDTAB
  0
TABLE
  2
STYLE
 70
     8
  0
STYLE
  2
STANDARD
 70
     0
 40
0.0
 41
1.0
 50
0.0
 71
     0
 42
0.2
  3
txt
  4
whgtxt.shx
  0
STYLE
  2
DUKI2-1
 70
     0
 40
4.0
 41
1.0
 50
0.0
 71
     0
 42
4.0
  3
txt
  4

  0
STYLE
  2
DUKI_1
 70
     0
 40
2.0
 41
1.0
 50
0.0
 71
     0
 42
2.0
  3
txt
  4

  0
STYLE
  2
DUKI_2
 70
     0
 40
3.0
 41
1.0
 50
0.0
 71
     0
 42
3.0
  3
txt
  4

  0
STYLE
  2
DUKI_3
 70
     0
 40
6.0
 41
1.0
 50
0.0
 71
     0
 42
6.0
  3
txt
  4

  0
STYLE
  2
DUKI7
 70
     0
 40
20.0
 41
1.0
 50
0.0
 71
     0
 42
20.0
  3
txt
  4

  0
STYLE
  2
DUKI1-5
 70
     0
 40
2.5
 41
1.0
 50
0.0
 71
     0
 42
2.5
  3
txt
  4

  0
STYLE
  2
BIG
 70
     0
 40
10.0
 41
1.0
 50
0.0
 71
     0
 42
10.0
  3
txt
  4

  0
ENDTAB
  0
TABLE
  2
VIEW
 70
     0
  0
ENDTAB
  0
TABLE
  2
UCS
 70
     0
  0
ENDTAB
  0
TABLE
  2
APPID
 70
    14
  0
APPID
  2
ACAD
 70
     0
  0
APPID
  2
ACADANNOPO
 70
     0
  0
APPID
  2
ACADANNOTATIVE
 70
     0
  0
APPID
  2
ACAD_DSTYLE_DIMJAG
 70
     0
  0
APPID
  2
ACAD_DSTYLE_DIMTALN
 70
     0
  0
APPID
  2
ACAD_MLEADERVER
 70
     0
  0
APPID
  2
ACAD_PSEXT
 70
     0
  0
APPID
  2
ACAECLAYERSTANDARD
 70
     0
  0
APPID
  2
ACAD_DSTYLE_DIMBREAK
 70
     0
  0
APPID
  2
ACAD_DSTYLE_DIMTEXT_FILL
 70
     0
  0
APPID
  2
ACAD_EXEMPT_FROM_CAD_STANDARDS
 70
     0
  0
APPID
  2
ACAD_DSTYLE_DIMRADIAL_EXTENSION
 70
     0
  0
APPID
  2
ACAD_NAV_VCDISPLAY
 70
     0
  0
APPID
  2
ACDBDYNAMICBLOCKTRUENAME2
 70
     0
  0
ENDTAB
  0
TABLE
  2
DIMSTYLE
 70
     6
  0
DIMSTYLE
  2
STANDARD
 70
     0
  3

  4

  5

  6

  7

 40
1.0
 41
0.18
 42
0.0625
 43
0.38
 44
0.18
 45
0.0
 46
0.0
 47
0.0
 48
0.0
140
0.18
141
0.09
142
0.0
143
25.399999999999999
144
1.0
145
0.0
146
1.0
147
0.09
 71
     0
 72
     0
 73
     1
 74
     1
 75
     0
 76
     0
 77
     0
 78
     0
170
     0
171
     2
172
     0
173
     0
174
     0
175
     0
176
     0
177
     0
178
     0
  0
DIMSTYLE
  2
DUKI2-1
 70
     0
  3

  4

  5

  6

  7

 40
1.0
 41
2.5
 42
1.0
 43
1.0
 44
1.0
 45
0.0
 46
0.0
 47
0.0
 48
0.0
140
4.0
141
1.0
142
0.0
143
25.399999999999999
144
1.0
145
0.0
146
0.5
147
1.5
 71
     0
 72
     0
 73
     0
 74
     0
 75
     0
 76
     0
 77
     1
 78
     8
170
     0
171
     2
172
     1
173
     0
174
     0
175
     0
176
     5
177
     5
178
     2
  0
DIMSTYLE
  2
DUKI2
 70
     0
  3

  4

  5

  6

  7

 40
1.0
 41
2.0
 42
0.8
 43
1.0
 44
0.6
 45
0.0
 46
0.0
 47
0.0
 48
0.000000001
140
3.0
141
1.0
142
0.0
143
25.399999999999999
144
1.0
145
0.0
146
0.5
147
1.0
 71
     0
 72
     0
 73
     0
 74
     0
 75
     0
 76
     0
 77
     1
 78
     8
170
     0
171
     2
172
     1
173
     0
174
     0
175
     0
176
     5
177
     5
178
     2
  0
DIMSTYLE
  2
DUKI1
 70
     0
  3

  4

  5

  6

  7

 40
1.0
 41
1.5
 42
0.5
 43
1.0
 44
0.5
 45
0.0
 46
0.0
 47
0.0
 48
0.000000001
140
2.0
141
1.0
142
0.0
143
25.399999999999999
144
1.0
145
0.0
146
0.5
147
0.7
 71
     0
 72
     0
 73
     0
 74
     0
 75
     0
 76
     0
 77
     1
 78
     8
170
     0
171
     2
172
     1
173
     0
174
     0
175
     0
176
     5
177
     5
178
     2
  0
DIMSTYLE
  2
DUKI7
 70
     0
  3

  4

  5

  6

  7

 40
1.0
 41
14.0
 42
9.0
 43
1.0
 44
4.0
 45
0.0
 46
0.0
 47
0.0
 48
0.000000001
140
20.0
141
1.0
142
0.0
143
25.399999999999999
144
1.0
145
0.0
146
0.5
147
7.0
 71
     0
 72
     0
 73
     0
 74
     0
 75
     0
 76
     0
 77
     1
 78
     8
170
     0
171
     2
172
     1
173
     0
174
     0
175
     0
176
     5
177
     5
178
     2
  0
DIMSTYLE
  2
DUKI1-5
 70
     0
  3

  4

  5

  6

  7

 40
1.0
 41
1.8
 42
0.5
 43
1.0
 44
0.5
 45
0.0
 46
0.0
 47
0.0
 48
0.000000001
140
2.5
141
1.0
142
0.0
143
25.399999999999999
144
1.0
145
0.0
146
0.5
147
0.8
 71
     0
 72
     0
 73
     0
 74
     0
 75
     0
 76
     0
 77
     1
 78
     8
170
     0
171
     2
172
     1
173
     0
174
     0
175
     0
176
     5
177
     5
178
     2
  0
ENDTAB
  0
ENDSEC
  0
SECTION
  2
BLOCKS
  0
BLOCK
  8
0
  2
$MODEL_SPACE
 70
     0
 10
0.0
 20
0.0
 30
0.0
  3
$MODEL_SPACE
  1

  0
ENDBLK
  5
21
  8
0
  0
BLOCK
 67
     1
  8
0
  2
$PAPER_SPACE
 70
     0
 10
0.0
 20
0.0
 30
0.0
  3
$PAPER_SPACE
  1

  0
ENDBLK
  5
5B
 67
     1
  8
0
  0
BLOCK
  8
0
  2
*U2
 70
     1
 10
0.0
 20
0.0
 30
0.0
  3
*U2
  1

  0
CIRCLE
  5
8AB
  8
0
 10
0.0
 20
-0.0000000000000142
 30
0.0
 40
2.0
  0
ENDBLK
  5
8A6
  8
0
  0
BLOCK
  8
0
  2
*U3
 70
     1
 10
0.0
 20
0.0
 30
0.0
  3
*U3
  1

  0
INSERT
  5
8BA
  8
0
  6
BYBLOCK
 62
     0
  2
*U2
 10
100.7017789407853
 20
100.01628034550509
 30
0.0
  0
INSERT
  5
8BB
  8
0
  6
BYBLOCK
 62
     0
  2
*U2
 10
86.628866129288156
 20
91.891280345505095
 30
0.0
 50
60.0
  0
INSERT
  5
8BC
  8
0
  6
BYBLOCK
 62
     0
  2
*U2
 10
86.62886612928817
 20
75.641280345505095
 30
0.0
 50
120.0
  0
INSERT
  5
8BD
  8
0
  6
BYBLOCK
 62
     0
  2
*U2
 10
100.7017789407853
 20
67.516280345505095
 30
0.0
 50
180.0
  0
INSERT
  5
8BE
  8
0
  6
BYBLOCK
 62
     0
  2
*U2
 10
114.77469175228239
 20
75.641280345505109
 30
0.0
 50
240.0
  0
INSERT
  5
8BF
  8
0
  6
BYBLOCK
 62
     0
  2
*U2
 10
114.77469175228239
 20
91.891280345505123
 30
0.0
 50
300.0
  0
ENDBLK
  5
8A9
  8
0
  0
BLOCK
  8
0
  2
*U4
 70
     1
 10
0.0
 20
0.0
 30
0.0
  3
*U4
  1

  0
ARC
  5
980
  8
CENTER
 10
-0.000000000007276
 20
-16.25
 30
0.0
 40
16.25
 50
75.860571915215814
 51
104.1394280847842
  0
LINE
  5
981
  8
CENTER
 10
-0.000000000007276
 20
4.0
 30
0.0
 11
-0.000000000007276
 21
-4.0
 31
0.0
  0
LINE
  5
982
  8
CENTER
 10
-0.000000000007276
 20
-4.0
 30
0.0
 11
-0.000000000007276
 21
4.0
 31
0.0
  0
ENDBLK
  5
983
  8
0
  0
BLOCK
  8
0
  2
*U5
 70
     1
 10
0.0
 20
0.0
 30
0.0
  3
*U5
  1

  0
INSERT
  5
987
  8
0
  6
BYBLOCK
 62
     0
  2
*U4
 10
-42145.657432805529
 20
9959.7400511001579
 30
0.0
  0
INSERT
  5
988
  8
0
  6
BYBLOCK
 62
     0
  2
*U4
 10
-42159.730345617019
 20
9951.6150511001633
 30
0.0
 41
1.0
 42
1.0
 43
1.0
 50
59.999999999999957
  0
INSERT
  5
989
  8
0
  6
BYBLOCK
 62
     0
  2
*U4
 10
-42159.730345617027
 20
9935.3650511001633
 30
0.0
 50
119.9999999999999
  0
INSERT
  5
98A
  8
0
  6
BYBLOCK
 62
     0
  2
*U4
 10
-42145.657432805543
 20
9927.2400511001579
 30
0.0
 50
180.0
  0
INSERT
  5
98B
  8
0
  6
BYBLOCK
 62
     0
  2
*U4
 10
-42131.584519994038
 20
9935.3650511001542
 30
0.0
 50
239.99999999999989
  0
INSERT
  5
98C
  8
0
  6
BYBLOCK
 62
     0
  2
*U4
 10
-42131.584519994038
 20
9951.6150511001524
 30
0.0
 41
0.9999999999999998
 42
0.9999999999999998
 43
0.9999999999999998
 50
300.0
  0
ENDBLK
  5
98D
  8
0
  0
BLOCK
  8
0
  2
*U9
 70
     1
 10
0.0
 20
0.0
 30
0.0
  3
*U9
  1

  0
ARC
  5
A43
  8
CENTER
 10
-0.000000000007276
 20
-16.25
 30
0.0
 40
16.25
 50
75.860571915215814
 51
104.1394280847842
  0
LINE
  5
A44
  8
CENTER
 10
-0.000000000007276
 20
4.0
 30
0.0
 11
-0.000000000007276
 21
-4.0
 31
0.0
  0
LINE
  5
A45
  8
CENTER
 10
-0.000000000007276
 20
-4.0
 30
0.0
 11
-0.000000000007276
 21
4.0
 31
0.0
  0
ENDBLK
  5
A46
  8
0
  0
BLOCK
  8
0
  2
*U10
 70
     1
 10
0.0
 20
0.0
 30
0.0
  3
*U10
  1

  0
INSERT
  5
A4A
  8
0
  6
BYBLOCK
 62
     0
  2
*U9
 10
-42145.657432805529
 20
9959.7400511001579
 30
0.0
  0
INSERT
  5
A4B
  8
0
  6
BYBLOCK
 62
     0
  2
*U9
 10
-42159.730345617019
 20
9951.6150511001633
 30
0.0
 41
1.0
 42
1.0
 43
1.0
 50
59.999999999999957
  0
INSERT
  5
A4C
  8
0
  6
BYBLOCK
 62
     0
  2
*U9
 10
-42159.730345617027
 20
9935.3650511001633
 30
0.0
 50
119.9999999999999
  0
INSERT
  5
A4D
  8
0
  6
BYBLOCK
 62
     0
  2
*U9
 10
-42145.657432805543
 20
9927.2400511001579
 30
0.0
 50
180.0
  0
INSERT
  5
A4E
  8
0
  6
BYBLOCK
 62
     0
  2
*U9
 10
-42131.584519994038
 20
9935.3650511001542
 30
0.0
 50
239.99999999999989
  0
INSERT
  5
A4F
  8
0
  6
BYBLOCK
 62
     0
  2
*U9
 10
-42131.584519994038
 20
9951.6150511001524
 30
0.0
 41
0.9999999999999998
 42
0.9999999999999998
 43
0.9999999999999998
 50
300.0
  0
ENDBLK
  5
A50
  8
0
  0
BLOCK
  8
0
  2
*D13
 70
     1
 10
0.0
 20
0.0
 30
0.0
  3
*D13
  1

  0
LINE
  5
A79
  8
0
 62
     0
 10
202.02458688320019
 20
104.8287595714465
 30
0.0
 11
202.02458688320019
 21
159.8995301571554
 31
0.0
  0
LINE
  5
A7A
  8
0
 62
     0
 10
288.02458688320007
 20
125.3287595714456
 30
0.0
 11
288.02458688320007
 21
159.8995301571554
 31
0.0
  0
LINE
  5
A7B
  8
0
 62
     0
 10
202.20458688320019
 20
159.71953015715539
 30
0.0
 11
244.45458688320011
 21
159.71953015715539
 31
0.0
  0
LINE
  5
A7C
  8
0
 62
     0
 10
287.84458688320012
 20
159.71953015715539
 30
0.0
 11
245.59458688320009
 21
159.71953015715539
 31
0.0
  0
SOLID
  5
A7D
  8
0
 62
     0
 10
202.20458688320019
 20
159.74953015715539
 30
0.0
 11
202.20458688320019
 21
159.68953015715539
 31
0.0
 12
202.02458688320019
 22
159.71953015715539
 32
0.0
 13
202.02458688320019
 23
159.71953015715539
 33
0.0
  0
SOLID
  5
A7E
  8
0
 62
     0
 10
287.84458688320012
 20
159.74953015715539
 30
0.0
 11
287.84458688320012
 21
159.68953015715539
 31
0.0
 12
288.02458688320007
 22
159.71953015715539
 32
0.0
 13
288.02458688320007
 23
159.71953015715539
 33
0.0
  0
INSERT
  5
A7F
  8
0
  2
*U20
 10
0.0
 20
0.0
 30
0.0
  0
POINT
  5
A80
  8
DEFPOINTS
 62
     0
 10
202.02458688320019
 20
104.7662595714465
 30
0.0
  0
POINT
  5
A81
  8
DEFPOINTS
 62
     0
 10
288.02458688320007
 20
125.2662595714456
 30
0.0
  0
POINT
  5
A82
  8
DEFPOINTS
 62
     0
 10
288.02458688320007
 20
159.71953015715539
 30
0.0
  0
ENDBLK
  5
A6D
  8
0
  0
BLOCK
  8
0
  2
*U14
 70
     1
 10
0.0
 20
0.0
 30
0.0
  3
*U14
  1

  0
TEXT
  5
B2D
  8
0
 10
20.607192735306342
 20
1.0526718077869539
 30
0.0
 40
3.0
  1
25
  7
DUKI_2
  0
ENDBLK
  5
B2F
  8
0
  0
BLOCK
  8
0
  2
*X15
 70
     1
 10
0.0
 20
0.0
 30
0.0
  3
*X15
  1

  0
LINE
  5
B31
  8
0
 62
     0
 10
89.231404828938025
 20
48.201485702553697
 30
0.0
 11
88.028764739500389
 21
48.52373214330381
 31
0.0
  0
LINE
  5
B32
  8
0
 62
     0
 10
86.609826438852593
 20
47.642192670197183
 30
0.0
 11
86.536106927491559
 21
47.661945753732788
 31
0.0
  0
LINE
  5
B33
  8
0
 62
     0
 10
90.093191218511677
 20
46.708827890544512
 30
0.0
 11
86.609826438852721
 21
47.64219267019714
 31
0.0
  0
LINE
  5
B34
  8
0
 62
     0
 10
87.471612828417634
 20
46.149534858190329
 30
0.0
 11
85.043449115481295
 21
46.800159364162177
 31
0.0
  0
LINE
  5
B35
  8
0
 62
     0
 10
90.88260471229917
 20
45.235562337515162
 30
0.0
 11
87.47161282842228
 21
46.149534858189092
 31
0.0
  0
LINE
  5
B36
  8
0
 62
     0
 10
86.173716309133283
 20
45.235562337516953
 30
0.0
 11
84.850034438339165
 21
45.590241825831939
 31
0.0
  0
LINE
  5
B37
  8
0
 62
     0
 10
90.197726405039006
 20
45.235562337515148
 30
0.0
 11
90.434216388169403
 21
46.118154970038908
 31
0.0
  0
LINE
  5
B38
  8
0
 62
     0
 10
88.935983560164246
 20
45.235562337515148
 30
0.0
 11
89.572429998597627
 21
47.610812782044917
 31
0.0
  0
LINE
  5
B39
  8
0
 62
     0
 10
87.777278829373756
 20
45.620105814393888
 30
0.0
 11
88.65166637818939
 21
48.883364572079451
 31
0.0
  0
LINE
  5
B3A
  8
0
 62
     0
 10
87.674240715289926
 20
45.235562337516967
 30
0.0
 11
87.777278829372094
 21
45.620105814387671
 31
0.0
  0
LINE
  5
B3B
  8
0
 62
     0
 10
86.91549243980306
 20
47.112763626403932
 30
0.0
 11
87.159008566180958
 21
48.021578182508676
 31
0.0
  0
LINE
  5
B3C
  8
0
 62
     0
 10
86.412497870415137
 20
45.235562337516967
 30
0.0
 11
86.915492439802605
 21
47.11276362640222
 31
0.0
  0
LINE
  5
B3D
  8
0
 62
     0
 10
85.150755025540349
 20
45.235562337516967
 30
0.0
 11
85.666350754172797
 21
47.159791792938762
 31
0.0
  0
ENDBLK
  5
B3F
  8
0
  0
BLOCK
  8
0
  2
*X16
 70
     1
 10
0.0
 20
0.0
 30
0.0
  3
*X16
  1

  0
LINE
  5
B41
  8
0
 62
     0
 10
211.1952628042329
 20
98.482182936485074
 30
0.0
 11
209.99262271479529
 21
98.804429377235166
 31
0.0
  0
LINE
  5
B42
  8
0
 62
     0
 10
208.57368441414749
 20
97.922889904128553
 30
0.0
 11
208.4999649027865
 21
97.942642987664144
 31
0.0
  0
LINE
  5
B43
  8
0
 62
     0
 10
212.05704919380651
 20
96.989525124475904
 30
0.0
 11
208.57368441414761
 21
97.922889904128525
 31
0.0
  0
LINE
  5
B44
  8
0
 62
     0
 10
209.43547080371249
 20
96.430232092121699
 30
0.0
 11
207.00730709077629
 21
97.080856598093547
 31
0.0
  0
LINE
  5
B45
  8
0
 62
     0
 10
212.8464626875942
 20
95.516259571446497
 30
0.0
 11
209.43547080371721
 21
96.430232092120463
 31
0.0
  0
LINE
  5
B46
  8
0
 62
     0
 10
208.13757428442821
 20
95.516259571448302
 30
0.0
 11
206.81389241363411
 21
95.870939059763316
 31
0.0
  0
LINE
  5
B47
  8
0
 62
     0
 10
212.16158438033389
 20
95.516259571446511
 30
0.0
 11
212.3980743634643
 21
96.398852203970279
 31
0.0
  0
LINE
  5
B48
  8
0
 62
     0
 10
210.8998415354591
 20
95.516259571446511
 30
0.0
 11
211.53628797389251
 21
97.891510015976252
 31
0.0
  0
LINE
  5
B49
  8
0
 62
     0
 10
209.74113680466871
 20
95.900803048325244
 30
0.0
 11
210.61552435348429
 21
99.164061806010807
 31
0.0
  0
LINE
  5
B4A
  8
0
 62
     0
 10
209.6380986905848
 20
95.516259571448344
 30
0.0
 11
209.74113680466701
 21
95.900803048319048
 31
0.0
  0
LINE
  5
B4B
  8
0
 62
     0
 10
208.879350415098
 20
97.393460860335296
 30
0.0
 11
209.1228665414759
 21
98.302275416440011
 31
0.0
  0
LINE
  5
B4C
  8
0
 62
     0
 10
208.37635584571001
 20
95.516259571448344
 30
0.0
 11
208.87935041509749
 21
97.39346086033359
 31
0.0
  0
LINE
  5
B4D
  8
0
 62
     0
 10
207.11461300083531
 20
95.516259571448344
 30
0.0
 11
207.63020872946771
 21
97.440489026870125
 31
0.0
  0
ENDBLK
  5
B4F
  8
0
  0
BLOCK
  8
0
  2
*U17
 70
     1
 10
0.0
 20
0.0
 30
0.0
  3
*U17
  1

  0
TEXT
  5
B53
  8
0
 10
2.0853131374072231
 20
4.854801968402441
 30
0.0
 40
20.0
  1
KMTA20
  7
BIG
  0
ENDBLK
  5
B55
  8
0
  0
BLOCK
  8
0
  2
*U18
 70
     1
 10
0.0
 20
0.0
 30
0.0
  3
*U18
  1

  0
TEXT
  5
B57
  8
0
 10
1.797130346690486
 20
7.5814666174979797
 30
0.0
 40
20.0
  1
WBK17
  7
DUKI7
  0
ENDBLK
  5
B59
  8
0
  0
BLOCK
  8
0
  2
*U19
 70
     1
 10
0.0
 20
0.0
 30
0.0
  3
*U19
  1

  0
TEXT
  5
B5B
  8
0
 10
157.8661096155256
 20
-15.65139246084833
 30
0.0
 40
20.0
  1
WBK25
  7
DUKI7
  0
ENDBLK
  5
B5D
  8
0
  0
BLOCK
  8
0
  2
*U20
 70
     1
 10
0.0
 20
0.0
 30
0.0
  3
*U20
  1

  0
TEXT
  5
B5F
  8
0
 62
     0
 10
244.54458688320011
 20
159.62953015715539
 30
0.0
 40
0.18
  1
86.0000
  0
ENDBLK
  5
B61
  8
0
  0
ENDSEC
  0
SECTION
  2
ENTITIES
  0
LINE
  5
2B0
  8
CENTER
  6
CENTER
 10
100.7017789407853
 20
155.68486007913219
 30
0.0
 11
100.7017789407853
 21
11.84770061187802
 31
0.0
  0
LINE
  5
2B4
  8
CENTER
  6
CENTER
 10
161.1495453584194
 20
83.766280345505109
 30
0.0
 11
40.254012523151147
 21
83.766280345505109
 31
0.0
  0
LINE
  5
30E
  8
CENTER
 10
298.44683118823309
 20
83.766259571445588
 30
0.0
 11
192.44630726384861
 21
83.766259571445588
 31
0.0
  0
LINE
  5
41E
  8
CENTER
  6
CENTER
 10
312.60873863117001
 20
143.76628034550509
 30
0.0
 11
312.60873863117001
 21
23.76628034550512
 31
0.0
  0
LINE
  5
41F
  8
CENTER
  6
CENTER
 10
362.60872863117032
 20
83.766280345505109
 30
0.0
 11
312.60873863117013
 21
83.766280345505109
 31
0.0
  0
ARC
  5
5A7
  8
0
 10
100.7017789407853
 20
83.766280345505109
 30
0.0
 40
65.0
 50
219.71513723182619
 51
320.28486276817381
  0
ARC
  5
5B0
  8
0
 10
100.7017789407853
 20
83.766280345505109
 30
0.0
 40
65.0
 50
39.715137231826191
 51
140.28486276817381
  0
LINE
  5
5B1
  8
0
 10
150.70177894078529
 20
125.2993996600954
 30
0.0
 11
150.70177894078529
 21
42.233161030914729
 31
0.0
  0
LINE
  5
5B2
  8
0
 10
50.701778940785289
 20
42.233161030914758
 30
0.0
 11
50.701778940785289
 21
125.2993996600955
 31
0.0
  0
CIRCLE
  5
5B5
  8
CENTER
 10
100.7017789407853
 20
83.766280345505109
 30
0.0
 40
55.0
  0
CIRCLE
  5
5B6
  8
0
 10
100.7017789407853
 20
83.766280345505109
 30
0.0
 40
45.0
  0
CIRCLE
  5
5B7
  8
CENTER
 10
100.7017789407853
 20
83.766280345505109
 30
0.0
 40
36.5
  0
CIRCLE
  5
5B8
  8
0
 10
100.7017789407853
 20
83.766280345505109
 30
0.0
 40
28.5
  0
CIRCLE
  5
5B9
  8
0
 10
100.7017789407853
 20
83.766280345505109
 30
0.0
 40
27.5
  0
CIRCLE
  5
5BA
  8
0
 10
100.7017789407853
 20
83.766280345505109
 30
0.0
 40
24.0
  0
LINE
  5
5BB
  8
CENTER
 10
123.83275109669189
 20
94.552429802374391
 30
0.0
 11
144.7967069682185
 21
104.3280829704907
 31
0.0
  0
CIRCLE
  5
5C2
  8
0
 10
133.78201316762301
 20
99.191846899040641
 30
0.0
 40
7.0
  0
CIRCLE
  5
5C3
  8
0
 10
133.78201316762301
 20
99.191846899040641
 30
0.0
 40
6.0
  0
LINE
  5
5C8
  8
0
 10
130.757013167623
 20
97.431342709894807
 30
0.0
 11
130.757013167623
 21
100.9523510881864
 31
0.0
  0
LINE
  5
5C9
  8
0
 10
130.757013167623
 20
97.431342709894807
 30
0.0
 11
130.757013167623
 21
100.9523510881864
 31
0.0
  0
LINE
  5
5CA
  8
0
 10
136.80701316762301
 20
97.431342709894864
 30
0.0
 11
136.80701316762301
 21
100.9523510881864
 31
0.0
  0
LINE
  5
5CD
  8
0
 10
130.757013167623
 20
100.9523510881865
 30
0.0
 11
133.78201316762301
 21
102.6918468990406
 31
0.0
  0
LINE
  5
5CE
  8
0
 10
133.78201316762301
 20
102.6918468990406
 30
0.0
 11
136.80701316762301
 21
100.9523510881864
 31
0.0
  0
LINE
  5
5CF
  8
0
 10
130.757013167623
 20
97.431342709894793
 30
0.0
 11
133.78201316762301
 21
95.691846899040641
 31
0.0
  0
LINE
  5
5D0
  8
0
 10
133.78201316762301
 20
95.691846899040641
 30
0.0
 11
136.8070131676231
 21
97.431342709894906
 31
0.0
  0
CIRCLE
  5
5D3
  8
0
 10
100.7017789407853
 20
120.26628034550509
 30
0.0
 40
7.0
  0
CIRCLE
  5
5D4
  8
0
 10
100.7017789407853
 20
120.26628034550509
 30
0.0
 40
6.0
  0
LINE
  5
5D5
  8
0
 10
103.72677894078529
 20
118.5057761563593
 30
0.0
 11
103.72677894078529
 21
122.0267845346509
 31
0.0
  0
LINE
  5
5D6
  8
0
 10
97.676778940785283
 20
118.5057761563593
 30
0.0
 11
97.676778940785283
 21
122.0267845346509
 31
0.0
  0
LINE
  5
5D7
  8
0
 10
97.676778940785283
 20
118.5057761563593
 30
0.0
 11
97.676778940785283
 21
122.0267845346509
 31
0.0
  0
LINE
  5
5D8
  8
0
 10
97.676778940785312
 20
122.0267845346509
 30
0.0
 11
100.7017789407853
 21
123.76628034550509
 31
0.0
  0
LINE
  5
5D9
  8
0
 10
100.7017789407853
 20
123.76628034550509
 30
0.0
 11
103.72677894078529
 21
122.0267845346509
 31
0.0
  0
LINE
  5
5DA
  8
0
 10
97.676778940785312
 20
118.5057761563592
 30
0.0
 11
100.7017789407853
 21
116.76628034550509
 31
0.0
  0
LINE
  5
5DB
  8
0
 10
100.7017789407853
 20
116.76628034550509
 30
0.0
 11
103.72677894078529
 21
118.5057761563593
 31
0.0
  0
CIRCLE
  5
5DC
  8
0
 10
100.7017789407853
 20
47.266280345505102
 30
0.0
 40
7.0
  0
CIRCLE
  5
5DD
  8
0
 10
100.7017789407853
 20
47.266280345505102
 30
0.0
 40
6.0
  0
LINE
  5
5DE
  8
0
 10
103.72677894078529
 20
49.026784534650893
 30
0.0
 11
103.72677894078529
 21
45.505776156359268
 31
0.0
  0
LINE
  5
5DF
  8
0
 10
97.676778940785283
 20
49.026784534650943
 30
0.0
 11
97.676778940785283
 21
45.505776156359268
 31
0.0
  0
LINE
  5
5E0
  8
0
 10
97.676778940785283
 20
49.026784534650943
 30
0.0
 11
97.676778940785283
 21
45.505776156359268
 31
0.0
  0
LINE
  5
5E1
  8
0
 10
97.676778940785312
 20
45.505776156359254
 30
0.0
 11
100.7017789407853
 21
43.766280345505109
 31
0.0
  0
LINE
  5
5E2
  8
0
 10
100.7017789407853
 20
43.766280345505109
 30
0.0
 11
103.72677894078529
 21
45.505776156359317
 31
0.0
  0
LINE
  5
5E3
  8
0
 10
97.676778940785312
 20
49.026784534650957
 30
0.0
 11
100.7017789407853
 21
50.766280345505109
 31
0.0
  0
LINE
  5
5E4
  8
0
 10
100.7017789407853
 20
50.766280345505109
 30
0.0
 11
103.72677894078529
 21
49.026784534650837
 31
0.0
  0
LINE
  5
5E5
  8
CENTER
 10
123.83275109669189
 20
72.980130888635813
 30
0.0
 11
144.7967069682185
 21
63.204477720519492
 31
0.0
  0
CIRCLE
  5
5E6
  8
0
 10
133.78201316762301
 20
68.340713791969563
 30
0.0
 40
7.0
  0
CIRCLE
  5
5E7
  8
0
 10
133.78201316762301
 20
68.340713791969563
 30
0.0
 40
6.0
  0
LINE
  5
5E8
  8
0
 10
136.80701316762301
 20
70.10121798111534
 30
0.0
 11
136.80701316762301
 21
66.580209602823729
 31
0.0
  0
LINE
  5
5E9
  8
0
 10
130.757013167623
 20
70.101217981115397
 30
0.0
 11
130.757013167623
 21
66.580209602823729
 31
0.0
  0
LINE
  5
5EA
  8
0
 10
130.757013167623
 20
70.101217981115397
 30
0.0
 11
130.757013167623
 21
66.580209602823729
 31
0.0
  0
LINE
  5
5EB
  8
0
 10
130.757013167623
 20
66.580209602823714
 30
0.0
 11
133.78201316762301
 21
64.840713791969563
 31
0.0
  0
LINE
  5
5EC
  8
0
 10
133.78201316762301
 20
64.840713791969563
 30
0.0
 11
136.80701316762301
 21
66.580209602823771
 31
0.0
  0
LINE
  5
5ED
  8
0
 10
130.757013167623
 20
70.101217981115411
 30
0.0
 11
133.78201316762301
 21
71.840713791969563
 31
0.0
  0
LINE
  5
5EE
  8
0
 10
133.78201316762301
 20
71.840713791969563
 30
0.0
 11
136.8070131676231
 21
70.101217981115298
 31
0.0
  0
LINE
  5
5EF
  8
CENTER
 10
77.570806784878684
 20
94.552429802374363
 30
0.0
 11
56.606850913352069
 21
104.3280829704906
 31
0.0
  0
CIRCLE
  5
5F0
  8
0
 10
67.621544713947571
 20
99.191846899040627
 30
0.0
 40
7.0
  0
CIRCLE
  5
5F1
  8
0
 10
67.621544713947571
 20
99.191846899040627
 30
0.0
 40
6.0
  0
LINE
  5
5F2
  8
0
 10
64.596544713947523
 20
97.431342709894835
 30
0.0
 11
64.596544713947566
 21
100.9523510881864
 31
0.0
  0
LINE
  5
5F3
  8
0
 10
70.646544713947577
 20
97.431342709894793
 30
0.0
 11
70.646544713947577
 21
100.9523510881864
 31
0.0
  0
LINE
  5
5F4
  8
0
 10
70.646544713947577
 20
97.431342709894793
 30
0.0
 11
70.646544713947577
 21
100.9523510881864
 31
0.0
  0
LINE
  5
5F5
  8
0
 10
70.646544713947549
 20
100.9523510881864
 30
0.0
 11
67.621544713947571
 21
102.6918468990406
 31
0.0
  0
LINE
  5
5F6
  8
0
 10
67.621544713947571
 20
102.6918468990406
 30
0.0
 11
64.596544713947523
 21
100.9523510881864
 31
0.0
  0
LINE
  5
5F7
  8
0
 10
70.646544713947549
 20
97.431342709894764
 30
0.0
 11
67.621544713947571
 21
95.691846899040598
 31
0.0
  0
LINE
  5
5F8
  8
0
 10
67.621544713947571
 20
95.691846899040598
 30
0.0
 11
64.596544713947509
 21
97.431342709894878
 31
0.0
  0
LINE
  5
5F9
  8
CENTER
 10
77.570806784878712
 20
72.980130888635784
 30
0.0
 11
56.606850913352098
 21
63.204477720519449
 31
0.0
  0
CIRCLE
  5
5FA
  8
0
 10
67.621544713947571
 20
68.340713791969534
 30
0.0
 40
7.0
  0
CIRCLE
  5
5FB
  8
0
 10
67.621544713947571
 20
68.340713791969534
 30
0.0
 40
6.0
  0
LINE
  5
5FC
  8
0
 10
64.596544713947523
 20
70.101217981115312
 30
0.0
 11
64.596544713947594
 21
66.5802096028237
 31
0.0
  0
LINE
  5
5FD
  8
0
 10
70.646544713947577
 20
70.101217981115369
 30
0.0
 11
70.646544713947605
 21
66.5802096028237
 31
0.0
  0
LINE
  5
5FE
  8
0
 10
70.646544713947577
 20
70.101217981115369
 30
0.0
 11
70.646544713947605
 21
66.5802096028237
 31
0.0
  0
LINE
  5
5FF
  8
0
 10
70.646544713947577
 20
66.580209602823686
 30
0.0
 11
67.6215447139476
 21
64.840713791969534
 31
0.0
  0
LINE
  5
600
  8
0
 10
67.6215447139476
 20
64.840713791969534
 30
0.0
 11
64.596544713947566
 21
66.580209602823743
 31
0.0
  0
LINE
  5
601
  8
0
 10
70.646544713947549
 20
70.101217981115383
 30
0.0
 11
67.621544713947571
 21
71.840713791969534
 31
0.0
  0
LINE
  5
602
  8
0
 10
67.621544713947571
 20
71.840713791969534
 30
0.0
 11
64.596544713947509
 21
70.101217981115255
 31
0.0
  0
LINE
  5
603
  8
CENTER
 10
121.9112746994967
 20
104.97577610421649
 30
0.0
 11
150.26027861411609
 21
133.32478001883601
 31
0.0
  0
LINE
  5
609
  8
CENTER
 10
121.9112746994967
 20
62.556784586793668
 30
0.0
 11
150.26027861411609
 21
34.207780672174209
 31
0.0
  0
LINE
  5
60A
  8
CENTER
 10
79.492283182073862
 20
104.97577610421649
 30
0.0
 11
51.143279267454403
 21
133.32478001883601
 31
0.0
  0
LINE
  5
60B
  8
CENTER
 10
79.492283182073876
 20
62.556784586793661
 30
0.0
 11
51.143279267454432
 21
34.207780672174188
 31
0.0
  0
CIRCLE
  5
60C
  8
0
 10
139.5926519060454
 20
122.6571533107652
 30
0.0
 40
8.75
  0
CIRCLE
  5
60D
  8
0
 10
139.5926519060454
 20
122.6571533107652
 30
0.0
 40
5.5
  0
CIRCLE
  5
60E
  8
0
 10
100.7017789407853
 20
138.76628034550509
 30
0.0
 40
8.75
  0
CIRCLE
  5
60F
  8
0
 10
100.7017789407853
 20
138.76628034550509
 30
0.0
 40
5.5
  0
CIRCLE
  5
610
  8
0
 10
61.810905975525181
 20
122.6571533107652
 30
0.0
 40
8.75
  0
CIRCLE
  5
611
  8
0
 10
61.810905975525181
 20
122.6571533107652
 30
0.0
 40
5.5
  0
CIRCLE
  5
612
  8
0
 10
61.810905975525223
 20
44.87540738024498
 30
0.0
 40
8.75
  0
CIRCLE
  5
613
  8
0
 10
61.810905975525223
 20
44.87540738024498
 30
0.0
 40
5.5
  0
CIRCLE
  5
614
  8
0
 10
100.7017789407853
 20
28.766280345505109
 30
0.0
 40
8.75
  0
CIRCLE
  5
615
  8
0
 10
100.7017789407853
 20
28.766280345505109
 30
0.0
 40
5.5
  0
CIRCLE
  5
616
  8
0
 10
139.5926519060454
 20
44.87540738024498
 30
0.0
 40
8.75
  0
CIRCLE
  5
617
  8
0
 10
139.5926519060454
 20
44.87540738024498
 30
0.0
 40
5.5
  0
ARC
  5
618
  8
HIDE
 10
126.5111764540943
 20
109.5756778588141
 30
0.0
 40
3.0
 50
214.2163797337563
 51
120.1909666333014
  0
CIRCLE
  5
61C
  8
0
 10
126.5111764540943
 20
109.5756778588141
 30
0.0
 40
2.5
  0
ARC
  5
61D
  8
HIDE
 10
126.5111764540943
 20
57.956882832196108
 30
0.0
 40
3.0
 50
239.80903336669829
 51
145.78362026624319
  0
CIRCLE
  5
61E
  8
0
 10
126.5111764540943
 20
57.956882832196108
 30
0.0
 40
2.5
  0
ARC
  5
61F
  8
HIDE
 10
74.892381427476295
 20
109.5756778588141
 30
0.0
 40
3.0
 50
59.809033366698984
 51
325.7836202662437
  0
CIRCLE
  5
620
  8
0
 10
74.892381427476295
 20
109.5756778588141
 30
0.0
 40
2.5
  0
ARC
  5
621
  8
HIDE
 10
74.892381427476295
 20
57.956882832196108
 30
0.0
 40
3.0
 50
34.216379733756632
 51
300.190966633301
  0
CIRCLE
  5
622
  8
0
 10
74.892381427476295
 20
57.956882832196108
 30
0.0
 40
2.5
  0
LINE
  5
63D
  8
0
 10
238.0245868832001
 20
148.76628034550509
 30
0.0
 11
254.02458688320019
 21
148.76628034550509
 31
0.0
  0
LINE
  5
640
  8
HIDE
 10
202.02458688320019
 20
96.266280345505081
 30
0.0
 11
240.0245868832001
 21
96.266280345505081
 31
0.0
  0
LINE
  5
643
  8
0
 10
237.0245868832001
 20
128.7662595714456
 30
0.0
 11
237.0245868832001
 21
147.76628034550509
 31
0.0
  0
LINE
  5
644
  8
0
 10
255.02458688320019
 20
126.2662595714456
 30
0.0
 11
255.02458688320019
 21
147.76628034550509
 31
0.0
  0
LINE
  5
645
  8
0
 10
237.0245868832001
 20
147.76628034550509
 30
0.0
 11
238.0245868832001
 21
148.76628034550509
 31
0.0
  0
LINE
  5
646
  8
0
 10
255.02458688320019
 20
147.76628034550509
 30
0.0
 11
254.02458688320019
 21
148.76628034550509
 31
0.0
  0
LINE
  5
648
  8
0
 10
287.02458688320007
 20
126.2662595714456
 30
0.0
 11
255.0245868832001
 21
126.2662595714456
 31
0.0
  0
LINE
  5
649
  8
0
 10
288.02458688320007
 20
83.766259571445659
 30
0.0
 11
288.02458688320007
 21
125.2662595714456
 31
0.0
  0
LINE
  5
64A
  8
0
 10
287.02458688320007
 20
126.2662595714456
 30
0.0
 11
288.02458688320007
 21
125.2662595714456
 31
0.0
  0
LINE
  5
64C
  8
0
 10
237.0245868832001
 20
128.7662595714456
 30
0.0
 11
223.0245868832001
 21
128.7662595714456
 31
0.0
  0
LINE
  5
64D
  8
0
 10
222.02458688320019
 20
83.766259571445588
 30
0.0
 11
222.02458688320019
 21
127.7662595714456
 31
0.0
  0
LINE
  5
64E
  8
0
 10
222.02458688320019
 20
127.7662595714456
 30
0.0
 11
223.0245868832001
 21
128.7662595714456
 31
0.0
  0
LINE
  5
64F
  8
HIDE
 10
237.0245868832001
 20
128.7662595714456
 30
0.0
 11
237.0245868832001
 21
114.7662595714456
 31
0.0
  0
LINE
  5
650
  8
CENTER
 10
232.0245868832001
 20
138.76628034550501
 30
0.0
 11
260.02458688320019
 21
138.76628034550501
 31
0.0
  0
LINE
  5
653
  8
HIDE
 10
237.0245868832001
 20
147.51628034550509
 30
0.0
 11
248.0245868832001
 21
147.51628034550509
 31
0.0
  0
LINE
  5
654
  8
HIDE
 10
237.0245868832001
 20
130.01628034550509
 30
0.0
 11
248.0245868832001
 21
130.01628034550509
 31
0.0
  0
LINE
  5
655
  8
HIDE
 10
248.0245868832001
 20
144.26628034550509
 30
0.0
 11
255.02458688320019
 21
144.26628034550509
 31
0.0
  0
LINE
  5
656
  8
HIDE
 10
248.0245868832001
 20
133.26628034550509
 30
0.0
 11
255.02458688320019
 21
133.26628034550509
 31
0.0
  0
LINE
  5
659
  8
HIDE
 10
248.0245868832001
 20
147.51628034550509
 30
0.0
 11
248.0245868832001
 21
130.01628034550509
 31
0.0
  0
LINE
  5
674
  8
CENTER
  6
CENTER
 10
253.19704688320169
 20
102.6173680923303
 30
0.0
 11
241.85211688319879
 21
109.16736809233321
 31
0.0
  0
CIRCLE
  5
675
  8
HIDE
 10
247.5245868832001
 20
105.8924180923304
 30
0.0
 40
3.1749990000000001
  0
LINE
  5
676
  8
HIDE
 10
255.0245868832001
 20
109.3924180923304
 30
0.0
 11
248.92658688319841
 21
109.3924180923304
 31
0.0
  0
LINE
  5
680
  8
HIDE
 10
254.5245868832001
 20
105.8924180923304
 30
0.0
 11
250.6995868831994
 21
105.8924180923304
 31
0.0
  0
LINE
  5
681
  8
HIDE
 10
246.48506688320171
 20
102.8924180923304
 30
0.0
 11
240.5245868832001
 21
102.8924180923304
 31
0.0
  0
LINE
  5
682
  8
HIDE
 10
244.3495968832006
 20
105.8924180923304
 30
0.0
 11
240.5245868832001
 21
105.8924180923304
 31
0.0
  0
ARC
  5
683
  8
HIDE
 10
248.92658688319841
 20
108.8924180923305
 30
0.0
 40
0.5
 50
90.000018000116455
 51
174.9962780000819
  0
ARC
  5
684
  8
HIDE
 10
240.5245868832001
 20
102.3924180923305
 30
0.0
 40
0.5
 50
90.000018000116455
 51
179.99996399997551
  0
ARC
  5
685
  8
HIDE
 10
240.5245868832001
 20
106.3924180923304
 30
0.0
 40
0.5
 50
179.99995999999589
 51
269.9999800001022
  0
ARC
  5
68E
  8
HIDE
 10
254.52458704028081
 20
105.3924180923305
 30
0.0
 40
0.5
 50
0.0000400000040257
 51
90.000018000116455
  0
ARC
  5
68F
  8
HIDE
 10
270.52458704028078
 20
105.3924180923305
 30
0.0
 40
0.5
 50
90.000018000116455
 51
180.0
  0
LINE
  5
690
  8
HIDE
 10
270.02458688320007
 20
114.7662595714456
 30
0.0
 11
270.02458688320007
 21
97.266280345505095
 31
0.0
  0
LINE
  5
692
  8
HIDE
 10
255.0245868832001
 20
113.7662595714457
 30
0.0
 11
255.0245868832001
 21
97.266279647373253
 31
0.0
  0
LINE
  5
693
  8
CENTER
  6
CENTER
 10
268.1969868831996
 20
109.1673780923329
 30
0.0
 11
256.8520668832
 21
102.6173880923334
 31
0.0
  0
ARC
  5
694
  8
HIDE
 10
261.12257688319852
 20
108.8924180923305
 30
0.0
 40
0.5
 50
5.003720000016588
 51
90.000018000116455
  0
CIRCLE
  5
695
  8
HIDE
 10
262.52458688320007
 20
105.8924180923304
 30
0.0
 40
3.1749990000000001
  0
LINE
  5
696
  8
HIDE
 10
269.52458688320007
 20
102.8924180923304
 30
0.0
 11
263.56410688319858
 21
102.8924180923304
 31
0.0
  0
LINE
  5
697
  8
HIDE
 10
269.52458688320007
 20
105.8924180923304
 30
0.0
 11
265.69956688319991
 21
105.8924180923304
 31
0.0
  0
ARC
  5
698
  8
HIDE
 10
269.52458688320007
 20
102.3924180923305
 30
0.0
 40
0.5
 50
0.0000400000040257
 51
90.000018000116455
  0
ARC
  5
699
  8
HIDE
 10
269.52458688320007
 20
106.3924180923304
 30
0.0
 40
0.5
 50
270.0
 51
0.0000400000040257
  0
LINE
  5
69A
  8
HIDE
 10
259.34957688320111
 20
105.8924180923304
 30
0.0
 11
255.5245868832001
 21
105.8924180923304
 31
0.0
  0
LINE
  5
69B
  8
HIDE
 10
261.12257688319852
 20
109.3924180923304
 30
0.0
 11
255.0245868832001
 21
109.3924180923304
 31
0.0
  0
ARC
  5
69C
  8
HIDE
 10
255.52458704028081
 20
105.3924180923305
 30
0.0
 40
0.5
 50
90.000018000116455
 51
180.0
  0
LINE
  5
69D
  8
HIDE
 10
240.0245868832001
 20
114.7662595714456
 30
0.0
 11
240.0245868832001
 21
96.266280345505081
 31
0.0
  0
ARC
  5
6B2
  8
HIDE
 10
254.02458688319999
 20
97.266280345504995
 30
0.0
 40
1.0
 50
269.9999800001022
 51
359.99995999999589
  0
ARC
  5
6B7
  8
HIDE
 10
254.02458688319999
 20
113.7662595714457
 30
0.0
 40
1.0
 50
0.0000400000040257
 51
90.000018000116455
  0
ARC
  5
6B8
  8
HIDE
 10
241.0245868831999
 20
97.266280345504995
 30
0.0
 40
1.0
 50
180.0
 51
269.9999800001022
  0
ARC
  5
6B9
  8
HIDE
 10
241.0245868831999
 20
113.7662595714457
 30
0.0
 40
1.0
 50
90.000018000116455
 51
179.99996399997551
  0
ARC
  5
6BA
  8
HIDE
 10
269.02458688319967
 20
97.266279647373253
 30
0.0
 40
1.0
 50
270.0
 51
0.0000400000040257
  0
ARC
  5
6BB
  8
HIDE
 10
256.02458688319979
 20
97.266279647373253
 30
0.0
 40
1.0
 50
180.0
 51
269.9999800001022
  0
ARC
  5
6BC
  8
HIDE
 10
269.02458688319967
 20
113.7662588733138
 30
0.0
 40
1.0
 50
0.0000400000040257
 51
90.000018000116455
  0
ARC
  5
6BD
  8
HIDE
 10
256.02458688319979
 20
113.7662588733138
 30
0.0
 40
1.0
 50
90.000018000116455
 51
180.0
  0
LINE
  5
6BE
  8
HIDE
 10
240.0245868832001
 20
96.266280345505109
 30
0.0
 11
288.02458688320019
 21
96.266280345505095
 31
0.0
  0
LINE
  5
6C8
  8
HIDE
 10
222.02458688320019
 20
101.5162595714456
 30
0.0
 11
240.0245868832001
 21
101.5162595714456
 31
0.0
  0
LINE
  5
6C9
  8
HIDE
 10
222.02458688320019
 20
112.26628034550509
 30
0.0
 11
226.0245868832001
 21
112.26628034550509
 31
0.0
  0
LINE
  5
6CA
  8
HIDE
 10
226.02458688320019
 20
111.26628034550509
 30
0.0
 11
236.0245868832001
 21
111.26628034550509
 31
0.0
  0
LINE
  5
6CB
  8
HIDE
 10
236.0245868832001
 20
107.76628034550509
 30
0.0
 11
240.0245868832001
 21
107.76628034550509
 31
0.0
  0
LINE
  5
6CC
  8
HIDE
 10
226.0245868832001
 20
101.5162595714456
 30
0.0
 11
226.0245868832001
 21
112.26628034550509
 31
0.0
  0
LINE
  5
6CD
  8
HIDE
 10
236.0245868832001
 20
101.5162595714456
 30
0.0
 11
236.0245868832001
 21
111.26628034550509
 31
0.0
  0
LINE
  5
6D1
  8
HIDE
 10
284.02458688320007
 20
101.5162595714457
 30
0.0
 11
284.02458688320007
 21
112.26628034550519
 31
0.0
  0
LINE
  5
6D2
  8
HIDE
 10
274.02458688320007
 20
101.5162595714456
 30
0.0
 11
274.02458688320007
 21
111.26628034550519
 31
0.0
  0
LINE
  5
6D3
  8
HIDE
 10
288.02458688320007
 20
101.5162595714457
 30
0.0
 11
270.02458688320019
 21
101.5162595714456
 31
0.0
  0
LINE
  5
6D4
  8
HIDE
 10
288.02458688320002
 20
112.26628034550519
 30
0.0
 11
284.02458688320007
 21
112.26628034550519
 31
0.0
  0
LINE
  5
6D5
  8
HIDE
 10
284.02458688320007
 20
111.26628034550519
 30
0.0
 11
274.02458688320007
 21
111.26628034550519
 31
0.0
  0
LINE
  5
6D6
  8
HIDE
 10
274.02458688320007
 20
107.76628034550519
 30
0.0
 11
270.02458688320007
 21
107.76628034550509
 31
0.0
  0
ARC
  5
6E8
  8
0
 10
312.60873863117001
 20
83.766280345505109
 30
0.0
 40
12.5
 50
270.0
 51
90.0
  0
ARC
  5
6E9
  8
0
 10
312.60873863117001
 20
83.766280345505109
 30
0.0
 40
28.5
 50
270.0
 51
90.0
  0
ARC
  5
6EA
  8
CENTER
 10
312.60873863117001
 20
83.766280345505109
 30
0.0
 40
35.0
 50
270.0
 51
90.0
  0
ARC
  5
6EB
  8
0
 10
312.60873863117001
 20
83.766280345505109
 30
0.0
 40
42.5
 50
270.0
 51
90.0
  0
ARC
  5
6EF
  8
0
 10
312.60873863117001
 20
83.766280345505109
 30
0.0
 40
27.500000000000099
 50
270.0
 51
90.0
  0
ARC
  5
6F0
  8
0
 10
312.60873863117001
 20
83.766280345505109
 30
0.0
 40
24.000000000000071
 50
270.0
 51
90.0
  0
ARC
  5
6F2
  8
0
 10
312.60873863117013
 20
83.766280345505109
 30
0.0
 40
17.749979225940582
 50
269.9999999999996
 51
90.0
  0
LINE
  5
6F3
  8
CENTER
 10
334.00402914006929
 20
105.1615708544043
 30
0.0
 11
341.33822860252428
 21
112.49577031685931
 31
0.0
  0
ARC
  5
6F4
  8
HIDE
 10
337.35747597269921
 20
108.5150176870342
 30
0.0
 40
3.0
 50
215.24317242610789
 51
123.5778353936284
  0
CIRCLE
  5
6F9
  8
0
 10
337.35747597269921
 20
108.5150176870342
 30
0.0
 40
2.5
  0
LINE
  5
6FA
  8
CENTER
 10
334.00402914006929
 20
62.370989836605901
 30
0.0
 11
341.33822860252428
 21
55.036790374150947
 31
0.0
  0
ARC
  5
6FB
  8
HIDE
 10
337.35747597269921
 20
59.01754300397598
 30
0.0
 40
3.0
 50
236.42216460637161
 51
144.75682757389239
  0
CIRCLE
  5
6FC
  8
0
 10
337.35747597269921
 20
59.01754300397603
 30
0.0
 40
2.5
  0
LINE
  5
6FD
  8
CENTER
 10
291.78681857182028
 20
118.76628034550509
 30
0.0
 11
270.75022259368723
 21
118.76628034550509
 31
0.0
  0
LINE
  5
6FE
  8
HIDE
 10
288.02458688320002
 20
121.76628034550509
 30
0.0
 11
279.89061228698449
 21
121.76628034550509
 31
0.0
  0
LINE
  5
6FF
  8
HIDE
 10
288.02458688320002
 20
115.76628034550509
 30
0.0
 11
279.89061228698449
 21
115.76628034550509
 31
0.0
  0
LINE
  5
700
  8
HIDE
 10
279.02458688320019
 20
116.26628034550509
 30
0.0
 11
279.02458688320007
 21
121.26628034550509
 31
0.0
  0
LINE
  5
701
  8
HIDE
 10
275.02458688320007
 20
116.26628034550509
 30
0.0
 11
275.02458688320007
 21
121.26628034550509
 31
0.0
  0
LINE
  5
702
  8
HIDE
 10
288.02458688320007
 20
121.26628034550509
 30
0.0
 11
275.02458688320007
 21
121.26628034550509
 31
0.0
  0
LINE
  5
703
  8
HIDE
 10
288.02458688320002
 20
116.26628034550509
 30
0.0
 11
275.02458688320007
 21
116.26628034550509
 31
0.0
  0
LINE
  5
706
  8
HIDE
 10
279.02458688320007
 20
121.26628034550509
 30
0.0
 11
279.89061228698449
 21
121.76628034550509
 31
0.0
  0
LINE
  5
709
  8
HIDE
 10
275.02458688320007
 20
121.26628034550509
 30
0.0
 11
273.581211210226
 21
118.76628034550509
 31
0.0
  0
LINE
  5
72A
  8
HIDE
 10
275.02458688320007
 20
116.26628034550509
 30
0.0
 11
273.581211210226
 21
118.76628034550509
 31
0.0
  0
LINE
  5
72B
  8
HIDE
 10
279.02458688320007
 20
116.26628034550509
 30
0.0
 11
279.89061228698449
 21
115.76628034550509
 31
0.0
  0
LINE
  5
730
  8
HIDE
 10
270.02458688320007
 20
52.766259571445552
 30
0.0
 11
237.0245868832001
 21
52.766259571445531
 31
0.0
  0
LINE
  5
731
  8
0
 10
238.02458688320019
 20
18.766238797386048
 30
0.0
 11
254.02458688320019
 21
18.766238797386048
 31
0.0
  0
LINE
  5
732
  8
0
 10
255.02458688320019
 20
19.766238797386048
 30
0.0
 11
254.02458688320019
 21
18.766238797386048
 31
0.0
  0
LINE
  5
733
  8
0
 10
237.02458688320019
 20
19.766238797386048
 30
0.0
 11
238.02458688320019
 21
18.766238797386048
 31
0.0
  0
LINE
  5
734
  8
HIDE
 10
202.02458688320019
 20
71.266238797386066
 30
0.0
 11
240.0245868832001
 21
71.266238797386094
 31
0.0
  0
LINE
  5
735
  8
HIDE
 10
241.0245868831999
 20
71.26623879738608
 30
0.0
 11
254.02458688319999
 21
71.26623879738608
 31
0.0
  0
LINE
  5
736
  8
HIDE
 10
256.02340524737929
 20
71.26623879738608
 30
0.0
 11
269.02576851902762
 21
71.266238797386094
 31
0.0
  0
LINE
  5
738
  8
HIDE
 10
270.02458688320007
 20
71.266238797386094
 30
0.0
 11
288.02458688320019
 21
71.266238797386109
 31
0.0
  0
LINE
  5
73A
  8
0
 10
237.02458688320019
 20
38.76625957144558
 30
0.0
 11
237.02458688320019
 21
19.766238797386048
 31
0.0
  0
LINE
  5
73B
  8
0
 10
222.02458688320019
 20
83.766259571445573
 30
0.0
 11
222.02458688320019
 21
39.766259571445559
 31
0.0
  0
LINE
  5
73E
  8
HIDE
 10
226.0245868832001
 20
66.016259571445545
 30
0.0
 11
226.0245868832001
 21
55.266238797386052
 31
0.0
  0
LINE
  5
73F
  8
HIDE
 10
236.0245868832001
 20
66.016259571445545
 30
0.0
 11
236.0245868832001
 21
56.266238797386038
 31
0.0
  0
LINE
  5
740
  8
0
 10
288.02458688320007
 20
83.766259571445545
 30
0.0
 11
288.02458688320007
 21
42.26625957144558
 31
0.0
  0
LINE
  5
741
  8
HIDE
 10
275.02458688320007
 20
51.26623879738608
 30
0.0
 11
275.02458688320007
 21
46.266238797386009
 31
0.0
  0
LINE
  5
742
  8
HIDE
 10
279.02458688320019
 20
51.266238797386059
 30
0.0
 11
279.02458688320007
 21
46.266238797386059
 31
0.0
  0
LINE
  5
743
  8
0
 10
287.02458688320007
 20
41.26625957144558
 30
0.0
 11
288.02458688320007
 21
42.26625957144558
 31
0.0
  0
LINE
  5
744
  8
0
 10
255.02458688320019
 20
41.266259571445573
 30
0.0
 11
255.02458688320019
 21
19.766238797386048
 31
0.0
  0
LINE
  5
745
  8
0
 10
287.02458688320007
 20
41.26625957144558
 30
0.0
 11
255.02458688320019
 21
41.266259571445559
 31
0.0
  0
LINE
  5
746
  8
0
 10
237.02458688320019
 20
38.76625957144558
 30
0.0
 11
223.02458688320019
 21
38.766259571445538
 31
0.0
  0
LINE
  5
747
  8
0
 10
222.02458688320019
 20
39.766259571445559
 30
0.0
 11
223.02458688320019
 21
38.766259571445538
 31
0.0
  0
LINE
  5
748
  8
HIDE
 10
237.02458688320019
 20
38.76625957144558
 30
0.0
 11
237.0245868832001
 21
52.766259571445531
 31
0.0
  0
LINE
  5
74A
  8
HIDE
 10
270.02458688320007
 20
52.766259571445552
 30
0.0
 11
270.02458688320007
 21
71.266238797386094
 31
0.0
  0
LINE
  5
74B
  8
HIDE
 10
255.0245868832001
 20
53.766259571445502
 30
0.0
 11
255.0245868832001
 21
70.266239495517937
 31
0.0
  0
LINE
  5
74C
  8
HIDE
 10
240.0245868832001
 20
52.766259571445538
 30
0.0
 11
240.0245868832001
 21
71.266238797386094
 31
0.0
  0
LINE
  5
74D
  8
CENTER
 10
232.02458688320019
 20
28.766238797386109
 30
0.0
 11
260.02458688320019
 21
28.766238797386109
 31
0.0
  0
LINE
  5
74E
  8
HIDE
 10
237.02458688320019
 20
20.016238797386048
 30
0.0
 11
248.0245868832001
 21
20.016238797386048
 31
0.0
  0
LINE
  5
74F
  8
HIDE
 10
237.02458688320019
 20
37.51623879738608
 30
0.0
 11
248.0245868832001
 21
37.51623879738608
 31
0.0
  0
LINE
  5
750
  8
HIDE
 10
248.0245868832001
 20
23.26623879738608
 30
0.0
 11
255.02458688320019
 21
23.26623879738608
 31
0.0
  0
LINE
  5
751
  8
HIDE
 10
248.0245868832001
 20
34.26623879738608
 30
0.0
 11
255.02458688320019
 21
34.26623879738608
 31
0.0
  0
LINE
  5
752
  8
HIDE
 10
248.0245868832001
 20
20.016238797386048
 30
0.0
 11
248.0245868832001
 21
37.51623879738608
 31
0.0
  0
LINE
  5
753
  8
CENTER
  6
CENTER
 10
253.19704688320169
 20
64.915151050560894
 30
0.0
 11
241.85211688319879
 21
58.365151050557991
 31
0.0
  0
CIRCLE
  5
754
  8
HIDE
 10
247.5245868832001
 20
61.640101050560702
 30
0.0
 40
3.1749990000000001
  0
LINE
  5
755
  8
HIDE
 10
255.0245868832001
 20
58.140101050560702
 30
0.0
 11
248.92658688319841
 21
58.140101050560702
 31
0.0
  0
LINE
  5
75F
  8
HIDE
 10
254.5245868832001
 20
61.640101050560702
 30
0.0
 11
250.6995868831994
 21
61.640101050560702
 31
0.0
  0
LINE
  5
760
  8
HIDE
 10
246.48506688320171
 20
64.640101050560702
 30
0.0
 11
240.5245868832001
 21
64.640101050560702
 31
0.0
  0
LINE
  5
761
  8
HIDE
 10
244.3495968832006
 20
61.640101050560702
 30
0.0
 11
240.5245868832001
 21
61.640101050560702
 31
0.0
  0
ARC
  5
762
  8
HIDE
 10
248.92658688319841
 20
58.640101050560702
 30
0.0
 40
0.5
 50
185.0037219999179
 51
269.99998199988357
  0
ARC
  5
763
  8
HIDE
 10
240.5245868832001
 20
65.140101050560702
 30
0.0
 40
0.5
 50
180.00003600002449
 51
269.99998199988357
  0
ARC
  5
764
  8
HIDE
 10
240.5245868832001
 20
61.140101050560702
 30
0.0
 40
0.5
 50
90.000019999897845
 51
180.00004000000399
  0
ARC
  5
765
  8
HIDE
 10
254.52458704028081
 20
62.140101050560673
 30
0.0
 40
0.5
 50
269.99998199988357
 51
359.99995999999589
  0
LINE
  5
767
  8
CENTER
  6
CENTER
 10
268.1969868831996
 20
58.36514105055825
 30
0.0
 11
256.8520668832
 21
64.915131050557761
 31
0.0
  0
ARC
  5
768
  8
HIDE
 10
261.12257688319852
 20
58.640101050560702
 30
0.0
 40
0.5
 50
269.99998199988357
 51
354.99627999998268
  0
CIRCLE
  5
769
  8
HIDE
 10
262.52458688320007
 20
61.640101050560702
 30
0.0
 40
3.1749990000000001
  0
LINE
  5
76A
  8
HIDE
 10
269.52458688320007
 20
64.640101050560716
 30
0.0
 11
263.56410688319858
 21
64.640101050560702
 31
0.0
  0
LINE
  5
76B
  8
HIDE
 10
269.52458688320007
 20
61.640101050560709
 30
0.0
 11
265.69956688319991
 21
61.640101050560709
 31
0.0
  0
ARC
  5
76C
  8
HIDE
 10
269.52458688320007
 20
65.140101050560716
 30
0.0
 40
0.5
 50
269.99998199988357
 51
359.99995999999589
  0
ARC
  5
76D
  8
HIDE
 10
269.52458688320007
 20
61.140101050560709
 30
0.0
 40
0.5
 50
359.99995999999589
 51
90.000000000000057
  0
LINE
  5
76E
  8
HIDE
 10
259.34957688320111
 20
61.640101050560702
 30
0.0
 11
255.5245868832001
 21
61.640101050560702
 31
0.0
  0
LINE
  5
76F
  8
HIDE
 10
261.12257688319852
 20
58.140101050560702
 30
0.0
 11
255.0245868832001
 21
58.140101050560702
 31
0.0
  0
ARC
  5
770
  8
HIDE
 10
255.52458704028081
 20
62.140101050560673
 30
0.0
 40
0.5
 50
180.0
 51
269.99998199988357
  0
ARC
  5
773
  8
HIDE
 10
254.02458688319999
 20
70.266238797386166
 30
0.0
 40
1.0
 50
0.0000400000040257
 51
90.000019999897845
  0
ARC
  5
776
  8
HIDE
 10
254.02458688319999
 20
53.766259571445502
 30
0.0
 40
1.0
 50
269.99998199988357
 51
359.99995999999589
  0
ARC
  5
777
  8
HIDE
 10
241.0245868831999
 20
70.266238797386166
 30
0.0
 40
1.0
 50
90.000019999897845
 51
180.0
  0
ARC
  5
778
  8
HIDE
 10
241.0245868831999
 20
53.766259571445502
 30
0.0
 40
1.0
 50
180.00003600002449
 51
269.99998199988357
  0
ARC
  5
779
  8
HIDE
 10
269.02458688319967
 20
70.266239495517951
 30
0.0
 40
1.0
 50
359.99995999999589
 51
90.000000000000057
  0
ARC
  5
77A
  8
HIDE
 10
256.02458688319979
 20
70.266239495517937
 30
0.0
 40
1.0
 50
90.000019999897845
 51
180.0
  0
ARC
  5
77B
  8
HIDE
 10
269.02458688319967
 20
53.766260269577373
 30
0.0
 40
1.0
 50
269.99998199988357
 51
359.99995999999589
  0
ARC
  5
77C
  8
HIDE
 10
256.02458688319979
 20
53.766260269577359
 30
0.0
 40
1.0
 50
180.0
 51
269.99998199988357
  0
LINE
  5
77D
  8
HIDE
 10
222.02458688320019
 20
66.016259571445545
 30
0.0
 11
240.0245868832001
 21
66.016259571445573
 31
0.0
  0
LINE
  5
77E
  8
HIDE
 10
222.02458688320019
 20
55.266238797386052
 30
0.0
 11
226.0245868832001
 21
55.266238797386052
 31
0.0
  0
LINE
  5
77F
  8
HIDE
 10
226.02458688320019
 20
56.266238797386038
 30
0.0
 11
236.0245868832001
 21
56.266238797386038
 31
0.0
  0
LINE
  5
780
  8
HIDE
 10
236.0245868832001
 20
59.766238797386031
 30
0.0
 11
240.0245868832001
 21
59.766238797386052
 31
0.0
  0
LINE
  5
781
  8
HIDE
 10
284.02458688320007
 20
66.016259571445502
 30
0.0
 11
284.02458688320007
 21
55.266238797386002
 31
0.0
  0
LINE
  5
782
  8
HIDE
 10
274.02458688320007
 20
66.016259571445516
 30
0.0
 11
274.02458688320007
 21
56.266238797385988
 31
0.0
  0
LINE
  5
783
  8
HIDE
 10
288.02458688320007
 20
66.016259571445502
 30
0.0
 11
270.02458688320019
 21
66.016259571445531
 31
0.0
  0
LINE
  5
784
  8
HIDE
 10
288.02458688320002
 20
55.266238797386002
 30
0.0
 11
284.02458688320007
 21
55.266238797386002
 31
0.0
  0
LINE
  5
785
  8
HIDE
 10
284.02458688320007
 20
56.266238797385981
 30
0.0
 11
274.02458688320007
 21
56.266238797385988
 31
0.0
  0
LINE
  5
786
  8
HIDE
 10
274.02458688320007
 20
59.766238797386002
 30
0.0
 11
270.02458688320007
 21
59.766238797386009
 31
0.0
  0
LINE
  5
78F
  8
CENTER
 10
291.78681857182028
 20
48.766238797386059
 30
0.0
 11
270.75022259368723
 21
48.766238797386059
 31
0.0
  0
LINE
  5
790
  8
HIDE
 10
288.02458688320002
 20
51.76623879738608
 30
0.0
 11
279.89061228698449
 21
51.76623879738608
 31
0.0
  0
LINE
  5
791
  8
HIDE
 10
288.02458688320002
 20
51.26623879738608
 30
0.0
 11
275.02458688320007
 21
51.26623879738608
 31
0.0
  0
LINE
  5
792
  8
HIDE
 10
288.02458688320002
 20
45.766238797386073
 30
0.0
 11
279.89061228698449
 21
45.766238797386073
 31
0.0
  0
LINE
  5
793
  8
HIDE
 10
288.02458688320007
 20
46.266238797386038
 30
0.0
 11
275.02458688320007
 21
46.266238797386059
 31
0.0
  0
LINE
  5
794
  8
HIDE
 10
279.02458688320007
 20
46.26623879738608
 30
0.0
 11
279.89061228698449
 21
45.766238797386059
 31
0.0
  0
LINE
  5
795
  8
HIDE
 10
275.02458688320007
 20
46.266238797386052
 30
0.0
 11
273.581211210226
 21
48.766238797386059
 31
0.0
  0
LINE
  5
796
  8
HIDE
 10
275.02458688320007
 20
51.26623879738608
 30
0.0
 11
273.581211210226
 21
48.766238797386059
 31
0.0
  0
LINE
  5
797
  8
HIDE
 10
279.02458688320007
 20
51.26623879738608
 30
0.0
 11
279.89061228698449
 21
51.766238797386102
 31
0.0
  0
LINE
  5
7AB
  8
HIDE
 10
237.0245868832001
 20
114.7662595714456
 30
0.0
 11
270.02458688320007
 21
114.7662595714456
 31
0.0
  0
ARC
  5
9F5
  8
HIDE
 10
100.7017789407853
 20
83.766280345505109
 30
0.0
 40
12.5
 50
300.00000000000921
 51
210.0000000001522
  0
CIRCLE
  5
9F7
  8
0
 10
100.7017789407853
 20
83.766280345505109
 30
0.0
 40
21.0
  0
CIRCLE
  5
9F8
  8
0
 10
92.576778940785303
 20
97.839193157001375
 30
0.0
 40
2.0
  0
CIRCLE
  5
9F9
  8
0
 10
84.451778940792565
 20
83.766280345506928
 30
0.0
 40
1.9999999999999989
  0
CIRCLE
  5
9FA
  8
0
 10
92.576778940792565
 20
69.693367534010648
 30
0.0
 40
2.0
  0
CIRCLE
  5
9FB
  8
0
 10
108.8267789407853
 20
69.69336753400701
 30
0.0
 40
2.0
  0
CIRCLE
  5
9FC
  8
0
 10
116.951778940778
 20
83.766280345501471
 30
0.0
 40
2.0
  0
CIRCLE
  5
9FD
  8
0
 10
108.826778940778
 20
97.839193156997766
 30
0.0
 40
2.0
  0
CIRCLE
  5
9FE
  8
0
 10
100.7017789407853
 20
83.766280345505109
 30
0.0
 40
11.75
  0
INSERT
  5
A00
  8
0
  2
*U10
 10
41571.656800496909
 20
12545.280010217701
 30
0.0
 50
30.0
  0
LINE
  5
A02
  8
0
 10
202.02458688320019
 20
104.7662595714465
 30
0.0
 11
202.02458688320019
 21
62.766259571446511
 31
0.0
  0
LINE
  5
A03
  8
0
 10
222.02458688320019
 20
101.2662595714465
 30
0.0
 11
222.02458688320019
 21
66.266259571444692
 31
0.0
  0
LINE
  5
A04
  8
0
 10
220.02458688320019
 20
101.2662595714465
 30
0.0
 11
220.02458688320019
 21
66.266259571444692
 31
0.0
  0
LINE
  5
A05
  8
0
 10
202.02458688320019
 20
104.7662595714465
 30
0.0
 11
218.003860941027
 21
104.7662595714465
 31
0.0
  0
LINE
  5
A06
  8
0
 10
220.02458688320019
 20
101.2662595714465
 30
0.0
 11
222.02458688319291
 21
101.2662595714465
 31
0.0
  0
LINE
  5
A07
  8
0
 10
220.02458688320019
 20
101.26625957144471
 30
0.0
 11
218.0038609410343
 21
104.7662595714465
 31
0.0
  0
LINE
  5
A08
  8
0
 10
202.02458688320019
 20
62.766259571446511
 30
0.0
 11
218.003860941027
 21
62.766259571446511
 31
0.0
  0
LINE
  5
A09
  8
0
 10
220.02458688320019
 20
66.26625957144833
 30
0.0
 11
218.0038609410343
 21
62.766259571446511
 31
0.0
  0
LINE
  5
A0A
  8
0
 10
220.02458688320019
 20
66.266259571444692
 30
0.0
 11
222.02458688320019
 21
66.266259571444692
 31
0.0
  0
LINE
  5
A0B
  8
0
 10
202.02458688320019
 20
62.766259571446511
 30
0.0
 11
218.003860941027
 21
62.766259571446511
 31
0.0
  0
LINE
  5
A0C
  8
HIDE
 10
202.25722524630089
 20
65.366259571448694
 30
0.0
 11
205.88197982781401
 21
65.366259571448694
 31
0.0
  0
LINE
  5
A0D
  8
HIDE
 10
202.25722524630089
 20
69.666259571449785
 30
0.0
 11
205.88197982781401
 21
69.666259571449785
 31
0.0
  0
LINE
  5
A0E
  8
HIDE
 10
205.88059190583721
 20
69.66857737629843
 30
0.0
 11
207.16941878011261
 21
67.51625957144833
 31
0.0
  0
LINE
  5
A0F
  8
HIDE
 10
205.88197982781401
 20
65.366259571448694
 30
0.0
 11
207.16941878011261
 21
67.51625957144833
 31
0.0
  0
LINE
  5
A10
  8
HIDE
 10
205.88197982781401
 20
65.366259571448694
 30
0.0
 11
205.88197982781401
 21
69.666259571449785
 31
0.0
  0
LINE
  5
A11
  8
HIDE
 10
202.02458688320019
 20
65.176422461836495
 30
0.0
 11
202.25722524630089
 21
65.366259571448694
 31
0.0
  0
LINE
  5
A12
  8
HIDE
 10
202.02458688320019
 20
69.856096681060166
 30
0.0
 11
202.25722524630089
 21
69.666259571449785
 31
0.0
  0
LINE
  5
A13
  8
HIDE
 10
202.25722524630089
 20
65.366259571448694
 30
0.0
 11
202.25722524630089
 21
69.666259571449785
 31
0.0
  0
POINT
  5
A14
  8
HIDE
 10
202.25722524630089
 20
65.366259571448694
 30
0.0
  0
POINT
  5
A15
  8
HIDE
 10
202.25722524630089
 20
69.666259571449785
 30
0.0
  0
LINE
  5
A16
  8
CENTER
 10
199.25222968287679
 20
67.516259571446511
 30
0.0
 11
208.890583828915
 21
67.516259571446511
 31
0.0
  0
LINE
  5
A17
  8
CENTER
 10
211.02458688320019
 20
68.930302172306341
 30
0.0
 11
211.02458688320019
 21
61.552091370867942
 31
0.0
  0
LINE
  5
A18
  8
HIDE
 10
209.02458688320019
 20
67.603733227049901
 30
0.0
 11
209.02458688320019
 21
63.10267717066025
 31
0.0
  0
LINE
  5
A19
  8
HIDE
 10
213.02458688320019
 20
67.603733227049901
 30
0.0
 11
213.02458688320019
 21
63.10267717066025
 31
0.0
  0
LINE
  5
A1A
  8
HIDE
 10
213.02458688320019
 20
67.603733227049901
 30
0.0
 11
209.02458688320019
 21
67.603733227049901
 31
0.0
  0
LINE
  5
A1B
  8
HIDE
 10
209.02458688320019
 20
67.603733227049901
 30
0.0
 11
211.02458688320019
 21
68.508407869460001
 31
0.0
  0
LINE
  5
A1C
  8
HIDE
 10
213.02458688320019
 20
67.603733227049901
 30
0.0
 11
211.02458688320019
 21
68.508407869460001
 31
0.0
  0
LINE
  5
A1D
  8
HIDE
 10
208.74657169824911
 20
62.766259571446511
 30
0.0
 11
209.02458688320019
 21
63.10267717066025
 31
0.0
  0
LINE
  5
A1E
  8
HIDE
 10
213.30260206815129
 20
62.766259571446511
 30
0.0
 11
213.02458688320019
 21
63.10267717066025
 31
0.0
  0
LINE
  5
A1F
  8
HIDE
 10
209.02458688320019
 20
63.10267717066025
 30
0.0
 11
213.02458688320019
 21
63.10267717066025
 31
0.0
  0
POINT
  5
A20
  8
HIDE
 10
213.02458688320019
 20
63.10267717066025
 30
0.0
  0
POINT
  5
A21
  8
HIDE
 10
209.02458688320019
 20
63.10267717066025
 30
0.0
  0
LINE
  5
A22
  8
HIDE
 10
202.21208688320019
 20
100.37451274691929
 30
0.0
 11
209.73179646441841
 21
104.7160190978648
 31
0.0
  0
LINE
  5
A23
  8
HIDE
 10
208.51977741158171
 20
104.0162595714465
 30
0.0
 11
210.95727741158171
 21
99.794385727997081
 31
0.0
  0
LINE
  5
A24
  8
HIDE
 10
203.3236249888736
 20
101.0162595714465
 30
0.0
 11
205.7611249888736
 21
96.794385727997096
 31
0.0
  0
LINE
  5
A25
  8
HIDE
 10
208.1300659798811
 20
103.7912595714516
 30
0.0
 11
212.90763945743069
 21
95.516259571448344
 31
0.0
  0
LINE
  5
A26
  8
HIDE
  6
CONTINUOUS
 10
203.71333642058141
 20
101.24125957144869
 30
0.0
 11
207.01866671169529
 21
95.516259571446511
 31
0.0
  0
LINE
  5
A27
  8
HIDE
 10
206.2733845152992
 20
96.657126201576915
 30
0.0
 11
210.82001788517061
 21
99.282126201576915
 31
0.0
  0
LINE
  5
A28
  8
HIDE
 10
210.82001788517061
 20
99.282126201576915
 30
0.0
 11
210.95727741158171
 21
99.794385727997081
 31
0.0
  0
LINE
  5
A29
  8
HIDE
 10
206.2733845152992
 20
96.657126201576915
 30
0.0
 11
205.7611249888736
 21
96.794385727997096
 31
0.0
  0
LINE
  5
A2A
  8
HIDE
 10
205.7611249888736
 20
96.794385727997096
 30
0.0
 11
210.95727741158171
 21
99.794385727997081
 31
0.0
  0
ARC
  5
A2B
  8
HIDE
 10
209.91929646441841
 20
104.3912595714465
 30
0.0
 40
0.375
 50
90.0
 51
120.00000000000919
  0
ARC
  5
A2C
  8
HIDE
 10
202.39958688320019
 20
100.0497532204991
 30
0.0
 40
0.375
 50
120.00000000000919
 51
180.0
  0
INSERT
  5
A2D
  8
HIDE
  6
CONTINUOUS
  2
*X16
 10
0.0
 20
0.0
 30
0.0
1001
ACAD
1000
HATCH
1002
{
1070
    19
1000
ANSI37
1040
9.75
1040
0.5235987755982988
1000
R14_HATCH_DATA
1000
A2D
1011
1.0
1021
0.0
1031
0.0
1021
0.0
1031
0.0
1011
0.0
1021
0.0
1031
0.0
1021
1.0
1031
0.0
1011
0.0
1021
0.0
1031
0.0
1021
0.0
1031
1.0
1040
0.0
1010
0.0
1020
0.0
1030
1.0
1000
ANSI37
1070
     0
1070
     0
1071
        2
1071
        1
1071
        4
1070
     1
1040
207.0186667116881
1040
95.516259571448344
1040
209.96315308455209
1040
95.516259571448344
1070
     1
1040
209.96315308455209
1040
95.516259571448344
1040
208.54670120023491
1040
97.969626201576915
1070
     1
1040
208.54670120023491
1040
97.969626201576915
1040
206.33833642058141
1040
96.694626201577279
1070
     1
1040
206.33833642058141
1040
96.694626201577279
1040
207.0186667116881
1040
95.516259571448344
1071
        0
1071
        1
1071
        4
1070
     1
1040
209.96315308455939
1040
95.516259571446511
1040
212.90763945743799
1040
95.516259571446511
1070
     1
1040
212.90763945743799
1040
95.516259571446511
1040
210.7550659798884
1040
99.244626201578384
1070
     1
1040
210.7550659798884
1040
99.244626201578384
1040
208.54670120023491
1040
97.969626201576915
1070
     1
1040
208.54670120023491
1040
97.969626201576915
1040
209.96315308455939
1040
95.516259571446511
1071
        0
1070
     0
1070
     1
1040
0.5235987755982988
1040
9.75
1070
     0
1070
     2
1040
1.3089969389957461
1040
64.321102813222183
1040
-84.229745202886903
1040
-1.1772221007898021
1040
0.3154357112186975
1070
     0
1040
2.8797932657906431
1040
64.321102813222183
1040
-84.229745202886903
1040
-0.3154357112186975
1040
-1.1772221007898021
1070
     0
1071
        4
1040
207.8212172049256
1040
95.654962084099765
1040
0.0
1040
210.34807946172199
1040
96.676796470452331
1040
0.0
1040
209.44562797719971
1040
94.152266168685031
1040
0.0
1040
211.79200041206181
1040
93.971943569688008
1040
0.0
1002
}
  0
LINE
  5
A2F
  8
HIDE
 10
202.02458688320019
 20
95.516259571448344
 30
0.0
 11
222.02458688320019
 21
95.516259571446511
 31
0.0
  0
LINE
  5
A30
  8
CENTER
  6
CENTER
 10
205.45857316684251
 20
103.3184208556832
 30
0.0
 11
211.6783440570301
 21
92.545461662439351
 31
0.0
  0
LINE
  5
A33
  8
HIDE
 10
202.02458688320019
 20
72.016259571444692
 30
0.0
 11
222.02458688320019
 21
72.016259571446511
 31
0.0
  0
ARC
  5
A34
  8
0
 10
100.7017789407853
 20
104.8140558267724
 30
0.0
 40
4.7392728971135512
 50
187.0452408327053
 51
352.9547591672947
  0
ARC
  5
A35
  8
0
 10
82.473870680850965
 20
73.242392604864179
 30
0.0
 40
4.7392728971135512
 50
307.04524083284838
 51
112.9547591670577
  0
ARC
  5
A36
  8
0
 10
118.9296872007196
 20
73.242392604867817
 30
0.0
 40
4.7392728971135512
 50
67.045240832942213
 51
232.95475916715159
  0
INSERT
  5
A68
  8
0
  2
*U19
 10
0.0
 20
0.0
 30
0.0
  0
ENDSEC
  0
EOF
