  0
SECTION
  2
HEADER
  9
$ACADVER
  1
AC1009
  9
$INSBASE
 10
0.0
 20
0.0
 30
0.0
  9
$EXTMIN
 10
38.638894408796013
 20
-23.604329016841131
 30
0.0
  9
$EXTMAX
 10
397.46321583729588
 20
273.04174312610382
 30
0.0
  9
$LIMMIN
 10
0.0
 20
0.0
  9
$LIMMAX
 10
12.0
 20
9.0
  9
$ORTHOMODE
 70
     1
  9
$REGENMODE
 70
     1
  9
$FILLMODE
 70
     1
  9
$QTEXTMODE
 70
     0
  9
$MIRRTEXT
 70
     0
  9
$DRAGMODE
 70
     2
  9
$LTSCALE
 40
1.0
  9
$OSMODE
 70
  2239
  9
$ATTMODE
 70
     1
  9
$TEXTSIZE
 40
0.2
  9
$TRACEWID
 40
0.05
  9
$TEXTSTYLE
  7
STANDARD
  9
$CLAYER
  8
0
  9
$CELTYPE
  6
BYLAYER
  9
$CECOLOR
 62
   256
  9
$DIMSCALE
 40
1.0
  9
$DIMASZ
 40
0.18
  9
$DIMEXO
 40
0.0625
  9
$DIMDLI
 40
0.38
  9
$DIMRND
 40
0.0
  9
$DIMDLE
 40
0.0
  9
$DIMEXE
 40
0.18
  9
$DIMTP
 40
0.0
  9
$DIMTM
 40
0.0
  9
$DIMTXT
 40
0.18
  9
$DIMCEN
 40
0.09
  9
$DIMTSZ
 40
0.0
  9
$DIMTOL
 70
     0
  9
$DIMLIM
 70
     0
  9
$DIMTIH
 70
     1
  9
$DIMTOH
 70
     1
  9
$DIMSE1
 70
     0
  9
$DIMSE2
 70
     0
  9
$DIMTAD
 70
     0
  9
$DIMZIN
 70
     0
  9
$DIMBLK
  1

  9
$DIMASO
 70
     1
  9
$DIMSHO
 70
     1
  9
$DIMPOST
  1

  9
$DIMAPOST
  1

  9
$DIMALT
 70
     0
  9
$DIMALTD
 70
     2
  9
$DIMALTF
 40
25.399999999999999
  9
$DIMLFAC
 40
1.0
  9
$DIMTOFL
 70
     0
  9
$DIMTVP
 40
0.0
  9
$DIMTIX
 70
     0
  9
$DIMSOXD
 70
     0
  9
$DIMSAH
 70
     0
  9
$DIMBLK1
  1

  9
$DIMBLK2
  1

  9
$DIMSTYLE
  2
STANDARD
  9
$DIMCLRD
 70
     0
  9
$DIMCLRE
 70
     0
  9
$DIMCLRT
 70
     0
  9
$DIMTFAC
 40
1.0
  9
$DIMGAP
 40
0.09
  9
$LUNITS
 70
     2
  9
$LUPREC
 70
     4
  9
$SKETCHINC
 40
0.1
  9
$FILLETRAD
 40
0.0
  9
$AUNITS
 70
     0
  9
$AUPREC
 70
     0
  9
$MENU
  1
.
  9
$ELEVATION
 40
0.0
  9
$PELEVATION
 40
0.0
  9
$THICKNESS
 40
0.0
  9
$LIMCHECK
 70
     0
  9
$BLIPMODE
 70
     0
  9
$CHAMFERA
 40
1.0
  9
$CHAMFERB
 40
1.0
  9
$SKPOLY
 70
     0
  9
$TDCREATE
 40
2455485.671822188
  9
$TDUPDATE
 40
2456646.7104403712
  9
$TDINDWG
 40
0.5447605556
  9
$TDUSRTIMER
 40
0.5447605556
  9
$USRTIMER
 70
     1
  9
$ANGBASE
 50
0.0
  9
$ANGDIR
 70
     0
  9
$PDMODE
 70
     0
  9
$PDSIZE
 40
0.0
  9
$PLINEWID
 40
0.0
  9
$COORDS
 70
     1
  9
$SPLFRAME
 70
     0
  9
$SPLINETYPE
 70
     6
  9
$SPLINESEGS
 70
     8
  9
$ATTDIA
 70
     0
  9
$ATTREQ
 70
     1
  9
$HANDLING
 70
     1
  9
$HANDSEED
  5
B4A
  9
$SURFTAB1
 70
     6
  9
$SURFTAB2
 70
     6
  9
$SURFTYPE
 70
     6
  9
$SURFU
 70
     6
  9
$SURFV
 70
     6
  9
$UCSNAME
  2

  9
$UCSORG
 10
0.0
 20
0.0
 30
0.0
  9
$UCSXDIR
 10
1.0
 20
0.0
 30
0.0
  9
$UCSYDIR
 10
0.0
 20
1.0
 30
0.0
  9
$PUCSNAME
  2

  9
$PUCSORG
 10
0.0
 20
0.0
 30
0.0
  9
$PUCSXDIR
 10
1.0
 20
0.0
 30
0.0
  9
$PUCSYDIR
 10
0.0
 20
1.0
 30
0.0
  9
$USERI1
 70
     0
  9
$USERI2
 70
     0
  9
$USERI3
 70
     0
  9
$USERI4
 70
     0
  9
$USERI5
 70
     0
  9
$USERR1
 40
0.0
  9
$USERR2
 40
0.0
  9
$USERR3
 40
0.0
  9
$USERR4
 40
0.0
  9
$USERR5
 40
0.0
  9
$WORLDVIEW
 70
     1
  9
$SHADEDGE
 70
     3
  9
$SHADEDIF
 70
    70
  9
$TILEMODE
 70
     1
  9
$MAXACTVP
 70
    48
  9
$PLIMCHECK
 70
     0
  9
$PEXTMIN
 10
0.0
 20
0.0
 30
0.0
  9
$PEXTMAX
 10
0.0
 20
0.0
 30
0.0
  9
$PLIMMIN
 10
0.0
 20
0.0
  9
$PLIMMAX
 10
12.0
 20
9.0
  9
$UNITMODE
 70
     0
  9
$VISRETAIN
 70
     1
  9
$PLINEGEN
 70
     0
  9
$PSLTSCALE
 70
     1
  0
ENDSEC
  0
SECTION
  2
TABLES
  0
TABLE
  2
VPORT
 70
     1
  0
VPORT
  2
*ACTIVE
 70
     0
 10
0.0
 20
0.0
 11
1.0
 21
1.0
 12
235.4623752175624
 22
79.666236084908803
 13
0.0
 23
0.0
 14
0.5
 24
0.5
 15
0.5
 25
0.5
 16
0.0
 26
0.0
 36
1.0
 17
0.0
 27
0.0
 37
0.0
 40
198.92253884367111
 41
2.1408934707903771
 42
50.0
 43
0.0
 44
0.0
 50
0.0
 51
0.0
 71
     0
 72
  1000
 73
     1
 74
     3
 75
     0
 76
     0
 77
     0
 78
     0
  0
ENDTAB
  0
TABLE
  2
LTYPE
 70
     4
  0
LTYPE
  2
CONTINUOUS
 70
     0
  3
Solid line
 72
    65
 73
     0
 40
0.0
  0
LTYPE
  2
CENTER
 70
     0
  3
____ _ ____ _ ____ _ ____ _ ____ _ ____ _ ____ 
 72
    65
 73
     4
 40
2.0
 49
1.25
 49
-0.25
 49
0.25
 49
-0.25
  0
LTYPE
  2
PHANTOM2
 70
     0
  3
Phantom (.5x) ___ _ _ ___ _ _ ___ _ _ ___ _ _
 72
    65
 73
     6
 40
1.25
 49
0.625
 49
-0.125
 49
0.125
 49
-0.125
 49
0.125
 49
-0.125
  0
ENDTAB
  0
TABLE
  2
LAYER
 70
     4
  0
LAYER
  2
0
 70
     0
 62
     7
  6
CONTINUOUS
  0
LAYER
  2
CENTER
 70
     0
 62
     3
  6
CENTER
  0
LAYER
  2
HIDE
 70
     0
 62
     1
  6
CONTINUOUS
  0
ENDTAB
  0
TABLE
  2
STYLE
 70
     7
  0
STYLE
  2
STANDARD
 70
     0
 40
0.0
 41
1.0
 50
0.0
 71
     0
 42
0.2
  3
txt
  4
whgtxt.shx
  0
STYLE
  2
DUKI7
 70
     0
 40
20.0
 41
1.0
 50
0.0
 71
     0
 42
20.0
  3
txt
  4

  0
ENDTAB
  0
TABLE
  2
VIEW
 70
     0
  0
ENDTAB
  0
TABLE
  2
UCS
 70
     0
  0
ENDTAB
  0
TABLE
  2
APPID
 70
    13
  0
APPID
  2
ACAD
 70
     0
  0
APPID
  2
ACADANNOPO
 70
     0
  0
APPID
  2
ACADANNOTATIVE
 70
     0
  0
APPID
  2
ACAD_DSTYLE_DIMJAG
 70
     0
  0
APPID
  2
ACAD_DSTYLE_DIMTALN
 70
     0
  0
APPID
  2
ACAD_MLEADERVER
 70
     0
  0
APPID
  2
ACAD_PSEXT
 70
     0
  0
APPID
  2
ACAECLAYERSTANDARD
 70
     0
  0
APPID
  2
ACAD_DSTYLE_DIMBREAK
 70
     0
  0
APPID
  2
ACAD_DSTYLE_DIMTEXT_FILL
 70
     0
  0
APPID
  2
ACAD_EXEMPT_FROM_CAD_STANDARDS
 70
     0
  0
APPID
  2
ACAD_NAV_VCDISPLAY
 70
     0
  0
APPID
  2
ACDBDYNAMICBLOCKTRUENAME2
 70
     0
  0
ENDTAB
  0
TABLE
  2
DIMSTYLE
 70
     7
  0
DIMSTYLE
  2
STANDARD
 70
     0
  3

  4

  5

  6

  7

 40
1.0
 41
0.18
 42
0.0625
 43
0.38
 44
0.18
 45
0.0
 46
0.0
 47
0.0
 48
0.0
140
0.18
141
0.09
142
0.0
143
25.399999999999999
144
1.0
145
0.0
146
1.0
147
0.09
 71
     0
 72
     0
 73
     1
 74
     1
 75
     0
 76
     0
 77
     0
 78
     0
170
     0
171
     2
172
     0
173
     0
174
     0
175
     0
176
     0
177
     0
178
     0
  0
ENDTAB
  0
ENDSEC
  0
SECTION
  2
BLOCKS
  0
BLOCK
  8
0
  2
$MODEL_SPACE
 70
     0
 10
0.0
 20
0.0
 30
0.0
  3
$MODEL_SPACE
  1

  0
ENDBLK
  5
21
  8
0
  0
BLOCK
 67
     1
  8
0
  2
$PAPER_SPACE
 70
     0
 10
0.0
 20
0.0
 30
0.0
  3
$PAPER_SPACE
  1

  0
ENDBLK
  5
5B
 67
     1
  8
0
  0
BLOCK
  8
0
  2
*U10
 70
     1
 10
0.0
 20
0.0
 30
0.0
  3
*U10
  1

  0
CIRCLE
  5
A45
  8
0
 10
-0.000000000007276
 20
0.0
 30
0.0
 40
2.5
  0
ENDBLK
  5
A46
  8
0
  0
BLOCK
  8
0
  2
*U12
 70
     1
 10
0.0
 20
0.0
 30
0.0
  3
*U12
  1

  0
INSERT
  5
A4C
  8
0
  6
BYBLOCK
 62
     0
  2
*U10
 10
-42145.657432805529
 20
9900.6143382640767
 30
0.0
  0
INSERT
  5
A4D
  8
0
  6
BYBLOCK
 62
     0
  2
*U10
 10
-42163.194447232163
 20
9890.4893382640767
 30
0.0
 50
59.999999999999993
  0
INSERT
  5
A4E
  8
0
  6
BYBLOCK
 62
     0
  2
*U10
 10
-42163.194447232163
 20
9870.2393382640767
 30
0.0
 50
120.0
  0
INSERT
  5
A4F
  8
0
  6
BYBLOCK
 62
     0
  2
*U10
 10
-42145.657432805529
 20
9860.1143382640767
 30
0.0
 50
180.0
  0
INSERT
  5
A50
  8
0
  6
BYBLOCK
 62
     0
  2
*U10
 10
-42128.120418378901
 20
9870.2393382640767
 30
0.0
 41
0.9999999999999998
 42
0.9999999999999998
 43
0.9999999999999998
 50
240.0
  0
INSERT
  5
A51
  8
0
  6
BYBLOCK
 62
     0
  2
*U10
 10
-42128.120418378901
 20
9890.4893382640767
 30
0.0
 50
300.0
  0
ENDBLK
  5
A52
  8
0
  0
BLOCK
  8
0
  2
*U13
 70
     1
 10
0.0
 20
0.0
 30
0.0
  3
*U13
  1

  0
ARC
  5
A55
  8
CENTER
 10
-0.000000000007276
 20
-20.25
 30
0.0
 40
20.25
 50
78.663833983350131
 51
101.3361660166498
  0
LINE
  5
A56
  8
CENTER
 10
-0.000000000007276
 20
4.0
 30
0.0
 11
-0.000000000007276
 21
-4.0
 31
0.0
  0
ENDBLK
  5
A57
  8
0
  0
BLOCK
  8
0
  2
*U14
 70
     1
 10
0.0
 20
0.0
 30
0.0
  3
*U14
  1

  0
INSERT
  5
A5B
  8
0
  6
BYBLOCK
 62
     0
  2
*U13
 10
-42145.657432805529
 20
9900.6143382640767
 30
0.0
  0
INSERT
  5
A5C
  8
0
  6
BYBLOCK
 62
     0
  2
*U13
 10
-42163.194447232163
 20
9890.4893382640767
 30
0.0
 50
59.999999999999993
  0
INSERT
  5
A5D
  8
0
  6
BYBLOCK
 62
     0
  2
*U13
 10
-42163.194447232163
 20
9870.2393382640767
 30
0.0
 50
120.0
  0
INSERT
  5
A5E
  8
0
  6
BYBLOCK
 62
     0
  2
*U13
 10
-42145.657432805529
 20
9860.1143382640767
 30
0.0
 50
180.0
  0
INSERT
  5
A5F
  8
0
  6
BYBLOCK
 62
     0
  2
*U13
 10
-42128.120418378901
 20
9870.2393382640767
 30
0.0
 41
0.9999999999999998
 42
0.9999999999999998
 43
0.9999999999999998
 50
240.0
  0
INSERT
  5
A60
  8
0
  6
BYBLOCK
 62
     0
  2
*U13
 10
-42128.120418378901
 20
9890.4893382640767
 30
0.0
 50
300.0
  0
ENDBLK
  5
A61
  8
0
  0
BLOCK
  8
0
  2
*X16
 70
     1
 10
0.0
 20
0.0
 30
0.0
  3
*X16
  1

  0
LINE
  5
B1F
  8
0
 62
     0
 10
89.288793799950383
 20
43.845431414049827
 30
0.0
 11
88.086153710514395
 21
44.1676778547995
 31
0.0
  0
LINE
  5
B20
  8
0
 62
     0
 10
86.667215409866728
 20
43.286138381692837
 30
0.0
 11
86.593495898505566
 21
43.305891465228477
 31
0.0
  0
LINE
  5
B21
  8
0
 62
     0
 10
90.150580189520852
 20
42.352773602041502
 30
0.0
 11
86.667215409866856
 21
43.286138381692808
 31
0.0
  0
LINE
  5
B22
  8
0
 62
     0
 10
87.529001799436784
 20
41.79348056968464
 30
0.0
 11
85.100838086495315
 21
42.444105075657873
 31
0.0
  0
LINE
  5
B23
  8
0
 62
     0
 10
91.012366579091264
 20
40.860115790033213
 30
0.0
 11
87.529001799441247
 21
41.793480569683453
 31
0.0
  0
LINE
  5
B24
  8
0
 62
     0
 10
88.097130683930985
 20
40.37950804901282
 30
0.0
 11
84.907423409358216
 21
41.234187537326292
 31
0.0
  0
LINE
  5
B25
  8
0
 62
     0
 10
90.121140779837944
 20
40.379508049012628
 30
0.0
 11
90.491605359181776
 21
41.762100681528487
 31
0.0
  0
LINE
  5
B26
  8
0
 62
     0
 10
88.859397934963155
 20
40.379508049012628
 30
0.0
 11
89.629818969610866
 21
43.254758493537672
 31
0.0
  0
LINE
  5
B27
  8
0
 62
     0
 10
87.834667800389539
 20
41.264051525896228
 30
0.0
 11
88.709055349203396
 21
44.527310283575133
 31
0.0
  0
LINE
  5
B28
  8
0
 62
     0
 10
87.597655090088494
 20
40.379508049013111
 30
0.0
 11
87.834667800387933
 21
41.26405152589021
 31
0.0
  0
LINE
  5
B29
  8
0
 62
     0
 10
86.972881410817564
 20
42.756709337901491
 30
0.0
 11
87.216397537194965
 21
43.665523894004309
 31
0.0
  0
LINE
  5
B2A
  8
0
 62
     0
 10
86.335912245213905
 20
40.379508049013907
 30
0.0
 11
86.972881410817109
 21
42.756709337899792
 31
0.0
  0
LINE
  5
B2B
  8
0
 62
     0
 10
85.177730241596137
 20
40.766002370259649
 30
0.0
 11
85.723739725186789
 21
42.803737504434423
 31
0.0
  0
ENDBLK
  5
B2D
  8
0
  0
BLOCK
  8
0
  2
*X17
 70
     1
 10
0.0
 20
0.0
 30
0.0
  3
*X17
  1

  0
LINE
  5
B2F
  8
0
 62
     0
 10
211.19526280423131
 20
101.48218293648461
 30
0.0
 11
209.99262271479529
 21
101.8044293772342
 31
0.0
  0
LINE
  5
B30
  8
0
 62
     0
 10
208.57368441414761
 20
100.9228899041275
 30
0.0
 11
208.49996490278639
 21
100.94264298766321
 31
0.0
  0
LINE
  5
B31
  8
0
 62
     0
 10
212.0570491938017
 20
99.989525124476245
 30
0.0
 11
208.57368441414781
 21
100.9228899041275
 31
0.0
  0
LINE
  5
B32
  8
0
 62
     0
 10
209.43547080371761
 20
99.430232092119383
 30
0.0
 11
207.00730709077621
 21
100.08085659809259
 31
0.0
  0
LINE
  5
B33
  8
0
 62
     0
 10
212.91883558337221
 20
98.496867312467941
 30
0.0
 11
209.4354708037221
 21
99.430232092118189
 31
0.0
  0
LINE
  5
B34
  8
0
 62
     0
 10
210.00359968821189
 20
98.016259571447577
 30
0.0
 11
206.81389241363911
 21
98.870939059761028
 31
0.0
  0
LINE
  5
B35
  8
0
 62
     0
 10
212.02760978411879
 20
98.016259571447364
 30
0.0
 11
212.39807436346271
 21
99.39885220396323
 31
0.0
  0
LINE
  5
B36
  8
0
 62
     0
 10
210.76586693924409
 20
98.016259571447364
 30
0.0
 11
211.5362879738918
 21
100.8915100159724
 31
0.0
  0
LINE
  5
B37
  8
0
 62
     0
 10
209.74113680467039
 20
98.900803048330985
 30
0.0
 11
210.61552435348429
 21
102.1640618060098
 31
0.0
  0
LINE
  5
B38
  8
0
 62
     0
 10
209.50412409436939
 20
98.016259571447861
 30
0.0
 11
209.7411368046688
 21
98.900803048324946
 31
0.0
  0
LINE
  5
B39
  8
0
 62
     0
 10
208.8793504150984
 20
100.39346086033621
 30
0.0
 11
209.1228665414759
 21
101.3022754164391
 31
0.0
  0
LINE
  5
B3A
  8
0
 62
     0
 10
208.2423812494948
 20
98.016259571448643
 30
0.0
 11
208.879350415098
 21
100.3934608603345
 31
0.0
  0
LINE
  5
B3B
  8
0
 62
     0
 10
207.08419924587699
 20
98.402753892694392
 30
0.0
 11
207.63020872946771
 21
100.4404890268692
 31
0.0
  0
ENDBLK
  5
B3D
  8
0
  0
BLOCK
  8
0
  2
*U18
 70
     1
 10
0.0
 20
0.0
 30
0.0
  3
*U18
  1

  0
TEXT
  5
B43
  8
0
 10
1.796961047846074
 20
7.5649477821703917
 30
0.0
 40
20.0
  1
WBK17
  7
DUKI7
  0
ENDBLK
  5
B45
  8
0
  0
BLOCK
  8
0
  2
*U19
 70
     1
 10
0.0
 20
0.0
 30
0.0
  3
*U19
  1

  0
TEXT
  5
B47
  8
0
 10
171.63701750447399
 20
-16.756502929884611
 30
0.0
 40
20.0
  1
WBK30-DFD
  7
DUKI7
  0
ENDBLK
  5
B49
  8
0
  0
ENDSEC
  0
SECTION
  2
ENTITIES
  0
LINE
  5
2B0
  8
CENTER
  6
CENTER
 10
100.7017789407853
 20
153.51113963887579
 30
0.0
 11
100.7017789407853
 21
14.021421052134309
 31
0.0
  0
LINE
  5
2B4
  8
CENTER
  6
CENTER
 10
162.7646634727746
 20
83.766280345505095
 30
0.0
 11
38.638894408796013
 21
83.766280345505109
 31
0.0
  0
LINE
  5
30E
  8
CENTER
 10
315.3981053408894
 20
83.766259571445588
 30
0.0
 11
192.44630726384861
 21
83.766259571445588
 31
0.0
  0
LINE
  5
41E
  8
CENTER
  6
CENTER
 10
347.46322583729568
 20
143.76628034550509
 30
0.0
 11
347.46322583729568
 21
23.76628034550512
 31
0.0
  0
LINE
  5
41F
  8
CENTER
  6
CENTER
 10
397.46321583729588
 20
83.766280345505109
 30
0.0
 11
347.46322583729568
 21
83.766280345505109
 31
0.0
  0
ARC
  5
5A7
  8
0
 10
100.7017789407853
 20
83.766280345505109
 30
0.0
 40
65.0
 50
219.71513723182619
 51
320.28486276817381
  0
ARC
  5
5B0
  8
0
 10
100.7017789407853
 20
83.766280345505109
 30
0.0
 40
65.0
 50
39.715137231826191
 51
140.28486276817381
  0
LINE
  5
5B1
  8
0
 10
150.70177894078529
 20
125.2993996600954
 30
0.0
 11
150.70177894078529
 21
42.233161030914729
 31
0.0
  0
LINE
  5
5B2
  8
0
 10
50.701778940785289
 20
42.233161030914758
 30
0.0
 11
50.701778940785289
 21
125.2993996600955
 31
0.0
  0
CIRCLE
  5
5B5
  8
CENTER
 10
100.7017789407853
 20
83.766280345505109
 30
0.0
 40
55.0
  0
CIRCLE
  5
5B6
  8
0
 10
100.7017789407853
 20
83.766280345505109
 30
0.0
 40
45.0
  0
CIRCLE
  5
5B7
  8
CENTER
 10
100.7017789407853
 20
83.766280345505109
 30
0.0
 40
36.5
  0
CIRCLE
  5
5B8
  8
0
 10
100.7017789407853
 20
83.766280345505109
 30
0.0
 40
28.5
  0
CIRCLE
  5
5B9
  8
0
 10
100.7017789407853
 20
83.766280345505109
 30
0.0
 40
27.5
  0
LINE
  5
5BB
  8
CENTER
 10
123.83275109669189
 20
94.552429802374391
 30
0.0
 11
144.7967069682185
 21
104.3280829704907
 31
0.0
  0
CIRCLE
  5
5C2
  8
0
 10
133.78201316762301
 20
99.191846899040641
 30
0.0
 40
7.0
  0
CIRCLE
  5
5C3
  8
0
 10
133.78201316762301
 20
99.191846899040641
 30
0.0
 40
6.0
  0
LINE
  5
5C8
  8
0
 10
130.757013167623
 20
97.431342709894807
 30
0.0
 11
130.757013167623
 21
100.9523510881864
 31
0.0
  0
LINE
  5
5C9
  8
0
 10
130.757013167623
 20
97.431342709894807
 30
0.0
 11
130.757013167623
 21
100.9523510881864
 31
0.0
  0
LINE
  5
5CA
  8
0
 10
136.80701316762301
 20
97.431342709894864
 30
0.0
 11
136.80701316762301
 21
100.9523510881864
 31
0.0
  0
LINE
  5
5CD
  8
0
 10
130.757013167623
 20
100.9523510881865
 30
0.0
 11
133.78201316762301
 21
102.6918468990406
 31
0.0
  0
LINE
  5
5CE
  8
0
 10
133.78201316762301
 20
102.6918468990406
 30
0.0
 11
136.80701316762301
 21
100.9523510881864
 31
0.0
  0
LINE
  5
5CF
  8
0
 10
130.757013167623
 20
97.431342709894793
 30
0.0
 11
133.78201316762301
 21
95.691846899040641
 31
0.0
  0
LINE
  5
5D0
  8
0
 10
133.78201316762301
 20
95.691846899040641
 30
0.0
 11
136.8070131676231
 21
97.431342709894906
 31
0.0
  0
CIRCLE
  5
5D3
  8
0
 10
100.7017789407853
 20
120.26628034550509
 30
0.0
 40
7.0
  0
CIRCLE
  5
5D4
  8
0
 10
100.7017789407853
 20
120.26628034550509
 30
0.0
 40
6.0
  0
LINE
  5
5D5
  8
0
 10
103.72677894078529
 20
118.5057761563593
 30
0.0
 11
103.72677894078529
 21
122.0267845346509
 31
0.0
  0
LINE
  5
5D6
  8
0
 10
97.676778940785283
 20
118.5057761563593
 30
0.0
 11
97.676778940785283
 21
122.0267845346509
 31
0.0
  0
LINE
  5
5D7
  8
0
 10
97.676778940785283
 20
118.5057761563593
 30
0.0
 11
97.676778940785283
 21
122.0267845346509
 31
0.0
  0
LINE
  5
5D8
  8
0
 10
97.676778940785312
 20
122.0267845346509
 30
0.0
 11
100.7017789407853
 21
123.76628034550509
 31
0.0
  0
LINE
  5
5D9
  8
0
 10
100.7017789407853
 20
123.76628034550509
 30
0.0
 11
103.72677894078529
 21
122.0267845346509
 31
0.0
  0
LINE
  5
5DA
  8
0
 10
97.676778940785312
 20
118.5057761563592
 30
0.0
 11
100.7017789407853
 21
116.76628034550509
 31
0.0
  0
LINE
  5
5DB
  8
0
 10
100.7017789407853
 20
116.76628034550509
 30
0.0
 11
103.72677894078529
 21
118.5057761563593
 31
0.0
  0
CIRCLE
  5
5DC
  8
0
 10
100.7017789407853
 20
47.266280345505102
 30
0.0
 40
7.0
  0
CIRCLE
  5
5DD
  8
0
 10
100.7017789407853
 20
47.266280345505102
 30
0.0
 40
6.0
  0
LINE
  5
5DE
  8
0
 10
103.72677894078529
 20
49.026784534650893
 30
0.0
 11
103.72677894078529
 21
45.505776156359268
 31
0.0
  0
LINE
  5
5DF
  8
0
 10
97.676778940785283
 20
49.026784534650943
 30
0.0
 11
97.676778940785283
 21
45.505776156359268
 31
0.0
  0
LINE
  5
5E0
  8
0
 10
97.676778940785283
 20
49.026784534650943
 30
0.0
 11
97.676778940785283
 21
45.505776156359268
 31
0.0
  0
LINE
  5
5E1
  8
0
 10
97.676778940785312
 20
45.505776156359254
 30
0.0
 11
100.7017789407853
 21
43.766280345505109
 31
0.0
  0
LINE
  5
5E2
  8
0
 10
100.7017789407853
 20
43.766280345505109
 30
0.0
 11
103.72677894078529
 21
45.505776156359317
 31
0.0
  0
LINE
  5
5E3
  8
0
 10
97.676778940785312
 20
49.026784534650957
 30
0.0
 11
100.7017789407853
 21
50.766280345505109
 31
0.0
  0
LINE
  5
5E4
  8
0
 10
100.7017789407853
 20
50.766280345505109
 30
0.0
 11
103.72677894078529
 21
49.026784534650837
 31
0.0
  0
LINE
  5
5E5
  8
CENTER
 10
123.83275109669189
 20
72.980130888635813
 30
0.0
 11
144.7967069682185
 21
63.204477720519492
 31
0.0
  0
CIRCLE
  5
5E6
  8
0
 10
133.78201316762301
 20
68.340713791969563
 30
0.0
 40
7.0
  0
CIRCLE
  5
5E7
  8
0
 10
133.78201316762301
 20
68.340713791969563
 30
0.0
 40
6.0
  0
LINE
  5
5E8
  8
0
 10
136.80701316762301
 20
70.10121798111534
 30
0.0
 11
136.80701316762301
 21
66.580209602823729
 31
0.0
  0
LINE
  5
5E9
  8
0
 10
130.757013167623
 20
70.101217981115397
 30
0.0
 11
130.757013167623
 21
66.580209602823729
 31
0.0
  0
LINE
  5
5EA
  8
0
 10
130.757013167623
 20
70.101217981115397
 30
0.0
 11
130.757013167623
 21
66.580209602823729
 31
0.0
  0
LINE
  5
5EB
  8
0
 10
130.757013167623
 20
66.580209602823714
 30
0.0
 11
133.78201316762301
 21
64.840713791969563
 31
0.0
  0
LINE
  5
5EC
  8
0
 10
133.78201316762301
 20
64.840713791969563
 30
0.0
 11
136.80701316762301
 21
66.580209602823771
 31
0.0
  0
LINE
  5
5ED
  8
0
 10
130.757013167623
 20
70.101217981115411
 30
0.0
 11
133.78201316762301
 21
71.840713791969563
 31
0.0
  0
LINE
  5
5EE
  8
0
 10
133.78201316762301
 20
71.840713791969563
 30
0.0
 11
136.8070131676231
 21
70.101217981115298
 31
0.0
  0
LINE
  5
5EF
  8
CENTER
 10
77.570806784878684
 20
94.552429802374363
 30
0.0
 11
56.606850913352069
 21
104.3280829704906
 31
0.0
  0
CIRCLE
  5
5F0
  8
0
 10
67.621544713947571
 20
99.191846899040627
 30
0.0
 40
7.0
  0
CIRCLE
  5
5F1
  8
0
 10
67.621544713947571
 20
99.191846899040627
 30
0.0
 40
6.0
  0
LINE
  5
5F2
  8
0
 10
64.596544713947523
 20
97.431342709894835
 30
0.0
 11
64.596544713947566
 21
100.9523510881864
 31
0.0
  0
LINE
  5
5F3
  8
0
 10
70.646544713947577
 20
97.431342709894793
 30
0.0
 11
70.646544713947577
 21
100.9523510881864
 31
0.0
  0
LINE
  5
5F4
  8
0
 10
70.646544713947577
 20
97.431342709894793
 30
0.0
 11
70.646544713947577
 21
100.9523510881864
 31
0.0
  0
LINE
  5
5F5
  8
0
 10
70.646544713947549
 20
100.9523510881864
 30
0.0
 11
67.621544713947571
 21
102.6918468990406
 31
0.0
  0
LINE
  5
5F6
  8
0
 10
67.621544713947571
 20
102.6918468990406
 30
0.0
 11
64.596544713947523
 21
100.9523510881864
 31
0.0
  0
LINE
  5
5F7
  8
0
 10
70.646544713947549
 20
97.431342709894764
 30
0.0
 11
67.621544713947571
 21
95.691846899040598
 31
0.0
  0
LINE
  5
5F8
  8
0
 10
67.621544713947571
 20
95.691846899040598
 30
0.0
 11
64.596544713947509
 21
97.431342709894878
 31
0.0
  0
LINE
  5
5F9
  8
CENTER
 10
77.570806784878712
 20
72.980130888635784
 30
0.0
 11
56.606850913352098
 21
63.204477720519449
 31
0.0
  0
CIRCLE
  5
5FA
  8
0
 10
67.621544713947571
 20
68.340713791969534
 30
0.0
 40
7.0
  0
CIRCLE
  5
5FB
  8
0
 10
67.621544713947571
 20
68.340713791969534
 30
0.0
 40
6.0
  0
LINE
  5
5FC
  8
0
 10
64.596544713947523
 20
70.101217981115312
 30
0.0
 11
64.596544713947594
 21
66.5802096028237
 31
0.0
  0
LINE
  5
5FD
  8
0
 10
70.646544713947577
 20
70.101217981115369
 30
0.0
 11
70.646544713947605
 21
66.5802096028237
 31
0.0
  0
LINE
  5
5FE
  8
0
 10
70.646544713947577
 20
70.101217981115369
 30
0.0
 11
70.646544713947605
 21
66.5802096028237
 31
0.0
  0
LINE
  5
5FF
  8
0
 10
70.646544713947577
 20
66.580209602823686
 30
0.0
 11
67.6215447139476
 21
64.840713791969534
 31
0.0
  0
LINE
  5
600
  8
0
 10
67.6215447139476
 20
64.840713791969534
 30
0.0
 11
64.596544713947566
 21
66.580209602823743
 31
0.0
  0
LINE
  5
601
  8
0
 10
70.646544713947549
 20
70.101217981115383
 30
0.0
 11
67.621544713947571
 21
71.840713791969534
 31
0.0
  0
LINE
  5
602
  8
0
 10
67.621544713947571
 20
71.840713791969534
 30
0.0
 11
64.596544713947509
 21
70.101217981115255
 31
0.0
  0
LINE
  5
603
  8
CENTER
 10
121.6288883979777
 20
104.6933898026975
 30
0.0
 11
150.26027861411609
 21
133.32478001883601
 31
0.0
  0
LINE
  5
609
  8
CENTER
 10
121.6288883979777
 20
62.839170888312708
 30
0.0
 11
150.26027861411609
 21
34.207780672174209
 31
0.0
  0
LINE
  5
60A
  8
CENTER
 10
79.774669483592874
 20
104.6933898026975
 30
0.0
 11
51.143279267454403
 21
133.32478001883601
 31
0.0
  0
LINE
  5
60B
  8
CENTER
 10
79.774669483592916
 20
62.839170888312701
 30
0.0
 11
51.143279267454432
 21
34.207780672174188
 31
0.0
  0
CIRCLE
  5
60C
  8
0
 10
139.5926519060454
 20
122.6571533107652
 30
0.0
 40
8.75
  0
CIRCLE
  5
60D
  8
0
 10
139.5926519060454
 20
122.6571533107652
 30
0.0
 40
5.5
  0
CIRCLE
  5
60E
  8
0
 10
100.7017789407853
 20
138.76628034550509
 30
0.0
 40
8.75
  0
CIRCLE
  5
60F
  8
0
 10
100.7017789407853
 20
138.76628034550509
 30
0.0
 40
5.5
  0
CIRCLE
  5
610
  8
0
 10
61.810905975525181
 20
122.6571533107652
 30
0.0
 40
8.75
  0
CIRCLE
  5
611
  8
0
 10
61.810905975525181
 20
122.6571533107652
 30
0.0
 40
5.5
  0
CIRCLE
  5
612
  8
0
 10
61.810905975525223
 20
44.87540738024498
 30
0.0
 40
8.75
  0
CIRCLE
  5
613
  8
0
 10
61.810905975525223
 20
44.87540738024498
 30
0.0
 40
5.5
  0
CIRCLE
  5
614
  8
0
 10
100.7017789407853
 20
28.766280345505109
 30
0.0
 40
8.75
  0
CIRCLE
  5
615
  8
0
 10
100.7017789407853
 20
28.766280345505109
 30
0.0
 40
5.5
  0
CIRCLE
  5
616
  8
0
 10
139.5926519060454
 20
44.87540738024498
 30
0.0
 40
8.75
  0
CIRCLE
  5
617
  8
0
 10
139.5926519060454
 20
44.87540738024498
 30
0.0
 40
5.5
  0
ARC
  5
618
  8
HIDE
 10
126.5111764540943
 20
109.5756778588141
 30
0.0
 40
3.0
 50
214.2163797337563
 51
120.1909666333014
  0
CIRCLE
  5
61C
  8
0
 10
126.5111764540943
 20
109.5756778588141
 30
0.0
 40
2.5
  0
ARC
  5
61D
  8
HIDE
 10
126.5111764540943
 20
57.956882832196108
 30
0.0
 40
3.0
 50
239.80903336669829
 51
145.78362026624319
  0
CIRCLE
  5
61E
  8
0
 10
126.5111764540943
 20
57.956882832196108
 30
0.0
 40
2.5
  0
ARC
  5
61F
  8
HIDE
 10
74.892381427476295
 20
109.5756778588141
 30
0.0
 40
3.0
 50
59.809033366698984
 51
325.7836202662437
  0
CIRCLE
  5
620
  8
0
 10
74.892381427476295
 20
109.5756778588141
 30
0.0
 40
2.5
  0
ARC
  5
621
  8
HIDE
 10
74.892381427476295
 20
57.956882832196108
 30
0.0
 40
3.0
 50
34.216379733756632
 51
300.190966633301
  0
CIRCLE
  5
622
  8
0
 10
74.892381427476295
 20
57.956882832196108
 30
0.0
 40
2.5
  0
LINE
  5
63D
  8
0
 10
238.0245868832001
 20
148.76628034550509
 30
0.0
 11
254.02458688320019
 21
148.76628034550509
 31
0.0
  0
LINE
  5
640
  8
HIDE
 10
222.02458688320019
 20
98.766259571445616
 30
0.0
 11
240.0245868832001
 21
98.766259571445616
 31
0.0
  0
LINE
  5
643
  8
0
 10
237.0245868832001
 20
128.7662595714456
 30
0.0
 11
237.0245868832001
 21
147.76628034550509
 31
0.0
  0
LINE
  5
644
  8
0
 10
255.02458688320019
 20
126.2662595714456
 30
0.0
 11
255.02458688320019
 21
147.76628034550509
 31
0.0
  0
LINE
  5
645
  8
0
 10
237.0245868832001
 20
147.76628034550509
 30
0.0
 11
238.0245868832001
 21
148.76628034550509
 31
0.0
  0
LINE
  5
646
  8
0
 10
255.02458688320019
 20
147.76628034550509
 30
0.0
 11
254.02458688320019
 21
148.76628034550509
 31
0.0
  0
LINE
  5
648
  8
0
 10
302.02458688320007
 20
126.2662595714456
 30
0.0
 11
255.0245868832001
 21
126.2662595714456
 31
0.0
  0
LINE
  5
649
  8
0
 10
303.02458688320019
 20
83.766259571445659
 30
0.0
 11
303.02458688320007
 21
125.2662595714456
 31
0.0
  0
LINE
  5
64A
  8
0
 10
302.02458688320007
 20
126.2662595714456
 30
0.0
 11
303.02458688320007
 21
125.2662595714456
 31
0.0
  0
LINE
  5
64C
  8
0
 10
237.0245868832001
 20
128.7662595714456
 30
0.0
 11
223.0245868832001
 21
128.7662595714456
 31
0.0
  0
LINE
  5
64D
  8
0
 10
222.02458688320019
 20
83.766259571445588
 30
0.0
 11
222.02458688320019
 21
127.7662595714456
 31
0.0
  0
LINE
  5
64E
  8
0
 10
222.02458688320019
 20
127.7662595714456
 30
0.0
 11
223.0245868832001
 21
128.7662595714456
 31
0.0
  0
LINE
  5
64F
  8
HIDE
 10
237.0245868832001
 20
128.7662595714456
 30
0.0
 11
237.0245868832001
 21
114.7662595714456
 31
0.0
  0
LINE
  5
650
  8
CENTER
 10
232.0245868832001
 20
138.76628034550501
 30
0.0
 11
260.02458688320019
 21
138.76628034550501
 31
0.0
  0
LINE
  5
653
  8
HIDE
 10
237.0245868832001
 20
147.51628034550509
 30
0.0
 11
248.0245868832001
 21
147.51628034550509
 31
0.0
  0
LINE
  5
654
  8
HIDE
 10
237.0245868832001
 20
130.01628034550509
 30
0.0
 11
248.0245868832001
 21
130.01628034550509
 31
0.0
  0
LINE
  5
655
  8
HIDE
 10
248.0245868832001
 20
144.26628034550509
 30
0.0
 11
255.02458688320019
 21
144.26628034550509
 31
0.0
  0
LINE
  5
656
  8
HIDE
 10
248.0245868832001
 20
133.26628034550509
 30
0.0
 11
255.02458688320019
 21
133.26628034550509
 31
0.0
  0
LINE
  5
659
  8
HIDE
 10
248.0245868832001
 20
147.51628034550509
 30
0.0
 11
248.0245868832001
 21
130.01628034550509
 31
0.0
  0
LINE
  5
65A
  8
HIDE
 10
285.02458688320007
 20
114.7662595714456
 30
0.0
 11
237.0245868832001
 21
114.7662595714456
 31
0.0
  0
LINE
  5
65B
  8
HIDE
 10
285.02458688320007
 20
114.7662595714456
 30
0.0
 11
285.02458688320007
 21
99.76625957144563
 31
0.0
  0
LINE
  5
674
  8
CENTER
  6
CENTER
 10
253.19704688320169
 20
102.6173680923303
 30
0.0
 11
241.85211688319879
 21
109.16736809233321
 31
0.0
  0
CIRCLE
  5
675
  8
HIDE
 10
247.5245868832001
 20
105.8924180923304
 30
0.0
 40
3.1749990000000001
  0
LINE
  5
676
  8
HIDE
 10
255.0245868832001
 20
109.3924180923304
 30
0.0
 11
248.92658688319841
 21
109.3924180923304
 31
0.0
  0
LINE
  5
677
  8
CENTER
  6
CENTER
 10
283.1969868831996
 20
109.1673780923329
 30
0.0
 11
271.85206688320011
 21
102.6173880923334
 31
0.0
  0
ARC
  5
678
  8
HIDE
 10
276.12257688319852
 20
108.8924180923305
 30
0.0
 40
0.5
 50
5.003720000016588
 51
90.000018000116455
  0
CIRCLE
  5
679
  8
HIDE
 10
277.52458688320007
 20
105.8924180923304
 30
0.0
 40
3.1749990000000001
  0
LINE
  5
67A
  8
HIDE
 10
284.52458688320007
 20
102.8924180923304
 30
0.0
 11
278.56410688319858
 21
102.8924180923304
 31
0.0
  0
LINE
  5
67B
  8
HIDE
 10
284.52458688320007
 20
105.8924180923304
 30
0.0
 11
280.69956688319991
 21
105.8924180923304
 31
0.0
  0
ARC
  5
67C
  8
HIDE
 10
284.52458688320007
 20
102.3924180923305
 30
0.0
 40
0.5
 50
0.0000400000040257
 51
90.000018000116455
  0
ARC
  5
67D
  8
HIDE
 10
284.52458688320007
 20
106.3924180923304
 30
0.0
 40
0.5
 50
270.0
 51
0.0000400000040257
  0
LINE
  5
67E
  8
HIDE
 10
274.34957688320111
 20
105.8924180923304
 30
0.0
 11
270.52458688320007
 21
105.8924180923304
 31
0.0
  0
LINE
  5
67F
  8
HIDE
 10
276.12257688319852
 20
109.3924180923304
 30
0.0
 11
270.02458688320007
 21
109.3924180923304
 31
0.0
  0
LINE
  5
680
  8
HIDE
 10
254.5245868832001
 20
105.8924180923304
 30
0.0
 11
250.6995868831994
 21
105.8924180923304
 31
0.0
  0
LINE
  5
681
  8
HIDE
 10
246.48506688320171
 20
102.8924180923304
 30
0.0
 11
240.5245868832001
 21
102.8924180923304
 31
0.0
  0
LINE
  5
682
  8
HIDE
 10
244.3495968832006
 20
105.8924180923304
 30
0.0
 11
240.5245868832001
 21
105.8924180923304
 31
0.0
  0
ARC
  5
683
  8
HIDE
 10
248.92658688319841
 20
108.8924180923305
 30
0.0
 40
0.5
 50
90.000018000116455
 51
174.9962780000819
  0
ARC
  5
684
  8
HIDE
 10
240.5245868832001
 20
102.3924180923305
 30
0.0
 40
0.5
 50
90.000018000116455
 51
179.99996399997551
  0
ARC
  5
685
  8
HIDE
 10
240.5245868832001
 20
106.3924180923304
 30
0.0
 40
0.5
 50
179.99995999999589
 51
269.9999800001022
  0
ARC
  5
68E
  8
HIDE
 10
254.52458704028081
 20
105.3924180923305
 30
0.0
 40
0.5
 50
0.0000400000040257
 51
90.000018000116455
  0
ARC
  5
68F
  8
HIDE
 10
270.52458704028078
 20
105.3924180923305
 30
0.0
 40
0.5
 50
90.000018000116455
 51
180.0
  0
LINE
  5
690
  8
HIDE
 10
270.02458688320007
 20
113.7662595714457
 30
0.0
 11
270.02458688320007
 21
99.76625957144563
 31
0.0
  0
LINE
  5
692
  8
HIDE
 10
255.0245868832001
 20
113.7662595714457
 30
0.0
 11
255.0245868832001
 21
99.76625887331376
 31
0.0
  0
LINE
  5
693
  8
CENTER
  6
CENTER
 10
268.1969868831996
 20
109.1673780923329
 30
0.0
 11
256.8520668832
 21
102.6173880923334
 31
0.0
  0
ARC
  5
694
  8
HIDE
 10
261.12257688319852
 20
108.8924180923305
 30
0.0
 40
0.5
 50
5.003720000016588
 51
90.000018000116455
  0
CIRCLE
  5
695
  8
HIDE
 10
262.52458688320007
 20
105.8924180923304
 30
0.0
 40
3.1749990000000001
  0
LINE
  5
696
  8
HIDE
 10
269.52458688320007
 20
102.8924180923304
 30
0.0
 11
263.56410688319858
 21
102.8924180923304
 31
0.0
  0
LINE
  5
697
  8
HIDE
 10
269.52458688320007
 20
105.8924180923304
 30
0.0
 11
265.69956688319991
 21
105.8924180923304
 31
0.0
  0
ARC
  5
698
  8
HIDE
 10
269.52458688320007
 20
102.3924180923305
 30
0.0
 40
0.5
 50
0.0000400000040257
 51
90.000018000116455
  0
ARC
  5
699
  8
HIDE
 10
269.52458688320007
 20
106.3924180923304
 30
0.0
 40
0.5
 50
270.0
 51
0.0000400000040257
  0
LINE
  5
69A
  8
HIDE
 10
259.34957688320111
 20
105.8924180923304
 30
0.0
 11
255.5245868832001
 21
105.8924180923304
 31
0.0
  0
LINE
  5
69B
  8
HIDE
 10
261.12257688319852
 20
109.3924180923304
 30
0.0
 11
255.0245868832001
 21
109.3924180923304
 31
0.0
  0
ARC
  5
69C
  8
HIDE
 10
255.52458704028081
 20
105.3924180923305
 30
0.0
 40
0.5
 50
90.000018000116455
 51
180.0
  0
LINE
  5
69D
  8
HIDE
 10
240.0245868832001
 20
114.7662595714456
 30
0.0
 11
240.0245868832001
 21
98.766259571445616
 31
0.0
  0
ARC
  5
6B0
  8
HIDE
 10
284.02458688320007
 20
99.76625957144563
 30
0.0
 40
1.0
 50
270.0
 51
0.0000400000040257
  0
ARC
  5
6B1
  8
HIDE
 10
271.02458688320007
 20
99.76625957144563
 30
0.0
 40
1.0
 50
180.0
 51
269.9999800001022
  0
ARC
  5
6B2
  8
HIDE
 10
254.02458688319999
 20
99.766259571445545
 30
0.0
 40
1.0
 50
269.9999800001022
 51
359.99995999999589
  0
ARC
  5
6B5
  8
HIDE
 10
284.02458688320007
 20
113.7662595714457
 30
0.0
 40
1.0
 50
0.0000400000040257
 51
90.000018000116455
  0
ARC
  5
6B6
  8
HIDE
 10
271.02458688320007
 20
113.7662595714457
 30
0.0
 40
1.0
 50
90.000018000116455
 51
180.0
  0
ARC
  5
6B7
  8
HIDE
 10
254.02458688319999
 20
113.7662595714457
 30
0.0
 40
1.0
 50
0.0000400000040257
 51
90.000018000116455
  0
ARC
  5
6B8
  8
HIDE
 10
241.0245868831999
 20
99.766259571445545
 30
0.0
 40
1.0
 50
180.0
 51
269.9999800001022
  0
ARC
  5
6B9
  8
HIDE
 10
241.0245868831999
 20
113.7662595714457
 30
0.0
 40
1.0
 50
90.000018000116455
 51
179.99996399997551
  0
ARC
  5
6BA
  8
HIDE
 10
269.02458688319967
 20
99.76625887331376
 30
0.0
 40
1.0
 50
270.0
 51
0.0000400000040257
  0
ARC
  5
6BB
  8
HIDE
 10
256.02458688319979
 20
99.76625887331376
 30
0.0
 40
1.0
 50
180.0
 51
269.9999800001022
  0
ARC
  5
6BC
  8
HIDE
 10
269.02458688319967
 20
113.7662588733138
 30
0.0
 40
1.0
 50
0.0000400000040257
 51
90.000018000116455
  0
ARC
  5
6BD
  8
HIDE
 10
256.02458688319979
 20
113.7662588733138
 30
0.0
 40
1.0
 50
90.000018000116455
 51
180.0
  0
LINE
  5
6BE
  8
HIDE
 10
284.02458688320007
 20
98.766259571445616
 30
0.0
 11
303.0245868832003
 21
98.766259571445616
 31
0.0
  0
LINE
  5
6BF
  8
HIDE
 10
271.02458688320007
 20
98.766259571445616
 30
0.0
 11
284.02458688320007
 21
98.766259571445616
 31
0.0
  0
LINE
  5
6C0
  8
HIDE
 10
256.02340524737929
 20
98.766259571445616
 30
0.0
 11
269.02576851902762
 21
98.766259571445616
 31
0.0
  0
LINE
  5
6C3
  8
HIDE
 10
241.0245868831999
 20
98.766259571445616
 30
0.0
 11
254.02458688319999
 21
98.766259571445616
 31
0.0
  0
LINE
  5
6C8
  8
HIDE
 10
222.0245868832003
 20
103.7662595714456
 30
0.0
 11
240.0245868832001
 21
103.7662595714456
 31
0.0
  0
LINE
  5
6C9
  8
HIDE
 10
222.02458688320019
 20
112.26628034550509
 30
0.0
 11
226.0245868832001
 21
112.26628034550509
 31
0.0
  0
LINE
  5
6CA
  8
HIDE
 10
226.02458688320019
 20
111.26628034550509
 30
0.0
 11
236.0245868832001
 21
111.26628034550509
 31
0.0
  0
LINE
  5
6CB
  8
HIDE
 10
236.0245868832001
 20
107.76628034550509
 30
0.0
 11
240.0245868832001
 21
107.76628034550509
 31
0.0
  0
LINE
  5
6CC
  8
HIDE
 10
226.0245868832001
 20
103.7662595714456
 30
0.0
 11
226.0245868832001
 21
112.26628034550509
 31
0.0
  0
LINE
  5
6CD
  8
HIDE
 10
236.0245868832001
 20
103.7662595714456
 30
0.0
 11
236.0245868832001
 21
111.26628034550509
 31
0.0
  0
LINE
  5
6D1
  8
HIDE
 10
299.02458688320019
 20
103.7662595714456
 30
0.0
 11
299.02458688320019
 21
112.26628034550519
 31
0.0
  0
LINE
  5
6D2
  8
HIDE
 10
289.02458688320019
 20
103.7662595714456
 30
0.0
 11
289.02458688320019
 21
111.26628034550519
 31
0.0
  0
LINE
  5
6D3
  8
HIDE
 10
303.02458688320019
 20
103.7662595714456
 30
0.0
 11
285.0245868832003
 21
103.7662595714455
 31
0.0
  0
LINE
  5
6D4
  8
HIDE
 10
303.02458688320007
 20
112.26628034550519
 30
0.0
 11
299.02458688320019
 21
112.26628034550519
 31
0.0
  0
LINE
  5
6D5
  8
HIDE
 10
299.02458688320007
 20
111.26628034550519
 30
0.0
 11
289.02458688320019
 21
111.26628034550519
 31
0.0
  0
LINE
  5
6D6
  8
HIDE
 10
289.02458688320019
 20
107.76628034550519
 30
0.0
 11
285.02458688320019
 21
107.76628034550509
 31
0.0
  0
ARC
  5
6E8
  8
0
 10
347.46322583729568
 20
83.766280345505109
 30
0.0
 40
12.5
 50
270.0
 51
90.0
  0
ARC
  5
6E9
  8
0
 10
347.46322583729568
 20
83.766280345505109
 30
0.0
 40
28.5
 50
270.0
 51
90.0
  0
ARC
  5
6EA
  8
CENTER
 10
347.46322583729568
 20
83.766280345505109
 30
0.0
 40
35.0
 50
270.0
 51
90.0
  0
ARC
  5
6EB
  8
0
 10
347.46322583729568
 20
83.766280345505109
 30
0.0
 40
42.5
 50
270.0
 51
90.0
  0
ARC
  5
6EF
  8
0
 10
347.46322583729568
 20
83.766280345505109
 30
0.0
 40
27.500000000000099
 50
270.0
 51
90.0
  0
ARC
  5
6F0
  8
0
 10
347.46322583729568
 20
83.766280345505109
 30
0.0
 40
24.000000000000071
 50
270.0
 51
90.0
  0
ARC
  5
6F2
  8
0
 10
347.46322583729568
 20
83.766280345505109
 30
0.0
 40
17.749979225940582
 50
269.99999999999977
 51
90.000000000000185
  0
LINE
  5
6F3
  8
CENTER
 10
368.85851634619502
 20
105.1615708544043
 30
0.0
 11
376.19271580864989
 21
112.49577031685931
 31
0.0
  0
ARC
  5
6F4
  8
HIDE
 10
372.21196317882487
 20
108.5150176870342
 30
0.0
 40
3.0
 50
215.24317242610809
 51
123.5778353936284
  0
CIRCLE
  5
6F9
  8
0
 10
372.21196317882487
 20
108.5150176870342
 30
0.0
 40
2.5
  0
LINE
  5
6FA
  8
CENTER
 10
368.85851634619502
 20
62.370989836605901
 30
0.0
 11
376.19271580864989
 21
55.036790374150947
 31
0.0
  0
ARC
  5
6FB
  8
HIDE
 10
372.21196317882487
 20
59.01754300397598
 30
0.0
 40
3.0
 50
236.42216460637141
 51
144.75682757389251
  0
CIRCLE
  5
6FC
  8
0
 10
372.21196317882487
 20
59.01754300397603
 30
0.0
 40
2.5
  0
LINE
  5
6FD
  8
CENTER
 10
306.78681857182039
 20
118.76628034550509
 30
0.0
 11
285.75022259368723
 21
118.76628034550509
 31
0.0
  0
LINE
  5
6FE
  8
HIDE
 10
303.02458688320007
 20
121.76628034550509
 30
0.0
 11
294.89061228698449
 21
121.76628034550509
 31
0.0
  0
LINE
  5
6FF
  8
HIDE
 10
303.02458688320007
 20
115.76628034550509
 30
0.0
 11
294.89061228698449
 21
115.76628034550509
 31
0.0
  0
LINE
  5
700
  8
HIDE
 10
294.02458688320019
 20
116.26628034550509
 30
0.0
 11
294.02458688320019
 21
121.26628034550509
 31
0.0
  0
LINE
  5
701
  8
HIDE
 10
290.02458688320019
 20
116.26628034550509
 30
0.0
 11
290.02458688320019
 21
121.26628034550509
 31
0.0
  0
LINE
  5
702
  8
HIDE
 10
303.02458688320007
 20
121.26628034550509
 30
0.0
 11
290.02458688320007
 21
121.26628034550509
 31
0.0
  0
LINE
  5
703
  8
HIDE
 10
303.02458688320007
 20
116.26628034550509
 30
0.0
 11
290.02458688320007
 21
116.26628034550509
 31
0.0
  0
LINE
  5
706
  8
HIDE
 10
294.02458688320007
 20
121.26628034550509
 30
0.0
 11
294.89061228698461
 21
121.76628034550509
 31
0.0
  0
LINE
  5
709
  8
HIDE
 10
290.02458688320007
 20
121.26628034550509
 30
0.0
 11
288.58121121022612
 21
118.76628034550509
 31
0.0
  0
LINE
  5
72A
  8
HIDE
 10
290.02458688320007
 20
116.26628034550509
 30
0.0
 11
288.58121121022612
 21
118.76628034550509
 31
0.0
  0
LINE
  5
72B
  8
HIDE
 10
294.02458688320007
 20
116.26628034550509
 30
0.0
 11
294.89061228698461
 21
115.76628034550509
 31
0.0
  0
LINE
  5
7D5
  8
HIDE
 10
285.02458688320019
 20
52.766259571445659
 30
0.0
 11
237.02458688320019
 21
52.766259571445573
 31
0.0
  0
LINE
  5
7D6
  8
0
 10
238.0245868832003
 20
18.76623879738608
 30
0.0
 11
254.0245868832003
 21
18.766238797386109
 31
0.0
  0
LINE
  5
7D7
  8
0
 10
255.0245868832003
 20
19.766238797386109
 30
0.0
 11
254.0245868832003
 21
18.766238797386109
 31
0.0
  0
LINE
  5
7D8
  8
0
 10
237.0245868832003
 20
19.76623879738608
 30
0.0
 11
238.0245868832003
 21
18.76623879738608
 31
0.0
  0
LINE
  5
7D9
  8
HIDE
 10
222.0245868832003
 20
68.766259571445573
 30
0.0
 11
240.0245868832001
 21
68.766259571445616
 31
0.0
  0
LINE
  5
7DA
  8
HIDE
 10
241.02458688319999
 20
68.766259571445602
 30
0.0
 11
254.02458688319999
 21
68.766259571445616
 31
0.0
  0
LINE
  5
7DB
  8
HIDE
 10
256.0234052473794
 20
68.766259571445616
 30
0.0
 11
269.02576851902768
 21
68.766259571445644
 31
0.0
  0
LINE
  5
7DC
  8
HIDE
 10
271.02458688320019
 20
68.766259571445644
 30
0.0
 11
284.02458688320019
 21
68.766259571445673
 31
0.0
  0
LINE
  5
7DD
  8
HIDE
 10
284.02458688320019
 20
68.766259571445673
 30
0.0
 11
303.0245868832003
 21
68.766259571445701
 31
0.0
  0
LINE
  5
7DE
  8
0
 10
237.02458688320019
 20
38.766259571445602
 30
0.0
 11
237.0245868832003
 21
19.76623879738608
 31
0.0
  0
LINE
  5
7DF
  8
0
 10
222.02458688320019
 20
83.766259571445588
 30
0.0
 11
222.0245868832003
 21
39.76625957144558
 31
0.0
  0
LINE
  5
7E2
  8
HIDE
 10
226.02458688320019
 20
63.76625957144558
 30
0.0
 11
226.02458688320019
 21
55.26623879738608
 31
0.0
  0
LINE
  5
7E3
  8
HIDE
 10
236.02458688320019
 20
63.76625957144558
 30
0.0
 11
236.02458688320019
 21
56.26623879738608
 31
0.0
  0
LINE
  5
7E4
  8
0
 10
303.02458688320019
 20
83.766259571445659
 30
0.0
 11
303.0245868832003
 21
42.266259571445701
 31
0.0
  0
LINE
  5
7E5
  8
HIDE
 10
290.02458688320019
 20
51.26623879738618
 30
0.0
 11
290.0245868832003
 21
46.266238797386109
 31
0.0
  0
LINE
  5
7E6
  8
HIDE
 10
294.0245868832003
 20
51.266238797386158
 30
0.0
 11
294.0245868832003
 21
46.266238797386158
 31
0.0
  0
LINE
  5
7E7
  8
0
 10
302.02458688320019
 20
41.266259571445701
 30
0.0
 11
303.0245868832003
 21
42.266259571445701
 31
0.0
  0
LINE
  5
7E8
  8
0
 10
255.0245868832003
 20
41.26625957144563
 30
0.0
 11
255.0245868832003
 21
19.766238797386109
 31
0.0
  0
LINE
  5
7E9
  8
0
 10
302.02458688320019
 20
41.266259571445701
 30
0.0
 11
255.0245868832003
 21
41.266259571445609
 31
0.0
  0
LINE
  5
7EA
  8
0
 10
237.02458688320019
 20
38.766259571445602
 30
0.0
 11
223.0245868832003
 21
38.76625957144558
 31
0.0
  0
LINE
  5
7EB
  8
0
 10
222.0245868832003
 20
39.76625957144558
 30
0.0
 11
223.0245868832003
 21
38.76625957144558
 31
0.0
  0
LINE
  5
7EC
  8
HIDE
 10
237.02458688320019
 20
38.766259571445602
 30
0.0
 11
237.02458688320019
 21
52.766259571445573
 31
0.0
  0
LINE
  5
7ED
  8
HIDE
 10
285.02458688320019
 20
52.766259571445659
 30
0.0
 11
285.02458688320019
 21
67.766259571445673
 31
0.0
  0
LINE
  5
7EE
  8
HIDE
 10
270.02458688320019
 20
53.76625957144558
 30
0.0
 11
270.02458688320019
 21
67.766259571445644
 31
0.0
  0
LINE
  5
7EF
  8
HIDE
 10
255.02458688320019
 20
53.766259571445559
 30
0.0
 11
255.02458688320019
 21
67.766260269577472
 31
0.0
  0
LINE
  5
7F0
  8
HIDE
 10
240.02458688320019
 20
52.766259571445588
 30
0.0
 11
240.02458688320019
 21
68.766259571445616
 31
0.0
  0
LINE
  5
7F1
  8
CENTER
 10
232.0245868832003
 20
28.766238797386141
 30
0.0
 11
260.0245868832003
 21
28.766238797386158
 31
0.0
  0
LINE
  5
7F2
  8
HIDE
 10
237.0245868832003
 20
20.01623879738608
 30
0.0
 11
248.0245868832003
 21
20.016238797386109
 31
0.0
  0
LINE
  5
7F3
  8
HIDE
 10
237.02458688320019
 20
37.516238797386109
 30
0.0
 11
248.02458688320019
 21
37.516238797386137
 31
0.0
  0
LINE
  5
7F4
  8
HIDE
 10
248.0245868832003
 20
23.266238797386141
 30
0.0
 11
255.0245868832003
 21
23.266238797386141
 31
0.0
  0
LINE
  5
7F5
  8
HIDE
 10
248.02458688320019
 20
34.266238797386137
 30
0.0
 11
255.0245868832003
 21
34.266238797386137
 31
0.0
  0
LINE
  5
7F6
  8
HIDE
 10
248.0245868832003
 20
20.016238797386109
 30
0.0
 11
248.02458688320019
 21
37.516238797386137
 31
0.0
  0
LINE
  5
7F7
  8
CENTER
  6
CENTER
 10
253.19704688320181
 20
64.915151050560951
 30
0.0
 11
241.85211688319879
 21
58.365151050558019
 31
0.0
  0
CIRCLE
  5
7F8
  8
HIDE
 10
247.52458688320019
 20
61.640101050560752
 30
0.0
 40
3.1749990000000001
  0
LINE
  5
7F9
  8
HIDE
 10
255.02458688320019
 20
58.140101050560759
 30
0.0
 11
248.92658688319841
 21
58.140101050560759
 31
0.0
  0
LINE
  5
7FA
  8
CENTER
  6
CENTER
 10
283.19698688319971
 20
58.36514105055835
 30
0.0
 11
271.85206688320011
 21
64.915131050557846
 31
0.0
  0
ARC
  5
7FB
  8
HIDE
 10
276.12257688319858
 20
58.640101050560801
 30
0.0
 40
0.5
 50
269.99998199988357
 51
354.99627999998268
  0
CIRCLE
  5
7FC
  8
HIDE
 10
277.52458688320019
 20
61.640101050560801
 30
0.0
 40
3.1749990000000001
  0
LINE
  5
7FD
  8
HIDE
 10
284.52458688320019
 20
64.640101050560816
 30
0.0
 11
278.56410688319858
 21
64.640101050560801
 31
0.0
  0
LINE
  5
7FE
  8
HIDE
 10
284.52458688320019
 20
61.640101050560823
 30
0.0
 11
280.69956688320002
 21
61.640101050560801
 31
0.0
  0
ARC
  5
7FF
  8
HIDE
 10
284.52458688320019
 20
65.140101050560816
 30
0.0
 40
0.5
 50
269.99998199988357
 51
359.99995999999589
  0
ARC
  5
800
  8
HIDE
 10
284.52458688320019
 20
61.140101050560808
 30
0.0
 40
0.5
 50
359.99995999999589
 51
90.000000000000099
  0
LINE
  5
801
  8
HIDE
 10
274.34957688320122
 20
61.640101050560801
 30
0.0
 11
270.52458688320019
 21
61.64010105056078
 31
0.0
  0
LINE
  5
802
  8
HIDE
 10
276.12257688319858
 20
58.140101050560801
 30
0.0
 11
270.02458688320019
 21
58.140101050560787
 31
0.0
  0
LINE
  5
803
  8
HIDE
 10
254.52458688320019
 20
61.640101050560759
 30
0.0
 11
250.69958688319949
 21
61.640101050560759
 31
0.0
  0
LINE
  5
804
  8
HIDE
 10
246.48506688320171
 20
64.640101050560745
 30
0.0
 11
240.52458688320019
 21
64.640101050560745
 31
0.0
  0
LINE
  5
805
  8
HIDE
 10
244.34959688320069
 20
61.640101050560752
 30
0.0
 11
240.52458688320019
 21
61.640101050560752
 31
0.0
  0
ARC
  5
806
  8
HIDE
 10
248.92658688319841
 20
58.640101050560759
 30
0.0
 40
0.5
 50
185.0037219999179
 51
269.99998199988357
  0
ARC
  5
807
  8
HIDE
 10
240.52458688320019
 20
65.140101050560745
 30
0.0
 40
0.5
 50
180.00003600002449
 51
269.99998199988357
  0
ARC
  5
808
  8
HIDE
 10
240.52458688320019
 20
61.140101050560737
 30
0.0
 40
0.5
 50
90.000019999897887
 51
180.00004000000399
  0
ARC
  5
809
  8
HIDE
 10
254.52458704028081
 20
62.14010105056073
 30
0.0
 40
0.5
 50
269.99998199988357
 51
359.99995999999589
  0
ARC
  5
80A
  8
HIDE
 10
270.52458704028089
 20
62.140101050560752
 30
0.0
 40
0.5
 50
180.0
 51
269.99998199988357
  0
LINE
  5
80B
  8
CENTER
  6
CENTER
 10
268.19698688319971
 20
58.365141050558321
 30
0.0
 11
256.85206688320011
 21
64.915131050557832
 31
0.0
  0
ARC
  5
80C
  8
HIDE
 10
261.12257688319858
 20
58.64010105056078
 30
0.0
 40
0.5
 50
269.99998199988357
 51
354.99627999998268
  0
CIRCLE
  5
80D
  8
HIDE
 10
262.52458688320019
 20
61.640101050560773
 30
0.0
 40
3.1749990000000001
  0
LINE
  5
80E
  8
HIDE
 10
269.52458688320019
 20
64.640101050560787
 30
0.0
 11
263.56410688319858
 21
64.640101050560773
 31
0.0
  0
LINE
  5
80F
  8
HIDE
 10
269.52458688320019
 20
61.64010105056078
 30
0.0
 11
265.69956688320002
 21
61.64010105056078
 31
0.0
  0
ARC
  5
810
  8
HIDE
 10
269.52458688320019
 20
65.140101050560787
 30
0.0
 40
0.5
 50
269.99998199988357
 51
359.99995999999589
  0
ARC
  5
811
  8
HIDE
 10
269.52458688320019
 20
61.14010105056078
 30
0.0
 40
0.5
 50
359.99995999999589
 51
90.000000000000099
  0
LINE
  5
812
  8
HIDE
 10
259.34957688320122
 20
61.640101050560773
 30
0.0
 11
255.52458688320019
 21
61.640101050560759
 31
0.0
  0
LINE
  5
813
  8
HIDE
 10
261.12257688319858
 20
58.140101050560773
 30
0.0
 11
255.02458688320019
 21
58.140101050560759
 31
0.0
  0
ARC
  5
814
  8
HIDE
 10
255.52458704028081
 20
62.14010105056073
 30
0.0
 40
0.5
 50
180.0
 51
269.99998199988357
  0
ARC
  5
815
  8
HIDE
 10
284.02458688320019
 20
67.766259571445673
 30
0.0
 40
1.0
 50
359.99995999999589
 51
90.000000000000099
  0
ARC
  5
816
  8
HIDE
 10
271.02458688320019
 20
67.766259571445644
 30
0.0
 40
1.0
 50
90.000019999897887
 51
180.0
  0
ARC
  5
817
  8
HIDE
 10
254.02458688319999
 20
67.766259571445701
 30
0.0
 40
1.0
 50
0.0000400000040257
 51
90.000019999897887
  0
ARC
  5
818
  8
HIDE
 10
284.02458688320019
 20
53.766259571445609
 30
0.0
 40
1.0
 50
269.99998199988357
 51
359.99995999999589
  0
ARC
  5
819
  8
HIDE
 10
271.02458688320019
 20
53.76625957144558
 30
0.0
 40
1.0
 50
180.0
 51
269.99998199988357
  0
ARC
  5
81A
  8
HIDE
 10
254.0245868832001
 20
53.766259571445559
 30
0.0
 40
1.0
 50
269.99998199988357
 51
359.99995999999589
  0
ARC
  5
81B
  8
HIDE
 10
241.02458688319999
 20
67.766259571445687
 30
0.0
 40
1.0
 50
90.000019999897887
 51
180.0
  0
ARC
  5
81C
  8
HIDE
 10
241.02458688319999
 20
53.766259571445538
 30
0.0
 40
1.0
 50
180.00003600002449
 51
269.99998199988357
  0
ARC
  5
81D
  8
HIDE
 10
269.02458688319979
 20
67.766260269577501
 30
0.0
 40
1.0
 50
359.99995999999589
 51
90.000000000000099
  0
ARC
  5
81E
  8
HIDE
 10
256.02458688319979
 20
67.766260269577472
 30
0.0
 40
1.0
 50
90.000019999897887
 51
180.0
  0
ARC
  5
81F
  8
HIDE
 10
269.02458688319979
 20
53.766260269577437
 30
0.0
 40
1.0
 50
269.99998199988357
 51
359.99995999999589
  0
ARC
  5
820
  8
HIDE
 10
256.02458688319979
 20
53.766260269577408
 30
0.0
 40
1.0
 50
180.0
 51
269.99998199988357
  0
LINE
  5
821
  8
HIDE
 10
222.0245868832003
 20
63.76625957144558
 30
0.0
 11
240.02458688320019
 21
63.766259571445609
 31
0.0
  0
LINE
  5
822
  8
HIDE
 10
222.0245868832003
 20
55.266238797386073
 30
0.0
 11
226.02458688320019
 21
55.26623879738608
 31
0.0
  0
LINE
  5
824
  8
HIDE
 10
226.0245868832003
 20
56.266238797386059
 30
0.0
 11
236.02458688320019
 21
56.26623879738608
 31
0.0
  0
LINE
  5
825
  8
HIDE
 10
236.02458688320019
 20
59.76623879738608
 30
0.0
 11
240.02458688320019
 21
59.766238797386087
 31
0.0
  0
LINE
  5
826
  8
HIDE
 10
299.0245868832003
 20
63.766259571445723
 30
0.0
 11
299.0245868832003
 21
55.266238797386109
 31
0.0
  0
LINE
  5
827
  8
HIDE
 10
289.0245868832003
 20
63.766259571445723
 30
0.0
 11
289.02458688320019
 21
56.266238797386087
 31
0.0
  0
LINE
  5
828
  8
HIDE
 10
303.0245868832003
 20
63.766259571445723
 30
0.0
 11
285.02458688320041
 21
63.76625957144573
 31
0.0
  0
LINE
  5
829
  8
HIDE
 10
303.02458688320007
 20
55.266238797386109
 30
0.0
 11
299.0245868832003
 21
55.266238797386109
 31
0.0
  0
LINE
  5
82A
  8
HIDE
 10
299.02458688320019
 20
56.266238797386087
 30
0.0
 11
289.02458688320019
 21
56.266238797386087
 31
0.0
  0
LINE
  5
82B
  8
HIDE
 10
289.02458688320019
 20
59.766238797386087
 30
0.0
 11
285.02458688320019
 21
59.766238797386102
 31
0.0
  0
LINE
  5
833
  8
CENTER
 10
306.7868185718205
 20
48.76623879738618
 30
0.0
 11
285.75022259368728
 21
48.766238797386158
 31
0.0
  0
LINE
  5
834
  8
HIDE
 10
303.02458688320007
 20
51.766238797386187
 30
0.0
 11
294.89061228698461
 21
51.76623879738618
 31
0.0
  0
LINE
  5
835
  8
HIDE
 10
303.02458688320007
 20
51.266238797386201
 30
0.0
 11
290.02458688320019
 21
51.26623879738618
 31
0.0
  0
LINE
  5
836
  8
HIDE
 10
303.02458688320019
 20
45.766238797386187
 30
0.0
 11
294.89061228698472
 21
45.76623879738618
 31
0.0
  0
LINE
  5
837
  8
HIDE
 10
303.0245868832003
 20
46.266238797386151
 30
0.0
 11
290.02458688320019
 21
46.266238797386158
 31
0.0
  0
LINE
  5
838
  8
HIDE
 10
294.02458688320019
 20
46.26623879738618
 30
0.0
 11
294.89061228698472
 21
45.766238797386158
 31
0.0
  0
LINE
  5
839
  8
HIDE
 10
290.02458688320019
 20
46.266238797386151
 30
0.0
 11
288.58121121022617
 21
48.766238797386158
 31
0.0
  0
LINE
  5
83A
  8
HIDE
 10
290.02458688320019
 20
51.26623879738618
 30
0.0
 11
288.58121121022617
 21
48.766238797386158
 31
0.0
  0
LINE
  5
83B
  8
HIDE
 10
294.02458688320019
 20
51.26623879738618
 30
0.0
 11
294.89061228698472
 21
51.766238797386187
 31
0.0
  0
ARC
  5
A07
  8
HIDE
 10
100.7017789407853
 20
83.766280345503276
 30
0.0
 40
15.0
 50
300.00000000000961
 51
210.0000000001522
  0
CIRCLE
  5
A09
  8
0
 10
100.7017789407853
 20
83.766280345503276
 30
0.0
 40
24.0
  0
CIRCLE
  5
A0B
  8
0
 10
100.7017789407853
 20
83.766280345505095
 30
0.0
 40
14.25
  0
INSERT
  5
A0D
  8
0
  2
*U12
 10
41540.093944078857
 20
12599.948481165749
 30
0.0
 50
30.0
  0
INSERT
  5
A0E
  8
0
  2
*U14
 10
41540.093944078857
 20
12599.948481165749
 30
0.0
 50
30.0
  0
LINE
  5
A0F
  8
0
 10
202.02458688320019
 20
107.7662595714455
 30
0.0
 11
202.02458688320019
 21
59.766259571445573
 31
0.0
  0
LINE
  5
A10
  8
0
 10
222.02458688320019
 20
103.76625957144741
 30
0.0
 11
222.02458688320019
 21
63.766259571443747
 31
0.0
  0
LINE
  5
A11
  8
0
 10
220.02458688320019
 20
103.76625957144741
 30
0.0
 11
220.02458688320019
 21
63.766259571443747
 31
0.0
  0
LINE
  5
A12
  8
0
 10
220.02458688320019
 20
103.76625957144741
 30
0.0
 11
222.02458688320019
 21
103.76625957144741
 31
0.0
  0
LINE
  5
A13
  8
0
 10
202.02458688320019
 20
107.7662595714455
 30
0.0
 11
217.71518580644019
 21
107.7662595714455
 31
0.0
  0
LINE
  5
A14
  8
0
 10
220.02458688320019
 20
103.7662595714456
 30
0.0
 11
217.71518580644019
 21
107.7662595714455
 31
0.0
  0
LINE
  5
A15
  8
0
 10
220.02458688320019
 20
63.766259571443747
 30
0.0
 11
222.02458688320019
 21
63.766259571443747
 31
0.0
  0
LINE
  5
A16
  8
0
 10
220.02458688320019
 20
63.76625957144558
 30
0.0
 11
217.71518580644019
 21
59.766259571445573
 31
0.0
  0
LINE
  5
A17
  8
0
 10
202.02458688320019
 20
59.766259571445573
 30
0.0
 11
217.71518580644019
 21
59.766259571445573
 31
0.0
  0
LINE
  5
A18
  8
HIDE
 10
202.25722524630089
 20
61.366259571445937
 30
0.0
 11
205.88197982781401
 21
61.366259571445937
 31
0.0
  0
LINE
  5
A19
  8
HIDE
 10
202.25722524630089
 20
65.666259571447029
 30
0.0
 11
205.88197982781401
 21
65.666259571447029
 31
0.0
  0
LINE
  5
A1A
  8
HIDE
 10
205.88059190583721
 20
65.668577376295673
 30
0.0
 11
207.16941878011261
 21
63.516259571445573
 31
0.0
  0
LINE
  5
A1B
  8
HIDE
 10
205.88197982781401
 20
61.366259571445937
 30
0.0
 11
207.16941878011261
 21
63.516259571445573
 31
0.0
  0
LINE
  5
A1C
  8
HIDE
 10
205.88197982781401
 20
61.366259571445937
 30
0.0
 11
205.88197982781401
 21
65.666259571447029
 31
0.0
  0
LINE
  5
A1D
  8
HIDE
 10
202.02458688320019
 20
61.176422461833738
 30
0.0
 11
202.25722524630089
 21
61.366259571445937
 31
0.0
  0
LINE
  5
A1E
  8
HIDE
 10
202.02458688320019
 20
65.856096681057409
 30
0.0
 11
202.25722524630089
 21
65.666259571447029
 31
0.0
  0
LINE
  5
A1F
  8
HIDE
 10
202.25722524630089
 20
61.366259571445937
 30
0.0
 11
202.25722524630089
 21
65.666259571447029
 31
0.0
  0
POINT
  5
A20
  8
HIDE
 10
202.25722524630089
 20
61.366259571445937
 30
0.0
  0
POINT
  5
A21
  8
HIDE
 10
202.25722524630089
 20
65.666259571447029
 30
0.0
  0
LINE
  5
A22
  8
CENTER
 10
199.25222968287679
 20
63.516259571443747
 30
0.0
 11
208.890583828915
 21
63.516259571443747
 31
0.0
  0
LINE
  5
A23
  8
CENTER
 10
211.02458688320019
 20
65.930302172305403
 30
0.0
 11
211.02458688320019
 21
58.552091370866997
 31
0.0
  0
LINE
  5
A24
  8
HIDE
 10
208.52458688320019
 20
64.377564566449166
 30
0.0
 11
208.52458688320019
 21
60.102677170659319
 31
0.0
  0
LINE
  5
A25
  8
HIDE
 10
213.52458688320019
 20
64.377564566449166
 30
0.0
 11
213.52458688320019
 21
60.102677170659319
 31
0.0
  0
LINE
  5
A26
  8
HIDE
 10
213.52458688320019
 20
64.377564566449166
 30
0.0
 11
208.52458688320019
 21
64.377564566449166
 31
0.0
  0
LINE
  5
A27
  8
HIDE
 10
208.52458688320019
 20
64.377564566449166
 30
0.0
 11
211.02458688320019
 21
65.508407869459063
 31
0.0
  0
LINE
  5
A28
  8
HIDE
 10
213.52458688320019
 20
64.377564566449166
 30
0.0
 11
211.02458688320019
 21
65.508407869459063
 31
0.0
  0
LINE
  5
A29
  8
HIDE
 10
208.24657169824911
 20
59.766259571445573
 30
0.0
 11
208.52458688320019
 21
60.102677170659319
 31
0.0
  0
LINE
  5
A2A
  8
HIDE
 10
213.8026020681512
 20
59.766259571445573
 30
0.0
 11
213.52458688320019
 21
60.102677170659319
 31
0.0
  0
LINE
  5
A2B
  8
HIDE
 10
208.52458688320019
 20
60.102677170659319
 30
0.0
 11
213.52458688320019
 21
60.102677170659319
 31
0.0
  0
POINT
  5
A2C
  8
HIDE
 10
213.52458688320019
 20
60.102677170659319
 30
0.0
  0
POINT
  5
A2D
  8
HIDE
 10
208.52458688320019
 20
60.102677170659319
 30
0.0
  0
LINE
  5
A2E
  8
HIDE
 10
202.21208688320019
 20
103.3745127469183
 30
0.0
 11
209.73179646441841
 21
107.71601909786391
 31
0.0
  0
LINE
  5
A2F
  8
HIDE
 10
208.51977741158171
 20
107.0162595714456
 30
0.0
 11
210.95727741158171
 21
102.7943857279961
 31
0.0
  0
LINE
  5
A30
  8
HIDE
 10
203.3236249888736
 20
104.0162595714456
 30
0.0
 11
205.7611249888736
 21
99.794385727996143
 31
0.0
  0
LINE
  5
A31
  8
HIDE
 10
208.1300659798811
 20
106.7912595714506
 30
0.0
 11
213.19631459202481
 21
98.016259571447392
 31
0.0
  0
LINE
  5
A32
  8
HIDE
  6
CONTINUOUS
 10
203.71333642058141
 20
104.2412595714477
 30
0.0
 11
207.30734184628221
 21
98.016259571447392
 31
0.0
  0
LINE
  5
A33
  8
HIDE
 10
206.2733845152992
 20
99.657126201575977
 30
0.0
 11
210.82001788517061
 21
102.28212620157591
 31
0.0
  0
LINE
  5
A34
  8
HIDE
 10
210.82001788517061
 20
102.28212620157591
 30
0.0
 11
210.95727741158171
 21
102.7943857279961
 31
0.0
  0
LINE
  5
A35
  8
HIDE
 10
206.2733845152992
 20
99.657126201575977
 30
0.0
 11
205.7611249888736
 21
99.794385727996143
 31
0.0
  0
LINE
  5
A36
  8
HIDE
 10
205.7611249888736
 20
99.794385727996143
 30
0.0
 11
210.95727741158171
 21
102.7943857279961
 31
0.0
  0
ARC
  5
A37
  8
HIDE
 10
209.91929646441841
 20
107.3912595714455
 30
0.0
 40
0.375
 50
90.0
 51
120.00000000000961
  0
ARC
  5
A38
  8
HIDE
 10
202.39958688320019
 20
103.0497532204982
 30
0.0
 40
0.375
 50
120.00000000000961
 51
180.0
  0
INSERT
  5
A39
  8
HIDE
  6
CONTINUOUS
  2
*X17
 10
0.0
 20
0.0
 30
0.0
1001
ACAD
1000
HATCH
1002
{
1070
    19
1000
ANSI37
1040
9.75
1040
0.5235987755982988
1000
R14_HATCH_DATA
1000
A39
1011
1.0
1021
0.0
1031
0.0
1021
0.0
1031
0.0
1011
0.0
1021
0.0
1031
0.0
1021
1.0
1031
0.0
1011
0.0
1021
0.0
1031
0.0
1021
0.0
1031
1.0
1040
0.0
1010
0.0
1020
0.0
1030
1.0
1000
ANSI37
1070
     0
1070
     0
1071
        2
1071
        1
1071
        4
1070
     1
1040
207.3073418462894
1040
98.016259571449211
1040
210.25182821916081
1040
98.016259571447392
1070
     1
1040
210.25182821916081
1040
98.016259571447392
1040
208.54670120023491
1040
100.96962620157591
1070
     1
1040
208.54670120023491
1040
100.96962620157591
1040
206.33833642058141
1040
99.694626201576355
1070
     1
1040
206.33833642058141
1040
99.694626201576355
1040
207.3073418462894
1040
98.016259571449211
1071
        0
1071
        1
1071
        4
1070
     1
1040
210.25182821915351
1040
98.016259571447392
1040
213.19631459202481
1040
98.016259571447392
1070
     1
1040
213.19631459202481
1040
98.016259571447392
1040
210.7550659798884
1040
102.2446262015774
1070
     1
1040
210.7550659798884
1040
102.2446262015774
1040
208.54670120023491
1040
100.96962620157591
1070
     1
1040
208.54670120023491
1040
100.96962620157591
1040
210.25182821915351
1040
98.016259571447392
1071
        0
1070
     0
1070
     1
1040
0.5235987755982988
1040
9.75
1070
     0
1070
     2
1040
1.3089969389957461
1040
64.321102813222183
1040
-81.229745202887827
1040
-1.1772221007898021
1040
0.3154357112186975
1070
     0
1040
2.8797932657906431
1040
64.321102813222183
1040
-81.229745202887827
1040
-0.3154357112186975
1040
-1.1772221007898021
1070
     0
1071
        4
1040
207.8212172049256
1040
98.654962084098827
1040
0.0
1040
210.34807946172199
1040
99.676796470451393
1040
0.0
1040
209.44562797719971
1040
97.152266168684093
1040
0.0
1040
211.79200041206181
1040
96.971943569687085
1040
0.0
1002
}
  0
LINE
  5
A3A
  8
HIDE
 10
202.02458688320019
 20
98.766259571445573
 30
0.0
 11
222.02458688320019
 21
98.766259571445573
 31
0.0
  0
LINE
  5
A3B
  8
HIDE
 10
202.02458688320019
 20
98.016259571447392
 30
0.0
 11
222.02458688320019
 21
98.016259571447392
 31
0.0
  0
LINE
  5
A3C
  8
CENTER
  6
CENTER
 10
205.45857316684251
 20
106.31842085568231
 30
0.0
 11
211.6783440570301
 21
95.545461662438413
 31
0.0
  0
LINE
  5
A3E
  8
HIDE
 10
202.02458688320019
 20
68.766259571445573
 30
0.0
 11
222.02458688320019
 21
68.766259571445573
 31
0.0
  0
LINE
  5
A3F
  8
HIDE
 10
202.02458688320019
 20
69.516259571443754
 30
0.0
 11
222.02458688320019
 21
69.516259571443754
 31
0.0
  0
ARC
  5
A40
  8
0
 10
100.7017789407853
 20
107.92574905176571
 30
0.0
 40
4.7392728971135512
 50
187.56324100755941
 51
352.43675899244062
  0
ARC
  5
A41
  8
0
 10
79.779065299220505
 20
71.686545992365666
 30
0.0
 40
4.7392728971135512
 50
307.56324100749578
 51
112.43675899245
  0
ARC
  5
A42
  8
0
 10
121.62449258235
 20
71.686545992367485
 30
0.0
 40
4.7392728971135512
 50
67.563241007549991
 51
232.43675899250391
  0
INSERT
  5
A7C
  8
0
  2
*U19
 10
0.0
 20
0.0
 30
0.0
  0
ENDSEC
  0
EOF
