  0
SECTION
  2
HEADER
  9
$ACADVER
  1
AC1009
  9
$INSBASE
 10
0.0
 20
0.0
 30
0.0
  9
$EXTMIN
 10
15.53720011122758
 20
-27.890845526481019
 30
0.0
  9
$EXTMAX
 10
418.24659979128711
 20
247.3019394136951
 30
0.0
  9
$LIMMIN
 10
0.0
 20
0.0
  9
$LIMMAX
 10
12.0
 20
9.0
  9
$ORTHOMODE
 70
     1
  9
$REGENMODE
 70
     1
  9
$FILLMODE
 70
     1
  9
$QTEXTMODE
 70
     0
  9
$MIRRTEXT
 70
     0
  9
$DRAGMODE
 70
     2
  9
$LTSCALE
 40
1.0
  9
$OSMODE
 70
  2239
  9
$ATTMODE
 70
     1
  9
$TEXTSIZE
 40
0.2
  9
$TRACEWID
 40
0.05
  9
$TEXTSTYLE
  7
STANDARD
  9
$CLAYER
  8
0
  9
$CELTYPE
  6
BYLAYER
  9
$CECOLOR
 62
   256
  9
$DIMSCALE
 40
1.0
  9
$DIMASZ
 40
0.18
  9
$DIMEXO
 40
0.0625
  9
$DIMDLI
 40
0.38
  9
$DIMRND
 40
0.0
  9
$DIMDLE
 40
0.0
  9
$DIMEXE
 40
0.18
  9
$DIMTP
 40
0.0
  9
$DIMTM
 40
0.0
  9
$DIMTXT
 40
0.18
  9
$DIMCEN
 40
0.09
  9
$DIMTSZ
 40
0.0
  9
$DIMTOL
 70
     0
  9
$DIMLIM
 70
     0
  9
$DIMTIH
 70
     1
  9
$DIMTOH
 70
     1
  9
$DIMSE1
 70
     0
  9
$DIMSE2
 70
     0
  9
$DIMTAD
 70
     0
  9
$DIMZIN
 70
     0
  9
$DIMBLK
  1

  9
$DIMASO
 70
     1
  9
$DIMSHO
 70
     1
  9
$DIMPOST
  1

  9
$DIMAPOST
  1

  9
$DIMALT
 70
     0
  9
$DIMALTD
 70
     2
  9
$DIMALTF
 40
25.399999999999999
  9
$DIMLFAC
 40
1.0
  9
$DIMTOFL
 70
     0
  9
$DIMTVP
 40
0.0
  9
$DIMTIX
 70
     0
  9
$DIMSOXD
 70
     0
  9
$DIMSAH
 70
     0
  9
$DIMBLK1
  1

  9
$DIMBLK2
  1

  9
$DIMSTYLE
  2
STANDARD
  9
$DIMCLRD
 70
     0
  9
$DIMCLRE
 70
     0
  9
$DIMCLRT
 70
     0
  9
$DIMTFAC
 40
1.0
  9
$DIMGAP
 40
0.09
  9
$LUNITS
 70
     2
  9
$LUPREC
 70
     4
  9
$SKETCHINC
 40
0.1
  9
$FILLETRAD
 40
0.0
  9
$AUNITS
 70
     0
  9
$AUPREC
 70
     0
  9
$MENU
  1
.
  9
$ELEVATION
 40
0.0
  9
$PELEVATION
 40
0.0
  9
$THICKNESS
 40
0.0
  9
$LIMCHECK
 70
     0
  9
$BLIPMODE
 70
     0
  9
$CHAMFERA
 40
1.0
  9
$CHAMFERB
 40
1.0
  9
$SKPOLY
 70
     0
  9
$TDCREATE
 40
2455485.671822188
  9
$TDUPDATE
 40
2456645.789747396
  9
$TDINDWG
 40
0.3592142708
  9
$TDUSRTIMER
 40
0.3592142708
  9
$USRTIMER
 70
     1
  9
$ANGBASE
 50
0.0
  9
$ANGDIR
 70
     0
  9
$PDMODE
 70
     0
  9
$PDSIZE
 40
0.0
  9
$PLINEWID
 40
0.0
  9
$COORDS
 70
     1
  9
$SPLFRAME
 70
     0
  9
$SPLINETYPE
 70
     6
  9
$SPLINESEGS
 70
     8
  9
$ATTDIA
 70
     0
  9
$ATTREQ
 70
     1
  9
$HANDLING
 70
     1
  9
$HANDSEED
  5
D7A
  9
$SURFTAB1
 70
     6
  9
$SURFTAB2
 70
     6
  9
$SURFTYPE
 70
     6
  9
$SURFU
 70
     6
  9
$SURFV
 70
     6
  9
$UCSNAME
  2

  9
$UCSORG
 10
0.0
 20
0.0
 30
0.0
  9
$UCSXDIR
 10
1.0
 20
0.0
 30
0.0
  9
$UCSYDIR
 10
0.0
 20
1.0
 30
0.0
  9
$PUCSNAME
  2

  9
$PUCSORG
 10
0.0
 20
0.0
 30
0.0
  9
$PUCSXDIR
 10
1.0
 20
0.0
 30
0.0
  9
$PUCSYDIR
 10
0.0
 20
1.0
 30
0.0
  9
$USERI1
 70
     0
  9
$USERI2
 70
     0
  9
$USERI3
 70
     0
  9
$USERI4
 70
     0
  9
$USERI5
 70
     0
  9
$USERR1
 40
0.0
  9
$USERR2
 40
0.0
  9
$USERR3
 40
0.0
  9
$USERR4
 40
0.0
  9
$USERR5
 40
0.0
  9
$WORLDVIEW
 70
     1
  9
$SHADEDGE
 70
     3
  9
$SHADEDIF
 70
    70
  9
$TILEMODE
 70
     1
  9
$MAXACTVP
 70
    48
  9
$PLIMCHECK
 70
     0
  9
$PEXTMIN
 10
0.0
 20
0.0
 30
0.0
  9
$PEXTMAX
 10
0.0
 20
0.0
 30
0.0
  9
$PLIMMIN
 10
0.0
 20
0.0
  9
$PLIMMAX
 10
12.0
 20
9.0
  9
$UNITMODE
 70
     0
  9
$VISRETAIN
 70
     1
  9
$PLINEGEN
 70
     0
  9
$PSLTSCALE
 70
     1
  0
ENDSEC
  0
SECTION
  2
TABLES
  0
TABLE
  2
VPORT
 70
     1
  0
VPORT
  2
*ACTIVE
 70
     0
 10
0.0
 20
0.0
 11
1.0
 21
1.0
 12
218.91044855360829
 22
47.544083690280267
 13
0.0
 23
0.0
 14
0.5
 24
0.5
 15
0.5
 25
0.5
 16
0.0
 26
0.0
 36
1.0
 17
0.0
 27
0.0
 37
0.0
 40
315.27419053123168
 41
2.1408934707903771
 42
50.0
 43
0.0
 44
0.0
 50
0.0
 51
0.0
 71
     0
 72
  1000
 73
     1
 74
     3
 75
     0
 76
     0
 77
     0
 78
     0
  0
ENDTAB
  0
TABLE
  2
LTYPE
 70
     4
  0
LTYPE
  2
CONTINUOUS
 70
     0
  3
Solid line
 72
    65
 73
     0
 40
0.0
  0
LTYPE
  2
CENTER
 70
     0
  3
____ _ ____ _ ____ _ ____ _ ____ _ ____ _ ____ 
 72
    65
 73
     4
 40
2.0
 49
1.25
 49
-0.25
 49
0.25
 49
-0.25
  0
LTYPE
  2
PHANTOM2
 70
     0
  3
Phantom (.5x) ___ _ _ ___ _ _ ___ _ _ ___ _ _
 72
    65
 73
     6
 40
1.25
 49
0.625
 49
-0.125
 49
0.125
 49
-0.125
 49
0.125
 49
-0.125
  0
ENDTAB
  0
TABLE
  2
LAYER
 70
     3
  0
LAYER
  2
0
 70
     0
 62
     7
  6
CONTINUOUS
  0
LAYER
  2
CENTER
 70
     0
 62
     3
  6
CENTER
  0
LAYER
  2
HIDE
 70
     0
 62
     1
  6
CONTINUOUS
  0
ENDTAB
  0
TABLE
  2
STYLE
 70
     7
  0
STYLE
  2
STANDARD
 70
     0
 40
0.0
 41
1.0
 50
0.0
 71
     0
 42
0.2
  3
txt
  4
whgtxt.shx
  0
STYLE
  2
DUKI_2
 70
     0
 40
3.0
 41
1.0
 50
0.0
 71
     0
 42
3.0
  3
txt
  4

  0
STYLE
  2
DUKI7
 70
     0
 40
20.0
 41
1.0
 50
0.0
 71
     0
 42
20.0
  3
txt
  4

  0
STYLE
  2
DUKI2-1
 70
     0
 40
4.0
 41
1.0
 50
0.0
 71
     0
 42
4.0
  3
txt
  4

  0
STYLE
  2
DUKI_1
 70
     0
 40
2.0
 41
1.0
 50
0.0
 71
     0
 42
2.0
  3
txt
  4

  0
STYLE
  2
DUKI_3
 70
     0
 40
6.0
 41
1.0
 50
0.0
 71
     0
 42
6.0
  3
txt
  4

  0
STYLE
  2
DUKI1-5
 70
     0
 40
2.5
 41
1.0
 50
0.0
 71
     0
 42
2.5
  3
txt
  4

  0
ENDTAB
  0
TABLE
  2
VIEW
 70
     0
  0
ENDTAB
  0
TABLE
  2
UCS
 70
     0
  0
ENDTAB
  0
TABLE
  2
APPID
 70
    13
  0
APPID
  2
ACAD
 70
     0
  0
APPID
  2
ACADANNOPO
 70
     0
  0
APPID
  2
ACADANNOTATIVE
 70
     0
  0
APPID
  2
ACAD_DSTYLE_DIMJAG
 70
     0
  0
APPID
  2
ACAD_DSTYLE_DIMTALN
 70
     0
  0
APPID
  2
ACAD_MLEADERVER
 70
     0
  0
APPID
  2
ACAD_PSEXT
 70
     0
  0
APPID
  2
ACAECLAYERSTANDARD
 70
     0
  0
APPID
  2
ACAD_DSTYLE_DIMBREAK
 70
     0
  0
APPID
  2
ACAD_DSTYLE_DIMTEXT_FILL
 70
     0
  0
APPID
  2
ACAD_EXEMPT_FROM_CAD_STANDARDS
 70
     0
  0
APPID
  2
ACAD_NAV_VCDISPLAY
 70
     0
  0
APPID
  2
ACDBDYNAMICBLOCKTRUENAME2
 70
     0
  0
ENDTAB
  0
TABLE
  2
DIMSTYLE
 70
     6
  0
DIMSTYLE
  2
STANDARD
 70
     0
  3

  4

  5

  6

  7

 40
1.0
 41
0.18
 42
0.0625
 43
0.38
 44
0.18
 45
0.0
 46
0.0
 47
0.0
 48
0.0
140
0.18
141
0.09
142
0.0
143
25.399999999999999
144
1.0
145
0.0
146
1.0
147
0.09
 71
     0
 72
     0
 73
     1
 74
     1
 75
     0
 76
     0
 77
     0
 78
     0
170
     0
171
     2
172
     0
173
     0
174
     0
175
     0
176
     0
177
     0
178
     0
  0
DIMSTYLE
  2
DUKI2-1
 70
     0
  3

  4

  5

  6

  7

 40
1.0
 41
2.5
 42
1.0
 43
1.0
 44
1.0
 45
0.0
 46
0.0
 47
0.0
 48
0.0
140
4.0
141
1.0
142
0.0
143
25.399999999999999
144
1.0
145
0.0
146
0.5
147
1.5
 71
     0
 72
     0
 73
     0
 74
     0
 75
     0
 76
     0
 77
     1
 78
     8
170
     0
171
     2
172
     1
173
     0
174
     0
175
     0
176
     5
177
     5
178
     2
  0
DIMSTYLE
  2
DUKI2
 70
     0
  3

  4

  5

  6

  7

 40
1.0
 41
2.0
 42
0.8
 43
1.0
 44
0.6
 45
0.0
 46
0.0
 47
0.0
 48
0.000000001
140
3.0
141
1.0
142
0.0
143
25.399999999999999
144
1.0
145
0.0
146
0.5
147
1.0
 71
     0
 72
     0
 73
     0
 74
     0
 75
     0
 76
     0
 77
     1
 78
     8
170
     0
171
     2
172
     1
173
     0
174
     0
175
     0
176
     5
177
     5
178
     2
  0
DIMSTYLE
  2
DUKI1
 70
     0
  3

  4

  5

  6

  7

 40
1.0
 41
1.5
 42
0.5
 43
1.0
 44
0.5
 45
0.0
 46
0.0
 47
0.0
 48
0.000000001
140
2.0
141
1.0
142
0.0
143
25.399999999999999
144
1.0
145
0.0
146
0.5
147
0.7
 71
     0
 72
     0
 73
     0
 74
     0
 75
     0
 76
     0
 77
     1
 78
     8
170
     0
171
     2
172
     1
173
     0
174
     0
175
     0
176
     5
177
     5
178
     2
  0
DIMSTYLE
  2
DUKI7
 70
     0
  3

  4

  5

  6

  7

 40
1.0
 41
14.0
 42
9.0
 43
1.0
 44
4.0
 45
0.0
 46
0.0
 47
0.0
 48
0.000000001
140
20.0
141
1.0
142
0.0
143
25.399999999999999
144
1.0
145
0.0
146
0.5
147
7.0
 71
     0
 72
     0
 73
     0
 74
     0
 75
     0
 76
     0
 77
     1
 78
     8
170
     0
171
     2
172
     1
173
     0
174
     0
175
     0
176
     5
177
     5
178
     2
  0
DIMSTYLE
  2
DUKI1-5
 70
     0
  3

  4

  5

  6

  7

 40
1.0
 41
1.8
 42
0.5
 43
1.0
 44
0.5
 45
0.0
 46
0.0
 47
0.0
 48
0.000000001
140
2.5
141
1.0
142
0.0
143
25.399999999999999
144
1.0
145
0.0
146
0.5
147
0.8
 71
     0
 72
     0
 73
     0
 74
     0
 75
     0
 76
     0
 77
     1
 78
     8
170
     0
171
     2
172
     1
173
     0
174
     0
175
     0
176
     5
177
     5
178
     2
  0
ENDTAB
  0
ENDSEC
  0
SECTION
  2
BLOCKS
  0
BLOCK
  8
0
  2
$MODEL_SPACE
 70
     0
 10
0.0
 20
0.0
 30
0.0
  3
$MODEL_SPACE
  1

  0
ENDBLK
  5
21
  8
0
  0
BLOCK
 67
     1
  8
0
  2
$PAPER_SPACE
 70
     0
 10
0.0
 20
0.0
 30
0.0
  3
$PAPER_SPACE
  1

  0
ENDBLK
  5
5B
 67
     1
  8
0
  0
BLOCK
  8
0
  2
*U1
 70
     1
 10
0.0
 20
0.0
 30
0.0
  3
*U1
  1

  0
CIRCLE
  5
ABA
  8
0
 10
0.0
 20
0.0
 30
0.0
 40
2.0
  0
ENDBLK
  5
ABB
  8
0
  0
BLOCK
  8
0
  2
*U2
 70
     1
 10
0.0
 20
0.0
 30
0.0
  3
*U2
  1

  0
INSERT
  5
AC0
  8
0
  6
BYBLOCK
 62
     0
  2
*U1
 10
100.7017789407853
 20
104.01628034550509
 30
0.0
  0
INSERT
  5
AC1
  8
0
  6
BYBLOCK
 62
     0
  2
*U1
 10
83.164764514150406
 20
93.891280345505095
 30
0.0
 50
60.0
  0
INSERT
  5
AC2
  8
0
  6
BYBLOCK
 62
     0
  2
*U1
 10
83.164764514150406
 20
73.641280345505066
 30
0.0
 41
0.9999999999999998
 42
0.9999999999999998
 43
0.9999999999999998
 50
120.0
  0
INSERT
  5
AC3
  8
0
  6
BYBLOCK
 62
     0
  2
*U1
 10
100.7017789407853
 20
63.516280345505074
 30
0.0
 41
0.9999999999999998
 42
0.9999999999999998
 43
0.9999999999999998
 50
180.0
  0
INSERT
  5
AC4
  8
0
  6
BYBLOCK
 62
     0
  2
*U1
 10
118.2387933674202
 20
73.641280345505095
 30
0.0
 41
0.9999999999999998
 42
0.9999999999999998
 43
0.9999999999999998
 50
240.0
  0
INSERT
  5
AC5
  8
0
  6
BYBLOCK
 62
     0
  2
*U1
 10
118.2387933674202
 20
93.891280345505109
 30
0.0
 41
0.9999999999999998
 42
0.9999999999999998
 43
0.9999999999999998
 50
300.0
  0
ENDBLK
  5
AC6
  8
0
  0
BLOCK
  8
0
  2
*U4
 70
     1
 10
0.0
 20
0.0
 30
0.0
  3
*U4
  1

  0
CIRCLE
  5
BAA
  8
0
 10
-0.000000000007276
 20
0.0
 30
0.0
 40
2.5
  0
ENDBLK
  5
BAB
  8
0
  0
BLOCK
  8
0
  2
*U5
 70
     1
 10
0.0
 20
0.0
 30
0.0
  3
*U5
  1

  0
INSERT
  5
BAF
  8
0
  6
BYBLOCK
 62
     0
  2
*U4
 10
-42145.657432805529
 20
9900.6143382640767
 30
0.0
  0
INSERT
  5
BB0
  8
0
  6
BYBLOCK
 62
     0
  2
*U4
 10
-42163.194447232163
 20
9890.4893382640767
 30
0.0
 50
59.999999999999993
  0
INSERT
  5
BB1
  8
0
  6
BYBLOCK
 62
     0
  2
*U4
 10
-42163.194447232163
 20
9870.2393382640767
 30
0.0
 50
120.0
  0
INSERT
  5
BB2
  8
0
  6
BYBLOCK
 62
     0
  2
*U4
 10
-42145.657432805529
 20
9860.1143382640767
 30
0.0
 50
180.0
  0
INSERT
  5
BB3
  8
0
  6
BYBLOCK
 62
     0
  2
*U4
 10
-42128.120418378901
 20
9870.2393382640767
 30
0.0
 41
0.9999999999999998
 42
0.9999999999999998
 43
0.9999999999999998
 50
240.0
  0
INSERT
  5
BB4
  8
0
  6
BYBLOCK
 62
     0
  2
*U4
 10
-42128.120418378901
 20
9890.4893382640767
 30
0.0
 50
300.0
  0
ENDBLK
  5
BB5
  8
0
  0
BLOCK
  8
0
  2
*U6
 70
     1
 10
0.0
 20
0.0
 30
0.0
  3
*U6
  1

  0
ARC
  5
BB8
  8
CENTER
 10
-0.000000000007276
 20
-20.25
 30
0.0
 40
20.25
 50
78.663833983350131
 51
101.3361660166498
  0
LINE
  5
BB9
  8
CENTER
 10
-0.000000000007276
 20
4.0
 30
0.0
 11
-0.000000000007276
 21
-4.0
 31
0.0
  0
ENDBLK
  5
BBA
  8
0
  0
BLOCK
  8
0
  2
*U7
 70
     1
 10
0.0
 20
0.0
 30
0.0
  3
*U7
  1

  0
INSERT
  5
BBE
  8
0
  6
BYBLOCK
 62
     0
  2
*U6
 10
-42145.657432805529
 20
9900.6143382640767
 30
0.0
  0
INSERT
  5
BBF
  8
0
  6
BYBLOCK
 62
     0
  2
*U6
 10
-42163.194447232163
 20
9890.4893382640767
 30
0.0
 50
59.999999999999993
  0
INSERT
  5
BC0
  8
0
  6
BYBLOCK
 62
     0
  2
*U6
 10
-42163.194447232163
 20
9870.2393382640767
 30
0.0
 50
120.0
  0
INSERT
  5
BC1
  8
0
  6
BYBLOCK
 62
     0
  2
*U6
 10
-42145.657432805529
 20
9860.1143382640767
 30
0.0
 50
180.0
  0
INSERT
  5
BC2
  8
0
  6
BYBLOCK
 62
     0
  2
*U6
 10
-42128.120418378901
 20
9870.2393382640767
 30
0.0
 41
0.9999999999999998
 42
0.9999999999999998
 43
0.9999999999999998
 50
240.0
  0
INSERT
  5
BC3
  8
0
  6
BYBLOCK
 62
     0
  2
*U6
 10
-42128.120418378901
 20
9890.4893382640767
 30
0.0
 50
300.0
  0
ENDBLK
  5
BC4
  8
0
  0
BLOCK
  8
0
  2
*U10
 70
     1
 10
0.0
 20
0.0
 30
0.0
  3
*U10
  1

  0
CIRCLE
  5
C68
  8
0
 10
-0.000000000007276
 20
0.0
 30
0.0
 40
2.5
  0
ENDBLK
  5
C69
  8
0
  0
BLOCK
  8
0
  2
*U12
 70
     1
 10
0.0
 20
0.0
 30
0.0
  3
*U12
  1

  0
INSERT
  5
C6F
  8
0
  6
BYBLOCK
 62
     0
  2
*U10
 10
-42145.657432805529
 20
9900.6143382640767
 30
0.0
  0
INSERT
  5
C70
  8
0
  6
BYBLOCK
 62
     0
  2
*U10
 10
-42163.194447232163
 20
9890.4893382640767
 30
0.0
 50
59.999999999999993
  0
INSERT
  5
C71
  8
0
  6
BYBLOCK
 62
     0
  2
*U10
 10
-42163.194447232163
 20
9870.2393382640767
 30
0.0
 50
120.0
  0
INSERT
  5
C72
  8
0
  6
BYBLOCK
 62
     0
  2
*U10
 10
-42145.657432805529
 20
9860.1143382640767
 30
0.0
 50
180.0
  0
INSERT
  5
C73
  8
0
  6
BYBLOCK
 62
     0
  2
*U10
 10
-42128.120418378901
 20
9870.2393382640767
 30
0.0
 41
0.9999999999999998
 42
0.9999999999999998
 43
0.9999999999999998
 50
240.0
  0
INSERT
  5
C74
  8
0
  6
BYBLOCK
 62
     0
  2
*U10
 10
-42128.120418378901
 20
9890.4893382640767
 30
0.0
 50
300.0
  0
ENDBLK
  5
C75
  8
0
  0
BLOCK
  8
0
  2
*U13
 70
     1
 10
0.0
 20
0.0
 30
0.0
  3
*U13
  1

  0
ARC
  5
C78
  8
CENTER
 10
-0.000000000007276
 20
-20.25
 30
0.0
 40
20.25
 50
78.663833983350131
 51
101.3361660166498
  0
LINE
  5
C79
  8
CENTER
 10
-0.000000000007276
 20
4.0
 30
0.0
 11
-0.000000000007276
 21
-4.0
 31
0.0
  0
ENDBLK
  5
C7A
  8
0
  0
BLOCK
  8
0
  2
*U14
 70
     1
 10
0.0
 20
0.0
 30
0.0
  3
*U14
  1

  0
INSERT
  5
C7E
  8
0
  6
BYBLOCK
 62
     0
  2
*U13
 10
-42145.657432805529
 20
9900.6143382640767
 30
0.0
  0
INSERT
  5
C7F
  8
0
  6
BYBLOCK
 62
     0
  2
*U13
 10
-42163.194447232163
 20
9890.4893382640767
 30
0.0
 50
59.999999999999993
  0
INSERT
  5
C80
  8
0
  6
BYBLOCK
 62
     0
  2
*U13
 10
-42163.194447232163
 20
9870.2393382640767
 30
0.0
 50
120.0
  0
INSERT
  5
C81
  8
0
  6
BYBLOCK
 62
     0
  2
*U13
 10
-42145.657432805529
 20
9860.1143382640767
 30
0.0
 50
180.0
  0
INSERT
  5
C82
  8
0
  6
BYBLOCK
 62
     0
  2
*U13
 10
-42128.120418378901
 20
9870.2393382640767
 30
0.0
 41
0.9999999999999998
 42
0.9999999999999998
 43
0.9999999999999998
 50
240.0
  0
INSERT
  5
C83
  8
0
  6
BYBLOCK
 62
     0
  2
*U13
 10
-42128.120418378901
 20
9890.4893382640767
 30
0.0
 50
300.0
  0
ENDBLK
  5
C84
  8
0
  0
BLOCK
  8
0
  2
*U15
 70
     1
 10
0.0
 20
0.0
 30
0.0
  3
*U15
  1

  0
TEXT
  5
D4A
  8
0
 10
1.7970114992297599
 20
7.5649178019376784
 30
0.0
 40
20.0
  1
WBK30
  7
DUKI7
  0
ENDBLK
  5
D4C
  8
0
  0
BLOCK
  8
0
  2
*U16
 70
     1
 10
0.0
 20
0.0
 30
0.0
  3
*U16
  1

  0
TEXT
  5
D4E
  8
0
 10
162.38359150543101
 20
-21.165302048220141
 30
0.0
 40
20.0
  1
WBK30-DFT
  7
DUKI7
  0
ENDBLK
  5
D50
  8
0
  0
BLOCK
  8
0
  2
*X17
 70
     1
 10
0.0
 20
0.0
 30
0.0
  3
*X17
  1

  0
LINE
  5
D57
  8
0
 62
     0
 10
89.288550513755624
 20
43.845367603552297
 30
0.0
 11
88.08591042431965
 21
44.16761404430197
 31
0.0
  0
LINE
  5
D58
  8
0
 62
     0
 10
86.666972123671982
 20
43.286074571195307
 30
0.0
 11
86.59325261231082
 21
43.305827654730962
 31
0.0
  0
LINE
  5
D59
  8
0
 62
     0
 10
90.150336903326107
 20
42.35270979154398
 30
0.0
 11
86.66697212367211
 21
43.286074571195279
 31
0.0
  0
LINE
  5
D5A
  8
0
 62
     0
 10
87.528758513242025
 20
41.793416759187117
 30
0.0
 11
85.100594800300556
 21
42.444041265160351
 31
0.0
  0
LINE
  5
D5B
  8
0
 62
     0
 10
91.012123292896504
 20
40.86005197953569
 30
0.0
 11
87.528758513246515
 21
41.793416759185931
 31
0.0
  0
LINE
  5
D5C
  8
0
 62
     0
 10
88.096887397736239
 20
40.379444238515298
 30
0.0
 11
84.907180123163485
 21
41.23412372682877
 31
0.0
  0
LINE
  5
D5D
  8
0
 62
     0
 10
90.120897493643184
 20
40.379444238515099
 30
0.0
 11
90.49136207298703
 21
41.762036871030972
 31
0.0
  0
LINE
  5
D5E
  8
0
 62
     0
 10
88.85915464876841
 20
40.379444238515099
 30
0.0
 11
89.629575683416107
 21
43.254694683040128
 31
0.0
  0
LINE
  5
D5F
  8
0
 62
     0
 10
87.834424514194794
 20
41.263987715398713
 30
0.0
 11
88.708812063008651
 21
44.527246473077611
 31
0.0
  0
LINE
  5
D60
  8
0
 62
     0
 10
87.597411803893735
 20
40.379444238515582
 30
0.0
 11
87.834424514193174
 21
41.26398771539268
 31
0.0
  0
LINE
  5
D61
  8
0
 62
     0
 10
86.972638124622804
 20
42.756645527403968
 30
0.0
 11
87.216154251000233
 21
43.665460083506836
 31
0.0
  0
LINE
  5
D62
  8
0
 62
     0
 10
86.335668959019159
 20
40.379444238516378
 30
0.0
 11
86.972638124622364
 21
42.756645527402242
 31
0.0
  0
LINE
  5
D63
  8
0
 62
     0
 10
85.177486955401406
 20
40.765938559762127
 30
0.0
 11
85.723496438992044
 21
42.803673693936929
 31
0.0
  0
ENDBLK
  5
D65
  8
0
  0
BLOCK
  8
0
  2
*X18
 70
     1
 10
0.0
 20
0.0
 30
0.0
  3
*X18
  1

  0
LINE
  5
D67
  8
0
 62
     0
 10
196.19526280423131
 20
101.48218293648461
 30
0.0
 11
194.99262271479529
 21
101.8044293772342
 31
0.0
  0
LINE
  5
D68
  8
0
 62
     0
 10
193.57368441414761
 20
100.9228899041276
 30
0.0
 11
193.49996490278639
 21
100.94264298766321
 31
0.0
  0
LINE
  5
D69
  8
0
 62
     0
 10
197.0570491938017
 20
99.989525124476273
 30
0.0
 11
193.57368441414769
 21
100.9228899041275
 31
0.0
  0
LINE
  5
D6A
  8
0
 62
     0
 10
194.43547080371761
 20
99.430232092119425
 30
0.0
 11
192.00730709077621
 21
100.08085659809259
 31
0.0
  0
LINE
  5
D6B
  8
0
 62
     0
 10
197.9188355833721
 20
98.496867312467984
 30
0.0
 11
194.4354708037221
 21
99.430232092118231
 31
0.0
  0
LINE
  5
D6C
  8
0
 62
     0
 10
195.00359968821201
 20
98.016259571447577
 30
0.0
 11
191.813892413639
 21
98.870939059761085
 31
0.0
  0
LINE
  5
D6D
  8
0
 62
     0
 10
197.02760978411879
 20
98.016259571447392
 30
0.0
 11
197.39807436346271
 21
99.398852203963273
 31
0.0
  0
LINE
  5
D6E
  8
0
 62
     0
 10
195.76586693924401
 20
98.016259571447392
 30
0.0
 11
196.53628797389169
 21
100.8915100159724
 31
0.0
  0
LINE
  5
D6F
  8
0
 62
     0
 10
194.74113680467039
 20
98.900803048330999
 30
0.0
 11
195.61552435348429
 21
102.1640618060099
 31
0.0
  0
LINE
  5
D70
  8
0
 62
     0
 10
194.50412409436939
 20
98.016259571447875
 30
0.0
 11
194.7411368046688
 21
98.900803048324974
 31
0.0
  0
LINE
  5
D71
  8
0
 62
     0
 10
193.8793504150984
 20
100.39346086033621
 30
0.0
 11
194.12286654147579
 21
101.3022754164391
 31
0.0
  0
LINE
  5
D72
  8
0
 62
     0
 10
193.2423812494948
 20
98.016259571448671
 30
0.0
 11
193.879350415098
 21
100.3934608603345
 31
0.0
  0
LINE
  5
D73
  8
0
 62
     0
 10
192.08419924587699
 20
98.402753892694435
 30
0.0
 11
192.63020872946771
 21
100.4404890268692
 31
0.0
  0
ENDBLK
  5
D75
  8
0
  0
ENDSEC
  0
SECTION
  2
ENTITIES
  0
LINE
  5
2B0
  8
CENTER
  6
CENTER
 10
76.893202530907956
 20
154.5263052027295
 30
0.0
 11
76.893202530907971
 21
13.006255488280731
 31
0.0
  0
LINE
  5
2B4
  8
CENTER
  6
CENTER
 10
138.24920495058831
 20
83.766280345505109
 30
0.0
 11
15.53720011122758
 21
83.766280345505109
 31
0.0
  0
LINE
  5
30E
  8
CENTER
 10
314.59929033432252
 20
83.766259571445588
 30
0.0
 11
174.4879027985003
 21
83.766259571445588
 31
0.0
  0
LINE
  5
41E
  8
CENTER
  6
CENTER
 10
368.24660979128691
 20
143.76628034550509
 30
0.0
 11
368.24660979128691
 21
23.76628034550512
 31
0.0
  0
LINE
  5
41F
  8
CENTER
  6
CENTER
 10
418.24659979128711
 20
83.766280345505109
 30
0.0
 11
368.24660979128703
 21
83.766280345505109
 31
0.0
  0
ARC
  5
5A7
  8
0
 10
76.893202530907956
 20
83.766280345505109
 30
0.0
 40
65.0
 50
219.71513723182619
 51
320.28486276817381
  0
ARC
  5
5B0
  8
0
 10
76.893202530907956
 20
83.766280345505109
 30
0.0
 40
65.0
 50
39.715137231826169
 51
140.28486276817381
  0
LINE
  5
5B1
  8
0
 10
126.8932025309079
 20
125.2993996600954
 30
0.0
 11
126.8932025309079
 21
42.233161030914729
 31
0.0
  0
LINE
  5
5B2
  8
0
 10
26.89320253090796
 20
42.233161030914758
 30
0.0
 11
26.893202530907971
 21
125.2993996600955
 31
0.0
  0
CIRCLE
  5
5B5
  8
CENTER
 10
76.893202530907971
 20
83.766280345505109
 30
0.0
 40
55.0
  0
CIRCLE
  5
5B6
  8
0
 10
76.893202530907971
 20
83.766280345505109
 30
0.0
 40
45.0
  0
CIRCLE
  5
5B7
  8
CENTER
 10
76.893202530907971
 20
83.766280345505109
 30
0.0
 40
36.5
  0
CIRCLE
  5
5B8
  8
0
 10
76.893202530907971
 20
83.766280345505109
 30
0.0
 40
28.5
  0
CIRCLE
  5
5B9
  8
0
 10
76.893202530907971
 20
83.766280345505109
 30
0.0
 40
27.5
  0
LINE
  5
5BB
  8
CENTER
 10
100.0241746868146
 20
94.552429802374391
 30
0.0
 11
120.9881305583412
 21
104.3280829704907
 31
0.0
  0
CIRCLE
  5
5C2
  8
0
 10
109.9734367577457
 20
99.191846899040641
 30
0.0
 40
7.0
  0
CIRCLE
  5
5C3
  8
0
 10
109.9734367577457
 20
99.191846899040641
 30
0.0
 40
6.0
  0
LINE
  5
5C8
  8
0
 10
106.9484367577457
 20
97.431342709894807
 30
0.0
 11
106.9484367577457
 21
100.9523510881864
 31
0.0
  0
LINE
  5
5C9
  8
0
 10
106.9484367577457
 20
97.431342709894807
 30
0.0
 11
106.9484367577457
 21
100.9523510881864
 31
0.0
  0
LINE
  5
5CA
  8
0
 10
112.99843675774569
 20
97.431342709894864
 30
0.0
 11
112.99843675774569
 21
100.9523510881864
 31
0.0
  0
LINE
  5
5CD
  8
0
 10
106.9484367577457
 20
100.9523510881865
 30
0.0
 11
109.9734367577457
 21
102.6918468990406
 31
0.0
  0
LINE
  5
5CE
  8
0
 10
109.9734367577457
 20
102.6918468990406
 30
0.0
 11
112.99843675774569
 21
100.9523510881864
 31
0.0
  0
LINE
  5
5CF
  8
0
 10
106.9484367577457
 20
97.431342709894793
 30
0.0
 11
109.9734367577457
 21
95.691846899040641
 31
0.0
  0
LINE
  5
5D0
  8
0
 10
109.9734367577457
 20
95.691846899040641
 30
0.0
 11
112.99843675774569
 21
97.431342709894906
 31
0.0
  0
CIRCLE
  5
5D3
  8
0
 10
76.893202530907956
 20
120.26628034550509
 30
0.0
 40
7.0
  0
CIRCLE
  5
5D4
  8
0
 10
76.893202530907956
 20
120.26628034550509
 30
0.0
 40
6.0
  0
LINE
  5
5D5
  8
0
 10
79.91820253090799
 20
118.5057761563593
 30
0.0
 11
79.918202530907962
 21
122.0267845346509
 31
0.0
  0
LINE
  5
5D6
  8
0
 10
73.868202530907951
 20
118.5057761563593
 30
0.0
 11
73.868202530907951
 21
122.0267845346509
 31
0.0
  0
LINE
  5
5D7
  8
0
 10
73.868202530907951
 20
118.5057761563593
 30
0.0
 11
73.868202530907951
 21
122.0267845346509
 31
0.0
  0
LINE
  5
5D8
  8
0
 10
73.868202530907979
 20
122.0267845346509
 30
0.0
 11
76.893202530907956
 21
123.76628034550509
 31
0.0
  0
LINE
  5
5D9
  8
0
 10
76.893202530907956
 20
123.76628034550509
 30
0.0
 11
79.91820253090799
 21
122.0267845346509
 31
0.0
  0
LINE
  5
5DA
  8
0
 10
73.868202530907979
 20
118.5057761563592
 30
0.0
 11
76.893202530907956
 21
116.76628034550509
 31
0.0
  0
LINE
  5
5DB
  8
0
 10
76.893202530907956
 20
116.76628034550509
 30
0.0
 11
79.918202530908019
 21
118.5057761563593
 31
0.0
  0
CIRCLE
  5
5DC
  8
0
 10
76.893202530907956
 20
47.266280345505102
 30
0.0
 40
7.0
  0
CIRCLE
  5
5DD
  8
0
 10
76.893202530907956
 20
47.266280345505102
 30
0.0
 40
6.0
  0
LINE
  5
5DE
  8
0
 10
79.91820253090799
 20
49.026784534650893
 30
0.0
 11
79.918202530907962
 21
45.505776156359268
 31
0.0
  0
LINE
  5
5DF
  8
0
 10
73.868202530907951
 20
49.026784534650943
 30
0.0
 11
73.868202530907951
 21
45.505776156359268
 31
0.0
  0
LINE
  5
5E0
  8
0
 10
73.868202530907951
 20
49.026784534650943
 30
0.0
 11
73.868202530907951
 21
45.505776156359268
 31
0.0
  0
LINE
  5
5E1
  8
0
 10
73.868202530907979
 20
45.505776156359254
 30
0.0
 11
76.893202530907956
 21
43.766280345505109
 31
0.0
  0
LINE
  5
5E2
  8
0
 10
76.893202530907956
 20
43.766280345505109
 30
0.0
 11
79.91820253090799
 21
45.505776156359317
 31
0.0
  0
LINE
  5
5E3
  8
0
 10
73.868202530907979
 20
49.026784534650957
 30
0.0
 11
76.893202530907956
 21
50.766280345505109
 31
0.0
  0
LINE
  5
5E4
  8
0
 10
76.893202530907956
 20
50.766280345505109
 30
0.0
 11
79.918202530908019
 21
49.026784534650837
 31
0.0
  0
LINE
  5
5E5
  8
CENTER
 10
100.0241746868145
 20
72.980130888635813
 30
0.0
 11
120.9881305583412
 21
63.204477720519492
 31
0.0
  0
CIRCLE
  5
5E6
  8
0
 10
109.9734367577457
 20
68.340713791969563
 30
0.0
 40
7.0
  0
CIRCLE
  5
5E7
  8
0
 10
109.9734367577457
 20
68.340713791969563
 30
0.0
 40
6.0
  0
LINE
  5
5E8
  8
0
 10
112.99843675774569
 20
70.10121798111534
 30
0.0
 11
112.99843675774569
 21
66.580209602823729
 31
0.0
  0
LINE
  5
5E9
  8
0
 10
106.9484367577457
 20
70.101217981115397
 30
0.0
 11
106.9484367577457
 21
66.580209602823729
 31
0.0
  0
LINE
  5
5EA
  8
0
 10
106.9484367577457
 20
70.101217981115397
 30
0.0
 11
106.9484367577457
 21
66.580209602823729
 31
0.0
  0
LINE
  5
5EB
  8
0
 10
106.9484367577457
 20
66.580209602823714
 30
0.0
 11
109.9734367577457
 21
64.840713791969563
 31
0.0
  0
LINE
  5
5EC
  8
0
 10
109.9734367577457
 20
64.840713791969563
 30
0.0
 11
112.99843675774569
 21
66.580209602823771
 31
0.0
  0
LINE
  5
5ED
  8
0
 10
106.9484367577457
 20
70.101217981115411
 30
0.0
 11
109.9734367577457
 21
71.840713791969563
 31
0.0
  0
LINE
  5
5EE
  8
0
 10
109.9734367577457
 20
71.840713791969563
 30
0.0
 11
112.99843675774569
 21
70.101217981115298
 31
0.0
  0
LINE
  5
5EF
  8
CENTER
 10
53.762230375001351
 20
94.552429802374363
 30
0.0
 11
32.798274503474737
 21
104.3280829704906
 31
0.0
  0
CIRCLE
  5
5F0
  8
0
 10
43.812968304070232
 20
99.191846899040627
 30
0.0
 40
7.0
  0
CIRCLE
  5
5F1
  8
0
 10
43.812968304070232
 20
99.191846899040627
 30
0.0
 40
6.0
  0
LINE
  5
5F2
  8
0
 10
40.787968304070212
 20
97.431342709894835
 30
0.0
 11
40.787968304070233
 21
100.9523510881864
 31
0.0
  0
LINE
  5
5F3
  8
0
 10
46.837968304070237
 20
97.431342709894793
 30
0.0
 11
46.837968304070237
 21
100.9523510881864
 31
0.0
  0
LINE
  5
5F4
  8
0
 10
46.837968304070237
 20
97.431342709894793
 30
0.0
 11
46.837968304070237
 21
100.9523510881864
 31
0.0
  0
LINE
  5
5F5
  8
0
 10
46.837968304070209
 20
100.9523510881864
 30
0.0
 11
43.812968304070232
 21
102.6918468990406
 31
0.0
  0
LINE
  5
5F6
  8
0
 10
43.812968304070232
 20
102.6918468990406
 30
0.0
 11
40.787968304070212
 21
100.9523510881864
 31
0.0
  0
LINE
  5
5F7
  8
0
 10
46.837968304070209
 20
97.431342709894764
 30
0.0
 11
43.812968304070232
 21
95.691846899040598
 31
0.0
  0
LINE
  5
5F8
  8
0
 10
43.812968304070232
 20
95.691846899040598
 30
0.0
 11
40.787968304070169
 21
97.431342709894878
 31
0.0
  0
LINE
  5
5F9
  8
CENTER
 10
53.76223037500138
 20
72.980130888635784
 30
0.0
 11
32.798274503474779
 21
63.204477720519449
 31
0.0
  0
CIRCLE
  5
5FA
  8
0
 10
43.812968304070232
 20
68.340713791969534
 30
0.0
 40
7.0
  0
CIRCLE
  5
5FB
  8
0
 10
43.812968304070232
 20
68.340713791969534
 30
0.0
 40
6.0
  0
LINE
  5
5FC
  8
0
 10
40.787968304070212
 20
70.101217981115312
 30
0.0
 11
40.787968304070262
 21
66.5802096028237
 31
0.0
  0
LINE
  5
5FD
  8
0
 10
46.837968304070237
 20
70.101217981115369
 30
0.0
 11
46.837968304070273
 21
66.5802096028237
 31
0.0
  0
LINE
  5
5FE
  8
0
 10
46.837968304070237
 20
70.101217981115369
 30
0.0
 11
46.837968304070273
 21
66.5802096028237
 31
0.0
  0
LINE
  5
5FF
  8
0
 10
46.837968304070237
 20
66.580209602823686
 30
0.0
 11
43.81296830407026
 21
64.840713791969534
 31
0.0
  0
LINE
  5
600
  8
0
 10
43.81296830407026
 20
64.840713791969534
 30
0.0
 11
40.787968304070233
 21
66.580209602823743
 31
0.0
  0
LINE
  5
601
  8
0
 10
46.837968304070209
 20
70.101217981115383
 30
0.0
 11
43.812968304070232
 21
71.840713791969534
 31
0.0
  0
LINE
  5
602
  8
0
 10
43.812968304070232
 20
71.840713791969534
 30
0.0
 11
40.787968304070169
 21
70.101217981115255
 31
0.0
  0
LINE
  5
603
  8
CENTER
 10
98.024482066750664
 20
104.8975598813478
 30
0.0
 11
126.4517022042388
 21
133.32478001883601
 31
0.0
  0
LINE
  5
609
  8
CENTER
 10
98.024482066750664
 20
62.635000809662401
 30
0.0
 11
126.4517022042388
 21
34.207780672174209
 31
0.0
  0
LINE
  5
60A
  8
CENTER
 10
55.761922995065262
 20
104.8975598813478
 30
0.0
 11
27.334702857577071
 21
133.32478001883601
 31
0.0
  0
LINE
  5
60B
  8
CENTER
 10
55.76192299506527
 20
62.635000809662401
 30
0.0
 11
27.334702857577099
 21
34.207780672174188
 31
0.0
  0
CIRCLE
  5
60C
  8
0
 10
115.784075496168
 20
122.6571533107652
 30
0.0
 40
8.75
  0
CIRCLE
  5
60D
  8
0
 10
115.784075496168
 20
122.6571533107652
 30
0.0
 40
5.5
  0
CIRCLE
  5
60E
  8
0
 10
76.893202530907956
 20
138.76628034550509
 30
0.0
 40
8.75
  0
CIRCLE
  5
60F
  8
0
 10
76.893202530907956
 20
138.76628034550509
 30
0.0
 40
5.5
  0
CIRCLE
  5
610
  8
0
 10
38.002329565647862
 20
122.6571533107652
 30
0.0
 40
8.75
  0
CIRCLE
  5
611
  8
0
 10
38.002329565647862
 20
122.6571533107652
 30
0.0
 40
5.5
  0
CIRCLE
  5
612
  8
0
 10
38.002329565647891
 20
44.87540738024498
 30
0.0
 40
8.75
  0
CIRCLE
  5
613
  8
0
 10
38.002329565647891
 20
44.87540738024498
 30
0.0
 40
5.5
  0
CIRCLE
  5
614
  8
0
 10
76.893202530907971
 20
28.766280345505109
 30
0.0
 40
8.75
  0
CIRCLE
  5
615
  8
0
 10
76.893202530907971
 20
28.766280345505109
 30
0.0
 40
5.5
  0
CIRCLE
  5
616
  8
0
 10
115.784075496168
 20
44.87540738024498
 30
0.0
 40
8.75
  0
CIRCLE
  5
617
  8
0
 10
115.784075496168
 20
44.87540738024498
 30
0.0
 40
5.5
  0
ARC
  5
618
  8
HIDE
 10
102.70260004421689
 20
109.5756778588141
 30
0.0
 40
3.0
 50
214.2163797337563
 51
120.1909666333015
  0
CIRCLE
  5
61C
  8
0
 10
102.70260004421689
 20
109.5756778588141
 30
0.0
 40
2.5
  0
ARC
  5
61D
  8
HIDE
 10
102.70260004421689
 20
57.956882832196108
 30
0.0
 40
3.0
 50
239.8090333666982
 51
145.78362026624319
  0
CIRCLE
  5
61E
  8
0
 10
102.70260004421689
 20
57.956882832196108
 30
0.0
 40
2.5
  0
ARC
  5
61F
  8
HIDE
 10
51.083805017598962
 20
109.5756778588141
 30
0.0
 40
3.0
 50
59.80903336669892
 51
325.7836202662437
  0
CIRCLE
  5
620
  8
0
 10
51.083805017598962
 20
109.5756778588141
 30
0.0
 40
2.5
  0
ARC
  5
621
  8
HIDE
 10
51.083805017598962
 20
57.956882832196108
 30
0.0
 40
3.0
 50
34.216379733756654
 51
300.190966633301
  0
CIRCLE
  5
622
  8
0
 10
51.083805017598962
 20
57.956882832196108
 30
0.0
 40
2.5
  0
LINE
  5
63D
  8
0
 10
238.0245868832001
 20
148.76628034550509
 30
0.0
 11
254.02458688320019
 21
148.76628034550509
 31
0.0
  0
LINE
  5
640
  8
HIDE
 10
187.02458688320019
 20
98.766259571445616
 30
0.0
 11
225.0245868832001
 21
98.766259571445616
 31
0.0
  0
LINE
  5
643
  8
0
 10
237.0245868832001
 20
128.7662595714456
 30
0.0
 11
237.0245868832001
 21
147.76628034550509
 31
0.0
  0
LINE
  5
644
  8
0
 10
255.02458688320019
 20
126.2662595714456
 30
0.0
 11
255.02458688320019
 21
147.76628034550509
 31
0.0
  0
LINE
  5
645
  8
0
 10
237.0245868832001
 20
147.76628034550509
 30
0.0
 11
238.0245868832001
 21
148.76628034550509
 31
0.0
  0
LINE
  5
646
  8
0
 10
255.02458688320019
 20
147.76628034550509
 30
0.0
 11
254.02458688320019
 21
148.76628034550509
 31
0.0
  0
LINE
  5
648
  8
0
 10
302.02458688320002
 20
126.2662595714456
 30
0.0
 11
255.0245868832001
 21
126.2662595714456
 31
0.0
  0
LINE
  5
649
  8
0
 10
303.02458688320002
 20
83.766259571445659
 30
0.0
 11
303.0245868831999
 21
125.2662595714456
 31
0.0
  0
LINE
  5
64A
  8
0
 10
302.02458688320002
 20
126.2662595714456
 30
0.0
 11
303.0245868831999
 21
125.2662595714456
 31
0.0
  0
LINE
  5
64C
  8
0
 10
237.02458688320019
 20
128.7662595714456
 30
0.0
 11
208.02458688320019
 21
128.7662595714456
 31
0.0
  0
LINE
  5
64D
  8
0
 10
207.02458688320019
 20
83.766259571445588
 30
0.0
 11
207.02458688320019
 21
127.7662595714456
 31
0.0
  0
LINE
  5
64E
  8
0
 10
207.02458688320019
 20
127.7662595714456
 30
0.0
 11
208.02458688320019
 21
128.7662595714456
 31
0.0
  0
LINE
  5
64F
  8
HIDE
 10
222.0245868832001
 20
128.7662595714456
 30
0.0
 11
222.0245868832001
 21
114.7662595714456
 31
0.0
  0
LINE
  5
650
  8
CENTER
 10
232.0245868832001
 20
138.76628034550501
 30
0.0
 11
260.02458688320019
 21
138.76628034550501
 31
0.0
  0
LINE
  5
653
  8
HIDE
 10
237.0245868832001
 20
147.51628034550509
 30
0.0
 11
248.0245868832001
 21
147.51628034550509
 31
0.0
  0
LINE
  5
654
  8
HIDE
 10
237.0245868832001
 20
130.01628034550509
 30
0.0
 11
248.0245868832001
 21
130.01628034550509
 31
0.0
  0
LINE
  5
655
  8
HIDE
 10
248.0245868832001
 20
144.26628034550509
 30
0.0
 11
255.02458688320019
 21
144.26628034550509
 31
0.0
  0
LINE
  5
656
  8
HIDE
 10
248.0245868832001
 20
133.26628034550509
 30
0.0
 11
255.02458688320019
 21
133.26628034550509
 31
0.0
  0
LINE
  5
659
  8
HIDE
 10
248.0245868832001
 20
147.51628034550509
 30
0.0
 11
248.0245868832001
 21
130.01628034550509
 31
0.0
  0
LINE
  5
65A
  8
HIDE
 10
284.02458656903912
 20
114.7662595714456
 30
0.0
 11
222.0245868832001
 21
114.7662595714456
 31
0.0
  0
LINE
  5
674
  8
CENTER
  6
CENTER
 10
238.19704688320169
 20
102.6173680923303
 30
0.0
 11
226.85211688319879
 21
109.16736809233321
 31
0.0
  0
CIRCLE
  5
675
  8
HIDE
 10
232.5245868832001
 20
105.8924180923304
 30
0.0
 40
3.1749990000000001
  0
LINE
  5
676
  8
HIDE
 10
240.0245868832001
 20
109.3924180923304
 30
0.0
 11
233.9265868831983
 21
109.3924180923304
 31
0.0
  0
LINE
  5
677
  8
CENTER
  6
CENTER
 10
268.1969868831996
 20
109.1673780923329
 30
0.0
 11
256.8520668832
 21
102.6173880923334
 31
0.0
  0
ARC
  5
678
  8
HIDE
 10
261.12257688319852
 20
108.8924180923305
 30
0.0
 40
0.5
 50
5.003720000016588
 51
90.000018000116455
  0
CIRCLE
  5
679
  8
HIDE
 10
262.52458688320007
 20
105.8924180923304
 30
0.0
 40
3.1749990000000001
  0
LINE
  5
67A
  8
HIDE
 10
269.52458688320007
 20
102.8924180923304
 30
0.0
 11
263.56410688319858
 21
102.8924180923304
 31
0.0
  0
LINE
  5
67B
  8
HIDE
 10
269.52458688320007
 20
105.8924180923304
 30
0.0
 11
265.69956688319991
 21
105.8924180923304
 31
0.0
  0
LINE
  5
67E
  8
HIDE
 10
259.34957688320111
 20
105.8924180923304
 30
0.0
 11
255.5245868832001
 21
105.8924180923304
 31
0.0
  0
LINE
  5
67F
  8
HIDE
 10
261.12257688319852
 20
109.3924180923304
 30
0.0
 11
255.0245868832001
 21
109.3924180923304
 31
0.0
  0
LINE
  5
680
  8
HIDE
 10
239.5245868832001
 20
105.8924180923304
 30
0.0
 11
235.6995868831994
 21
105.8924180923304
 31
0.0
  0
LINE
  5
681
  8
HIDE
 10
231.48506688320171
 20
102.8924180923304
 30
0.0
 11
225.5245868832001
 21
102.8924180923304
 31
0.0
  0
LINE
  5
682
  8
HIDE
 10
229.3495968832006
 20
105.8924180923304
 30
0.0
 11
225.5245868832001
 21
105.8924180923304
 31
0.0
  0
ARC
  5
683
  8
HIDE
 10
233.9265868831983
 20
108.8924180923305
 30
0.0
 40
0.5
 50
90.000018000116455
 51
174.9962780000819
  0
ARC
  5
684
  8
HIDE
 10
225.5245868832001
 20
102.3924180923305
 30
0.0
 40
0.5
 50
90.000018000116455
 51
179.99996399997551
  0
ARC
  5
685
  8
HIDE
 10
225.5245868832001
 20
106.3924180923304
 30
0.0
 40
0.5
 50
179.99995999999589
 51
269.9999800001022
  0
ARC
  5
68E
  8
HIDE
 10
239.52458704028081
 20
105.3924180923305
 30
0.0
 40
0.5
 50
0.0000400000040257
 51
90.000018000116455
  0
ARC
  5
68F
  8
HIDE
 10
255.52458704028081
 20
105.3924180923305
 30
0.0
 40
0.5
 50
90.000018000116455
 51
180.0
  0
LINE
  5
690
  8
HIDE
 10
255.0245868832001
 20
113.7662595714457
 30
0.0
 11
255.0245868832001
 21
99.76625957144563
 31
0.0
  0
LINE
  5
692
  8
HIDE
 10
240.0245868832001
 20
113.7662595714457
 30
0.0
 11
240.0245868832001
 21
99.76625887331376
 31
0.0
  0
LINE
  5
69D
  8
HIDE
 10
225.0245868832001
 20
114.7662595714456
 30
0.0
 11
225.0245868832001
 21
98.766259571445616
 31
0.0
  0
ARC
  5
6B1
  8
HIDE
 10
256.02458688320019
 20
99.76625957144563
 30
0.0
 40
1.0
 50
180.0
 51
269.9999800001022
  0
ARC
  5
6B2
  8
HIDE
 10
239.02458688319999
 20
99.766259571445545
 30
0.0
 40
1.0
 50
269.9999800001022
 51
359.99995999999589
  0
ARC
  5
6B6
  8
HIDE
 10
256.02458688320019
 20
113.7662595714457
 30
0.0
 40
1.0
 50
90.000018000116455
 51
180.0
  0
ARC
  5
6B7
  8
HIDE
 10
239.02458688319999
 20
113.7662595714457
 30
0.0
 40
1.0
 50
0.0000400000040257
 51
90.000018000116455
  0
ARC
  5
6B8
  8
HIDE
 10
226.0245868831999
 20
99.766259571445545
 30
0.0
 40
1.0
 50
180.0
 51
269.9999800001022
  0
ARC
  5
6B9
  8
HIDE
 10
226.0245868831999
 20
113.7662595714457
 30
0.0
 40
1.0
 50
90.000018000116455
 51
179.99996399997551
  0
ARC
  5
6BA
  8
HIDE
 10
254.0245868831997
 20
99.76625887331376
 30
0.0
 40
1.0
 50
270.0
 51
0.0000400000040257
  0
ARC
  5
6BB
  8
HIDE
 10
241.0245868831997
 20
99.76625887331376
 30
0.0
 40
1.0
 50
180.0
 51
269.9999800001022
  0
ARC
  5
6BC
  8
HIDE
 10
254.0245868831997
 20
113.7662588733138
 30
0.0
 40
1.0
 50
0.0000400000040257
 51
90.000018000116455
  0
ARC
  5
6BD
  8
HIDE
 10
241.0245868831997
 20
113.7662588733138
 30
0.0
 40
1.0
 50
90.000018000116455
 51
180.0
  0
LINE
  5
6BF
  8
HIDE
 10
256.02458688320019
 20
98.766259571445616
 30
0.0
 11
269.02458688320007
 21
98.766259571445616
 31
0.0
  0
LINE
  5
6C0
  8
HIDE
 10
241.02340524737929
 20
98.766259571445616
 30
0.0
 11
254.02576851902759
 21
98.766259571445616
 31
0.0
  0
LINE
  5
6C3
  8
HIDE
 10
226.0245868831999
 20
98.766259571445616
 30
0.0
 11
239.02458688319999
 21
98.766259571445616
 31
0.0
  0
LINE
  5
6C8
  8
HIDE
 10
207.0245868832003
 20
103.7662595714456
 30
0.0
 11
225.0245868832001
 21
103.7662595714456
 31
0.0
  0
LINE
  5
6C9
  8
HIDE
 10
207.02458688320019
 20
112.26628034550509
 30
0.0
 11
211.0245868832001
 21
112.26628034550509
 31
0.0
  0
LINE
  5
6CA
  8
HIDE
 10
211.02458688320019
 20
111.26628034550509
 30
0.0
 11
221.0245868832001
 21
111.26628034550509
 31
0.0
  0
LINE
  5
6CB
  8
HIDE
 10
221.0245868832001
 20
107.76628034550509
 30
0.0
 11
225.0245868832001
 21
107.76628034550509
 31
0.0
  0
LINE
  5
6CC
  8
HIDE
 10
211.0245868832001
 20
103.7662595714456
 30
0.0
 11
211.0245868832001
 21
112.26628034550509
 31
0.0
  0
LINE
  5
6CD
  8
HIDE
 10
221.0245868832001
 20
103.7662595714456
 30
0.0
 11
221.0245868832001
 21
111.26628034550509
 31
0.0
  0
LINE
  5
6D1
  8
HIDE
 10
299.02458688320002
 20
103.7662595714456
 30
0.0
 11
299.02458688320002
 21
112.26628034550519
 31
0.0
  0
LINE
  5
6D2
  8
HIDE
 10
289.02458688320007
 20
103.7662595714456
 30
0.0
 11
289.02458688320002
 21
111.26628034550519
 31
0.0
  0
LINE
  5
6D3
  8
HIDE
 10
303.02458688320002
 20
103.7662595714456
 30
0.0
 11
285.02458688320007
 21
103.7662595714455
 31
0.0
  0
LINE
  5
6D4
  8
HIDE
 10
303.0245868831999
 20
112.26628034550519
 30
0.0
 11
299.02458688320002
 21
112.26628034550519
 31
0.0
  0
LINE
  5
6D5
  8
HIDE
 10
299.0245868831999
 20
111.26628034550519
 30
0.0
 11
289.02458688320002
 21
111.26628034550519
 31
0.0
  0
LINE
  5
6D6
  8
HIDE
 10
289.02458688320002
 20
107.76628034550519
 30
0.0
 11
285.02458688320002
 21
107.76628034550509
 31
0.0
  0
ARC
  5
6E8
  8
0
 10
368.24660979128691
 20
83.766280345505109
 30
0.0
 40
12.5
 50
270.0
 51
90.0
  0
ARC
  5
6E9
  8
0
 10
368.24660979128691
 20
83.766280345505109
 30
0.0
 40
28.5
 50
270.0
 51
90.0
  0
ARC
  5
6EA
  8
CENTER
 10
368.24660979128691
 20
83.766280345505109
 30
0.0
 40
35.0
 50
270.0
 51
90.0
  0
ARC
  5
6EB
  8
0
 10
368.24660979128691
 20
83.766280345505109
 30
0.0
 40
42.5
 50
270.0
 51
90.0
  0
ARC
  5
6EF
  8
0
 10
368.24660979128691
 20
83.766280345505109
 30
0.0
 40
27.500000000000099
 50
270.0
 51
90.0
  0
ARC
  5
6F0
  8
0
 10
368.24660979128691
 20
83.766280345505109
 30
0.0
 40
24.000000000000071
 50
270.0
 51
90.0
  0
ARC
  5
6F2
  8
0
 10
368.24660979128703
 20
83.766280345505109
 30
0.0
 40
17.749979225940582
 50
269.9999999999996
 51
90.0
  0
LINE
  5
6F3
  8
CENTER
 10
389.64190030018631
 20
105.1615708544043
 30
0.0
 11
396.97609976264118
 21
112.49577031685931
 31
0.0
  0
ARC
  5
6F4
  8
HIDE
 10
392.99534713281611
 20
108.5150176870342
 30
0.0
 40
3.0
 50
215.24317242610789
 51
123.5778353936284
  0
CIRCLE
  5
6F9
  8
0
 10
392.99534713281611
 20
108.5150176870342
 30
0.0
 40
2.5
  0
LINE
  5
6FA
  8
CENTER
 10
389.64190030018631
 20
62.370989836605901
 30
0.0
 11
396.97609976264118
 21
55.036790374150947
 31
0.0
  0
ARC
  5
6FB
  8
HIDE
 10
392.99534713281611
 20
59.01754300397598
 30
0.0
 40
3.0
 50
236.42216460637161
 51
144.7568275738922
  0
CIRCLE
  5
6FC
  8
0
 10
392.99534713281611
 20
59.01754300397603
 30
0.0
 40
2.5
  0
LINE
  5
6FD
  8
CENTER
 10
306.78681857182022
 20
118.76628034550509
 30
0.0
 11
285.75022259368711
 21
118.76628034550509
 31
0.0
  0
LINE
  5
6FE
  8
HIDE
 10
303.0245868831999
 20
121.76628034550509
 30
0.0
 11
294.89061228698438
 21
121.76628034550509
 31
0.0
  0
LINE
  5
6FF
  8
HIDE
 10
303.0245868831999
 20
115.76628034550509
 30
0.0
 11
294.89061228698438
 21
115.76628034550509
 31
0.0
  0
LINE
  5
700
  8
HIDE
 10
294.02458688320007
 20
116.26628034550509
 30
0.0
 11
294.02458688320002
 21
121.26628034550509
 31
0.0
  0
LINE
  5
701
  8
HIDE
 10
290.02458688320002
 20
116.26628034550509
 30
0.0
 11
290.02458688320002
 21
121.26628034550509
 31
0.0
  0
LINE
  5
702
  8
HIDE
 10
303.0245868831999
 20
121.26628034550509
 30
0.0
 11
290.02458688320002
 21
121.26628034550509
 31
0.0
  0
LINE
  5
703
  8
HIDE
 10
303.0245868831999
 20
116.26628034550509
 30
0.0
 11
290.02458688320002
 21
116.26628034550509
 31
0.0
  0
LINE
  5
706
  8
HIDE
 10
294.02458688320002
 20
121.26628034550509
 30
0.0
 11
294.89061228698438
 21
121.76628034550509
 31
0.0
  0
LINE
  5
709
  8
HIDE
 10
290.02458688320002
 20
121.26628034550509
 30
0.0
 11
288.58121121022589
 21
118.76628034550509
 31
0.0
  0
LINE
  5
72A
  8
HIDE
 10
290.02458688320002
 20
116.26628034550509
 30
0.0
 11
288.58121121022589
 21
118.76628034550509
 31
0.0
  0
LINE
  5
72B
  8
HIDE
 10
294.02458688320002
 20
116.26628034550509
 30
0.0
 11
294.89061228698438
 21
115.76628034550509
 31
0.0
  0
LINE
  5
7D5
  8
HIDE
 10
285.02458688320007
 20
52.766259571445687
 30
0.0
 11
222.02458688320019
 21
52.766259571445573
 31
0.0
  0
LINE
  5
7D6
  8
0
 10
238.0245868832003
 20
18.76623879738608
 30
0.0
 11
254.0245868832003
 21
18.766238797386109
 31
0.0
  0
LINE
  5
7D7
  8
0
 10
255.0245868832003
 20
19.766238797386109
 30
0.0
 11
254.0245868832003
 21
18.766238797386109
 31
0.0
  0
LINE
  5
7D8
  8
0
 10
237.0245868832003
 20
19.76623879738608
 30
0.0
 11
238.0245868832003
 21
18.76623879738608
 31
0.0
  0
LINE
  5
7D9
  8
HIDE
 10
187.0245868832003
 20
68.766259571445545
 30
0.0
 11
225.0245868832001
 21
68.766259571445616
 31
0.0
  0
LINE
  5
7DA
  8
HIDE
 10
226.02458688319999
 20
68.766259571445602
 30
0.0
 11
239.02458688319999
 21
68.766259571445616
 31
0.0
  0
LINE
  5
7DB
  8
HIDE
 10
241.02340524737929
 20
68.766259571445616
 30
0.0
 11
254.02576851902771
 21
68.766259571445644
 31
0.0
  0
LINE
  5
7DC
  8
HIDE
 10
256.02458688320019
 20
68.766259571445644
 30
0.0
 11
269.02458688320019
 21
68.766259571445673
 31
0.0
  0
LINE
  5
7DE
  8
0
 10
237.02458688320019
 20
38.766259571445602
 30
0.0
 11
237.0245868832003
 21
19.76623879738608
 31
0.0
  0
LINE
  5
7DF
  8
0
 10
207.02458688320019
 20
83.766259571445588
 30
0.0
 11
207.0245868832003
 21
39.76625957144558
 31
0.0
  0
LINE
  5
7E2
  8
HIDE
 10
211.02458688320019
 20
63.76625957144558
 30
0.0
 11
211.02458688320019
 21
55.26623879738608
 31
0.0
  0
LINE
  5
7E3
  8
HIDE
 10
221.0245868832001
 20
63.76625957144558
 30
0.0
 11
221.02458688320019
 21
56.26623879738608
 31
0.0
  0
LINE
  5
7E4
  8
0
 10
303.02458688320002
 20
83.766259571445659
 30
0.0
 11
303.02458688320007
 21
42.266259571445701
 31
0.0
  0
LINE
  5
7E5
  8
HIDE
 10
290.02458688320007
 20
51.26623879738618
 30
0.0
 11
290.02458688320007
 21
46.266238797386109
 31
0.0
  0
LINE
  5
7E6
  8
HIDE
 10
294.02458688320007
 20
51.266238797386158
 30
0.0
 11
294.02458688320007
 21
46.266238797386158
 31
0.0
  0
LINE
  5
7E7
  8
0
 10
302.02458688320007
 20
41.266259571445701
 30
0.0
 11
303.02458688320007
 21
42.266259571445701
 31
0.0
  0
LINE
  5
7E8
  8
0
 10
255.0245868832003
 20
41.26625957144563
 30
0.0
 11
255.0245868832003
 21
19.766238797386109
 31
0.0
  0
LINE
  5
7E9
  8
0
 10
302.02458688320007
 20
41.266259571445708
 30
0.0
 11
255.0245868832003
 21
41.266259571445609
 31
0.0
  0
LINE
  5
7EA
  8
0
 10
237.02458688320019
 20
38.76625957144563
 30
0.0
 11
208.0245868832003
 21
38.76625957144558
 31
0.0
  0
LINE
  5
7EB
  8
0
 10
207.0245868832003
 20
39.76625957144558
 30
0.0
 11
208.0245868832003
 21
38.76625957144558
 31
0.0
  0
LINE
  5
7EC
  8
HIDE
 10
222.0245868832003
 20
38.766259571445602
 30
0.0
 11
222.02458688320019
 21
52.766259571445573
 31
0.0
  0
LINE
  5
7EE
  8
HIDE
 10
255.02458688320019
 20
53.76625957144558
 30
0.0
 11
255.02458688320019
 21
67.766259571445644
 31
0.0
  0
LINE
  5
7EF
  8
HIDE
 10
240.02458688320019
 20
53.766259571445559
 30
0.0
 11
240.02458688320019
 21
67.766260269577472
 31
0.0
  0
LINE
  5
7F0
  8
HIDE
 10
225.02458688320019
 20
52.766259571445588
 30
0.0
 11
225.02458688320019
 21
68.766259571445616
 31
0.0
  0
LINE
  5
7F1
  8
CENTER
 10
232.0245868832003
 20
28.766238797386141
 30
0.0
 11
260.0245868832003
 21
28.766238797386158
 31
0.0
  0
LINE
  5
7F2
  8
HIDE
 10
237.0245868832003
 20
20.01623879738608
 30
0.0
 11
248.0245868832003
 21
20.016238797386109
 31
0.0
  0
LINE
  5
7F3
  8
HIDE
 10
237.02458688320019
 20
37.516238797386109
 30
0.0
 11
248.02458688320019
 21
37.516238797386137
 31
0.0
  0
LINE
  5
7F4
  8
HIDE
 10
248.0245868832003
 20
23.266238797386141
 30
0.0
 11
255.0245868832003
 21
23.266238797386141
 31
0.0
  0
LINE
  5
7F5
  8
HIDE
 10
248.02458688320019
 20
34.266238797386137
 30
0.0
 11
255.0245868832003
 21
34.266238797386137
 31
0.0
  0
LINE
  5
7F6
  8
HIDE
 10
248.0245868832003
 20
20.016238797386109
 30
0.0
 11
248.02458688320019
 21
37.516238797386137
 31
0.0
  0
LINE
  5
7F7
  8
CENTER
  6
CENTER
 10
238.19704688320181
 20
64.915151050560951
 30
0.0
 11
226.8521168831989
 21
58.365151050558019
 31
0.0
  0
CIRCLE
  5
7F8
  8
HIDE
 10
232.52458688320019
 20
61.640101050560752
 30
0.0
 40
3.1749990000000001
  0
LINE
  5
7F9
  8
HIDE
 10
240.02458688320019
 20
58.140101050560759
 30
0.0
 11
233.92658688319841
 21
58.140101050560759
 31
0.0
  0
LINE
  5
7FA
  8
CENTER
  6
CENTER
 10
268.19698688319971
 20
58.36514105055835
 30
0.0
 11
256.85206688320011
 21
64.915131050557846
 31
0.0
  0
ARC
  5
7FB
  8
HIDE
 10
261.12257688319858
 20
58.640101050560801
 30
0.0
 40
0.5
 50
269.99998199988357
 51
354.99627999998268
  0
CIRCLE
  5
7FC
  8
HIDE
 10
262.52458688320019
 20
61.640101050560801
 30
0.0
 40
3.1749990000000001
  0
LINE
  5
7FD
  8
HIDE
 10
269.52458688320019
 20
64.640101050560816
 30
0.0
 11
263.56410688319858
 21
64.640101050560801
 31
0.0
  0
LINE
  5
7FE
  8
HIDE
 10
269.52458688320019
 20
61.640101050560823
 30
0.0
 11
265.69956688320002
 21
61.640101050560801
 31
0.0
  0
LINE
  5
801
  8
HIDE
 10
259.34957688320122
 20
61.640101050560801
 30
0.0
 11
255.52458688320019
 21
61.64010105056078
 31
0.0
  0
LINE
  5
802
  8
HIDE
 10
261.12257688319858
 20
58.140101050560801
 30
0.0
 11
255.02458688320019
 21
58.140101050560787
 31
0.0
  0
LINE
  5
803
  8
HIDE
 10
239.52458688320019
 20
61.640101050560759
 30
0.0
 11
235.69958688319949
 21
61.640101050560759
 31
0.0
  0
LINE
  5
804
  8
HIDE
 10
231.4850668832018
 20
64.640101050560745
 30
0.0
 11
225.52458688320019
 21
64.640101050560745
 31
0.0
  0
LINE
  5
805
  8
HIDE
 10
229.34959688320069
 20
61.640101050560752
 30
0.0
 11
225.52458688320019
 21
61.640101050560752
 31
0.0
  0
ARC
  5
806
  8
HIDE
 10
233.92658688319841
 20
58.640101050560759
 30
0.0
 40
0.5
 50
185.0037219999179
 51
269.99998199988357
  0
ARC
  5
807
  8
HIDE
 10
225.52458688320019
 20
65.140101050560745
 30
0.0
 40
0.5
 50
180.00003600002449
 51
269.99998199988357
  0
ARC
  5
808
  8
HIDE
 10
225.52458688320019
 20
61.140101050560737
 30
0.0
 40
0.5
 50
90.000019999897887
 51
180.00004000000399
  0
ARC
  5
809
  8
HIDE
 10
239.52458704028089
 20
62.14010105056073
 30
0.0
 40
0.5
 50
269.99998199988357
 51
359.99995999999589
  0
ARC
  5
80A
  8
HIDE
 10
255.52458704028081
 20
62.140101050560752
 30
0.0
 40
0.5
 50
180.0
 51
269.99998199988357
  0
ARC
  5
816
  8
HIDE
 10
256.02458688320019
 20
67.766259571445644
 30
0.0
 40
1.0
 50
90.000019999897887
 51
180.0
  0
ARC
  5
817
  8
HIDE
 10
239.02458688319999
 20
67.766259571445701
 30
0.0
 40
1.0
 50
0.0000400000040257
 51
90.000019999897887
  0
ARC
  5
819
  8
HIDE
 10
256.02458688320019
 20
53.76625957144558
 30
0.0
 40
1.0
 50
180.0
 51
269.99998199988357
  0
ARC
  5
81A
  8
HIDE
 10
239.02458688319999
 20
53.766259571445559
 30
0.0
 40
1.0
 50
269.99998199988357
 51
359.99995999999589
  0
ARC
  5
81B
  8
HIDE
 10
226.02458688319999
 20
67.766259571445687
 30
0.0
 40
1.0
 50
90.000019999897887
 51
180.0
  0
ARC
  5
81C
  8
HIDE
 10
226.02458688319999
 20
53.766259571445538
 30
0.0
 40
1.0
 50
180.00003600002449
 51
269.99998199988357
  0
ARC
  5
81D
  8
HIDE
 10
254.02458688319979
 20
67.766260269577501
 30
0.0
 40
1.0
 50
359.99995999999589
 51
90.000000000000099
  0
ARC
  5
81E
  8
HIDE
 10
241.02458688319979
 20
67.766260269577472
 30
0.0
 40
1.0
 50
90.000019999897887
 51
180.0
  0
ARC
  5
81F
  8
HIDE
 10
254.02458688319979
 20
53.766260269577437
 30
0.0
 40
1.0
 50
269.99998199988357
 51
359.99995999999589
  0
ARC
  5
820
  8
HIDE
 10
241.02458688319979
 20
53.766260269577408
 30
0.0
 40
1.0
 50
180.0
 51
269.99998199988357
  0
LINE
  5
821
  8
HIDE
 10
207.0245868832003
 20
63.76625957144558
 30
0.0
 11
225.02458688320019
 21
63.766259571445609
 31
0.0
  0
LINE
  5
822
  8
HIDE
 10
207.0245868832003
 20
55.266238797386073
 30
0.0
 11
211.02458688320019
 21
55.26623879738608
 31
0.0
  0
LINE
  5
824
  8
HIDE
 10
211.02458688320019
 20
56.266238797386059
 30
0.0
 11
221.02458688320019
 21
56.26623879738608
 31
0.0
  0
LINE
  5
825
  8
HIDE
 10
221.02458688320019
 20
59.76623879738608
 30
0.0
 11
225.02458688320019
 21
59.766238797386087
 31
0.0
  0
LINE
  5
826
  8
HIDE
 10
299.02458688320007
 20
63.766259571445723
 30
0.0
 11
299.02458688320007
 21
55.266238797386109
 31
0.0
  0
LINE
  5
827
  8
HIDE
 10
289.02458688320007
 20
63.766259571445723
 30
0.0
 11
289.02458688320007
 21
56.266238797386087
 31
0.0
  0
LINE
  5
828
  8
HIDE
 10
303.02458688320007
 20
63.766259571445723
 30
0.0
 11
285.02458688320019
 21
63.76625957144573
 31
0.0
  0
LINE
  5
829
  8
HIDE
 10
303.0245868831999
 20
55.266238797386109
 30
0.0
 11
299.02458688320007
 21
55.266238797386109
 31
0.0
  0
LINE
  5
82A
  8
HIDE
 10
299.02458688320002
 20
56.266238797386087
 30
0.0
 11
289.02458688320007
 21
56.266238797386087
 31
0.0
  0
LINE
  5
82B
  8
HIDE
 10
289.02458688320007
 20
59.766238797386087
 30
0.0
 11
285.02458688320007
 21
59.766238797386102
 31
0.0
  0
LINE
  5
833
  8
CENTER
 10
306.78681857182028
 20
48.76623879738618
 30
0.0
 11
285.75022259368723
 21
48.766238797386158
 31
0.0
  0
LINE
  5
834
  8
HIDE
 10
303.0245868831999
 20
51.766238797386187
 30
0.0
 11
294.89061228698438
 21
51.76623879738618
 31
0.0
  0
LINE
  5
835
  8
HIDE
 10
303.0245868831999
 20
51.266238797386201
 30
0.0
 11
290.02458688320002
 21
51.26623879738618
 31
0.0
  0
LINE
  5
836
  8
HIDE
 10
303.02458688320002
 20
45.766238797386187
 30
0.0
 11
294.89061228698449
 21
45.76623879738618
 31
0.0
  0
LINE
  5
837
  8
HIDE
 10
303.02458688320007
 20
46.266238797386151
 30
0.0
 11
290.02458688320007
 21
46.266238797386158
 31
0.0
  0
LINE
  5
838
  8
HIDE
 10
294.02458688320007
 20
46.26623879738618
 30
0.0
 11
294.89061228698449
 21
45.766238797386158
 31
0.0
  0
LINE
  5
839
  8
HIDE
 10
290.02458688320007
 20
46.266238797386151
 30
0.0
 11
288.581211210226
 21
48.766238797386158
 31
0.0
  0
LINE
  5
83A
  8
HIDE
 10
290.02458688320002
 20
51.26623879738618
 30
0.0
 11
288.581211210226
 21
48.766238797386158
 31
0.0
  0
LINE
  5
83B
  8
HIDE
 10
294.02458688320002
 20
51.26623879738618
 30
0.0
 11
294.89061228698449
 21
51.766238797386187
 31
0.0
  0
ARC
  5
855
  8
HIDE
 10
269.52458688320007
 20
102.3924180923305
 30
0.0
 40
0.5
 50
0.0000400000040257
 51
90.000018000116455
  0
ARC
  5
856
  8
HIDE
 10
269.52458688320007
 20
106.3924180923304
 30
0.0
 40
0.5
 50
270.0
 51
0.0000400000040257
  0
ARC
  5
857
  8
HIDE
 10
269.02340524737218
 20
99.76625887331376
 30
0.0
 40
1.0
 50
270.0
 51
0.0000400000040257
  0
LINE
  5
858
  8
HIDE
 10
271.02458688320007
 20
98.766259571445616
 30
0.0
 11
303.0245868831999
 21
98.766259571445616
 31
0.0
  0
LINE
  5
859
  8
HIDE
 10
270.02458688320007
 20
113.7662595714456
 30
0.0
 11
270.02458688320007
 21
99.766259571445616
 31
0.0
  0
LINE
  5
85A
  8
CENTER
  6
CENTER
 10
283.1969868831996
 20
109.1673780923329
 30
0.0
 11
271.85206688320011
 21
102.6173880923334
 31
0.0
  0
ARC
  5
85B
  8
HIDE
 10
276.12257688319852
 20
108.8924180923304
 30
0.0
 40
0.5
 50
5.003720000016588
 51
90.000018000116455
  0
CIRCLE
  5
85C
  8
HIDE
 10
277.52458688320007
 20
105.8924180923304
 30
0.0
 40
3.1749990000000001
  0
LINE
  5
85D
  8
HIDE
 10
284.52458688320007
 20
102.8924180923304
 30
0.0
 11
278.56410688319858
 21
102.8924180923304
 31
0.0
  0
LINE
  5
85E
  8
HIDE
 10
284.52458688320007
 20
105.8924180923304
 30
0.0
 11
280.69956688319991
 21
105.8924180923304
 31
0.0
  0
LINE
  5
85F
  8
HIDE
 10
274.34957688320111
 20
105.8924180923304
 30
0.0
 11
270.52458688320007
 21
105.8924180923304
 31
0.0
  0
LINE
  5
860
  8
HIDE
 10
276.12257688319852
 20
109.3924180923304
 30
0.0
 11
270.02458688320007
 21
109.3924180923304
 31
0.0
  0
ARC
  5
861
  8
HIDE
 10
270.52458704028078
 20
105.3924180923305
 30
0.0
 40
0.5
 50
90.000018000116455
 51
180.0
  0
ARC
  5
862
  8
HIDE
 10
271.02458688320007
 20
99.766259571445616
 30
0.0
 40
1.0
 50
180.0
 51
269.9999800001022
  0
ARC
  5
863
  8
HIDE
 10
271.02458688320007
 20
113.7662595714456
 30
0.0
 40
1.0
 50
90.000018000116455
 51
180.0
  0
ARC
  5
864
  8
HIDE
 10
284.52458688320007
 20
102.3924180923304
 30
0.0
 40
0.5
 50
0.0000400000040257
 51
90.000018000116455
  0
ARC
  5
865
  8
HIDE
 10
284.52458688320007
 20
106.3924180923304
 30
0.0
 40
0.5
 50
270.0
 51
0.0000400000040257
  0
ARC
  5
866
  8
HIDE
 10
284.02340524737218
 20
99.766258873313745
 30
0.0
 40
1.0
 50
270.0
 51
0.0000400000040257
  0
ARC
  5
868
  8
HIDE
 10
269.02340524737201
 20
67.766260269577529
 30
0.0
 40
1.0
 50
359.99995999999589
 51
90.000000000000099
  0
ARC
  5
86C
  8
HIDE
 10
269.52458688320041
 20
65.140101050560787
 30
0.0
 40
0.5
 50
269.99998199988357
 51
359.99995999999589
  0
ARC
  5
86D
  8
HIDE
 10
269.52458688320041
 20
61.14010105056078
 30
0.0
 40
0.5
 50
359.99995999999589
 51
90.000000000000099
  0
ARC
  5
86E
  8
HIDE
 10
269.02458688320002
 20
67.766260269577486
 30
0.0
 40
1.0
 50
359.99995999999589
 51
90.000000000000099
  0
ARC
  5
86F
  8
HIDE
 10
269.02458688320002
 20
53.766260269577437
 30
0.0
 40
1.0
 50
269.99998199988357
 51
359.99995999999589
  0
LINE
  5
870
  8
HIDE
 10
271.02340524737178
 20
68.766259571445744
 30
0.0
 11
284.02340524737178
 21
68.766259571445786
 31
0.0
  0
LINE
  5
871
  8
HIDE
 10
270.02340524737178
 20
53.766259571445701
 30
0.0
 11
270.02340524737178
 21
67.766259571445758
 31
0.0
  0
LINE
  5
872
  8
CENTER
  6
CENTER
 10
283.19580524737131
 20
58.365141050558456
 30
0.0
 11
271.85088524737171
 21
64.91513105055796
 31
0.0
  0
ARC
  5
873
  8
HIDE
 10
276.12139524737017
 20
58.640101050560922
 30
0.0
 40
0.5
 50
269.99998199988357
 51
354.99627999998268
  0
CIRCLE
  5
874
  8
HIDE
 10
277.52340524737178
 20
61.640101050560922
 30
0.0
 40
3.1749990000000001
  0
LINE
  5
875
  8
HIDE
 10
284.52340524737178
 20
64.640101050560929
 30
0.0
 11
278.56292524737017
 21
64.640101050560915
 31
0.0
  0
LINE
  5
876
  8
HIDE
 10
284.52340524737178
 20
61.640101050560922
 30
0.0
 11
280.69838524737162
 21
61.640101050560922
 31
0.0
  0
LINE
  5
877
  8
HIDE
 10
274.34839524737282
 20
61.640101050560922
 30
0.0
 11
270.52340524737178
 21
61.640101050560901
 31
0.0
  0
LINE
  5
878
  8
HIDE
 10
276.12139524737017
 20
58.140101050560908
 30
0.0
 11
270.02340524737178
 21
58.140101050560901
 31
0.0
  0
ARC
  5
879
  8
HIDE
 10
270.52340540445238
 20
62.140101050560872
 30
0.0
 40
0.5
 50
180.0
 51
269.99998199988357
  0
ARC
  5
87A
  8
HIDE
 10
271.02340524737178
 20
67.766259571445758
 30
0.0
 40
1.0
 50
90.000019999897887
 51
180.0
  0
ARC
  5
87B
  8
HIDE
 10
271.02340524737178
 20
53.766259571445701
 30
0.0
 40
1.0
 50
180.0
 51
269.99998199988357
  0
ARC
  5
87C
  8
HIDE
 10
284.02222361154361
 20
67.766260269577643
 30
0.0
 40
1.0
 50
359.99995999999589
 51
90.000000000000099
  0
ARC
  5
87D
  8
HIDE
 10
284.52340524737201
 20
65.140101050560901
 30
0.0
 40
0.5
 50
269.99998199988357
 51
359.99995999999589
  0
ARC
  5
87E
  8
HIDE
 10
284.52340524737201
 20
61.140101050560887
 30
0.0
 40
0.5
 50
359.99995999999589
 51
90.000000000000099
  0
ARC
  5
87F
  8
HIDE
 10
284.02340524737161
 20
67.7662602695776
 30
0.0
 40
1.0
 50
359.99995999999589
 51
90.000000000000099
  0
ARC
  5
880
  8
HIDE
 10
284.02340524737161
 20
53.76626026957755
 30
0.0
 40
1.0
 50
269.99998199988357
 51
359.99995999999589
  0
LINE
  5
881
  8
HIDE
 10
285.02340524737178
 20
53.766259571445701
 30
0.0
 11
285.02340524737178
 21
67.766259571445758
 31
0.0
  0
LINE
  5
882
  8
HIDE
 10
285.02458688320007
 20
113.7662595714456
 30
0.0
 11
285.02458688320007
 21
99.766259571445616
 31
0.0
  0
ARC
  5
883
  8
HIDE
 10
269.0245868832003
 20
113.7662588733139
 30
0.0
 40
1.0
 50
0.0000400000040257
 51
90.000018000116455
  0
ARC
  5
884
  8
HIDE
 10
284.02458688320041
 20
113.7662588733139
 30
0.0
 40
1.0
 50
0.0000400000040257
 51
90.000018000116455
  0
LINE
  5
886
  8
HIDE
 10
271.02458688320007
 20
68.766259571445602
 30
0.0
 11
303.0245868831999
 21
68.766259571445573
 31
0.0
  0
LINE
  5
8C7
  8
CENTER
  6
CENTER
 10
253.19698688319949
 20
109.1673780923329
 30
0.0
 11
241.8520668832
 21
102.6173880923334
 31
0.0
  0
ARC
  5
8C8
  8
HIDE
 10
246.12257688319841
 20
108.8924180923305
 30
0.0
 40
0.5
 50
5.003720000016588
 51
90.000018000116455
  0
CIRCLE
  5
8C9
  8
HIDE
 10
247.5245868832001
 20
105.8924180923305
 30
0.0
 40
3.1749990000000001
  0
LINE
  5
8CA
  8
HIDE
 10
254.5245868832001
 20
102.8924180923305
 30
0.0
 11
248.56410688319849
 21
102.8924180923305
 31
0.0
  0
LINE
  5
8CB
  8
HIDE
 10
254.5245868832001
 20
105.8924180923305
 30
0.0
 11
250.69956688319979
 21
105.8924180923305
 31
0.0
  0
LINE
  5
8CC
  8
HIDE
 10
244.349576883201
 20
105.8924180923305
 30
0.0
 11
240.5245868832001
 21
105.8924180923305
 31
0.0
  0
LINE
  5
8CD
  8
HIDE
 10
246.12257688319841
 20
109.3924180923305
 30
0.0
 11
240.0245868832001
 21
109.3924180923305
 31
0.0
  0
ARC
  5
8CE
  8
HIDE
 10
240.52458704028069
 20
105.3924180923305
 30
0.0
 40
0.5
 50
90.000018000116455
 51
180.0
  0
ARC
  5
8CF
  8
HIDE
 10
254.5245868832001
 20
102.3924180923305
 30
0.0
 40
0.5
 50
0.0000400000040257
 51
90.000018000116455
  0
ARC
  5
8D0
  8
HIDE
 10
254.5245868832001
 20
106.3924180923305
 30
0.0
 40
0.5
 50
270.0
 51
0.0000400000040257
  0
LINE
  5
8D1
  8
CENTER
  6
CENTER
 10
253.19698688319971
 20
58.365141050558321
 30
0.0
 11
241.85206688320011
 21
64.915131050557818
 31
0.0
  0
ARC
  5
8D2
  8
HIDE
 10
246.1225768831986
 20
58.64010105056078
 30
0.0
 40
0.5
 50
269.99998199988357
 51
354.99627999998268
  0
CIRCLE
  5
8D3
  8
HIDE
 10
247.52458688320019
 20
61.640101050560773
 30
0.0
 40
3.1749990000000001
  0
LINE
  5
8D4
  8
HIDE
 10
254.52458688320019
 20
64.640101050560787
 30
0.0
 11
248.5641068831986
 21
64.640101050560773
 31
0.0
  0
LINE
  5
8D5
  8
HIDE
 10
254.52458688320019
 20
61.64010105056078
 30
0.0
 11
250.69956688319999
 21
61.640101050560773
 31
0.0
  0
LINE
  5
8D6
  8
HIDE
 10
244.34957688320119
 20
61.640101050560773
 30
0.0
 11
240.52458688320019
 21
61.640101050560759
 31
0.0
  0
LINE
  5
8D7
  8
HIDE
 10
246.1225768831986
 20
58.140101050560773
 30
0.0
 11
240.02458688320019
 21
58.140101050560759
 31
0.0
  0
ARC
  5
8D8
  8
HIDE
 10
240.52458704028089
 20
62.14010105056073
 30
0.0
 40
0.5
 50
180.0
 51
269.99998199988357
  0
ARC
  5
8D9
  8
HIDE
 10
254.52458688320041
 20
65.140101050560759
 30
0.0
 40
0.5
 50
269.99998199988357
 51
359.99995999999589
  0
ARC
  5
8DA
  8
HIDE
 10
254.52458688320041
 20
61.140101050560752
 30
0.0
 40
0.5
 50
359.99995999999589
 51
90.000000000000099
  0
INSERT
  5
BA7
  8
0
  2
*U16
 10
0.0
 20
0.0
 30
0.0
  0
ARC
  5
C2A
  8
HIDE
 10
76.893202530907971
 20
83.766280345503276
 30
0.0
 40
15.0
 50
300.00000000000921
 51
210.0000000001522
  0
CIRCLE
  5
C2C
  8
0
 10
76.893202530907971
 20
83.766280345503276
 30
0.0
 40
24.0
  0
CIRCLE
  5
C2E
  8
0
 10
76.893202530907971
 20
83.766280345505095
 30
0.0
 40
14.25
  0
INSERT
  5
C30
  8
0
  2
*U12
 10
41516.285367668992
 20
12599.948481165749
 30
0.0
 50
30.0
  0
INSERT
  5
C31
  8
0
  2
*U14
 10
41516.285367668992
 20
12599.948481165749
 30
0.0
 50
30.0
  0
LINE
  5
C32
  8
0
 10
187.02458688320019
 20
107.7662595714456
 30
0.0
 11
187.02458688320019
 21
59.766259571445602
 31
0.0
  0
LINE
  5
C33
  8
0
 10
207.02458688320019
 20
103.76625957144741
 30
0.0
 11
207.02458688320019
 21
63.766259571443783
 31
0.0
  0
LINE
  5
C34
  8
0
 10
205.02458688320019
 20
103.76625957144741
 30
0.0
 11
205.02458688320019
 21
63.766259571443783
 31
0.0
  0
LINE
  5
C35
  8
0
 10
205.02458688320019
 20
103.76625957144741
 30
0.0
 11
207.02458688320019
 21
103.76625957144741
 31
0.0
  0
LINE
  5
C36
  8
0
 10
187.02458688320019
 20
107.7662595714456
 30
0.0
 11
202.71518580644019
 21
107.7662595714456
 31
0.0
  0
LINE
  5
C37
  8
0
 10
205.02458688320019
 20
103.7662595714456
 30
0.0
 11
202.71518580644019
 21
107.7662595714456
 31
0.0
  0
LINE
  5
C38
  8
0
 10
205.02458688320019
 20
63.766259571443783
 30
0.0
 11
207.02458688320019
 21
63.766259571443783
 31
0.0
  0
LINE
  5
C39
  8
0
 10
205.02458688320019
 20
63.766259571445602
 30
0.0
 11
202.71518580644019
 21
59.766259571445602
 31
0.0
  0
LINE
  5
C3A
  8
0
 10
187.02458688320019
 20
59.766259571445602
 30
0.0
 11
202.71518580644019
 21
59.766259571445602
 31
0.0
  0
LINE
  5
C3B
  8
HIDE
 10
187.25722524630081
 20
61.366259571445958
 30
0.0
 11
190.88197982781401
 21
61.366259571445958
 31
0.0
  0
LINE
  5
C3C
  8
HIDE
 10
187.25722524630081
 20
65.666259571447057
 30
0.0
 11
190.88197982781401
 21
65.666259571447057
 31
0.0
  0
LINE
  5
C3D
  8
HIDE
 10
190.88059190583709
 20
65.668577376295701
 30
0.0
 11
192.16941878011249
 21
63.516259571445602
 31
0.0
  0
LINE
  5
C3E
  8
HIDE
 10
190.88197982781401
 20
61.366259571445958
 30
0.0
 11
192.16941878011249
 21
63.516259571445602
 31
0.0
  0
LINE
  5
C3F
  8
HIDE
 10
190.88197982781401
 20
61.366259571445958
 30
0.0
 11
190.88197982781401
 21
65.666259571447057
 31
0.0
  0
LINE
  5
C40
  8
HIDE
 10
187.02458688320019
 20
61.176422461833759
 30
0.0
 11
187.25722524630081
 21
61.366259571445958
 31
0.0
  0
LINE
  5
C41
  8
HIDE
 10
187.02458688320019
 20
65.856096681057437
 30
0.0
 11
187.25722524630081
 21
65.666259571447057
 31
0.0
  0
LINE
  5
C42
  8
HIDE
 10
187.25722524630081
 20
61.366259571445958
 30
0.0
 11
187.25722524630081
 21
65.666259571447057
 31
0.0
  0
POINT
  5
C43
  8
HIDE
 10
187.25722524630081
 20
61.366259571445958
 30
0.0
  0
POINT
  5
C44
  8
HIDE
 10
187.25722524630081
 20
65.666259571447057
 30
0.0
  0
LINE
  5
C45
  8
CENTER
 10
184.25222968287679
 20
63.516259571443783
 30
0.0
 11
193.890583828915
 21
63.516259571443783
 31
0.0
  0
LINE
  5
C46
  8
CENTER
 10
196.02458688320019
 20
65.930302172305431
 30
0.0
 11
196.02458688320019
 21
58.552091370867032
 31
0.0
  0
LINE
  5
C47
  8
HIDE
 10
193.52458688320019
 20
64.377564566449195
 30
0.0
 11
193.52458688320019
 21
60.102677170659348
 31
0.0
  0
LINE
  5
C48
  8
HIDE
 10
198.52458688320019
 20
64.377564566449195
 30
0.0
 11
198.52458688320019
 21
60.102677170659348
 31
0.0
  0
LINE
  5
C49
  8
HIDE
 10
198.52458688320019
 20
64.377564566449195
 30
0.0
 11
193.52458688320019
 21
64.377564566449195
 31
0.0
  0
LINE
  5
C4A
  8
HIDE
 10
193.52458688320019
 20
64.377564566449195
 30
0.0
 11
196.02458688320019
 21
65.508407869459091
 31
0.0
  0
LINE
  5
C4B
  8
HIDE
 10
198.52458688320019
 20
64.377564566449195
 30
0.0
 11
196.02458688320019
 21
65.508407869459091
 31
0.0
  0
LINE
  5
C4C
  8
HIDE
 10
193.24657169824911
 20
59.766259571445602
 30
0.0
 11
193.52458688320019
 21
60.102677170659348
 31
0.0
  0
LINE
  5
C4D
  8
HIDE
 10
198.8026020681512
 20
59.766259571445602
 30
0.0
 11
198.52458688320019
 21
60.102677170659348
 31
0.0
  0
LINE
  5
C4E
  8
HIDE
 10
193.52458688320019
 20
60.102677170659348
 30
0.0
 11
198.52458688320019
 21
60.102677170659348
 31
0.0
  0
POINT
  5
C4F
  8
HIDE
 10
198.52458688320019
 20
60.102677170659348
 30
0.0
  0
POINT
  5
C50
  8
HIDE
 10
193.52458688320019
 20
60.102677170659348
 30
0.0
  0
LINE
  5
C51
  8
HIDE
 10
187.21208688320019
 20
103.3745127469184
 30
0.0
 11
194.73179646441841
 21
107.71601909786391
 31
0.0
  0
LINE
  5
C52
  8
HIDE
 10
193.51977741158171
 20
107.0162595714456
 30
0.0
 11
195.95727741158171
 21
102.7943857279961
 31
0.0
  0
LINE
  5
C53
  8
HIDE
 10
188.32362498887349
 20
104.0162595714456
 30
0.0
 11
190.7611249888736
 21
99.794385727996172
 31
0.0
  0
LINE
  5
C54
  8
HIDE
 10
193.1300659798811
 20
106.79125957145069
 30
0.0
 11
198.19631459202481
 21
98.016259571447435
 31
0.0
  0
LINE
  5
C55
  8
HIDE
  6
CONTINUOUS
 10
188.71333642058141
 20
104.2412595714478
 30
0.0
 11
192.3073418462821
 21
98.016259571447435
 31
0.0
  0
LINE
  5
C56
  8
HIDE
 10
191.2733845152992
 20
99.657126201576006
 30
0.0
 11
195.82001788517061
 21
102.28212620157601
 31
0.0
  0
LINE
  5
C57
  8
HIDE
 10
195.82001788517061
 20
102.28212620157601
 30
0.0
 11
195.95727741158171
 21
102.7943857279961
 31
0.0
  0
LINE
  5
C58
  8
HIDE
 10
191.2733845152992
 20
99.657126201576006
 30
0.0
 11
190.7611249888736
 21
99.794385727996172
 31
0.0
  0
LINE
  5
C59
  8
HIDE
 10
190.7611249888736
 20
99.794385727996172
 30
0.0
 11
195.95727741158171
 21
102.7943857279961
 31
0.0
  0
ARC
  5
C5A
  8
HIDE
 10
194.91929646441841
 20
107.3912595714456
 30
0.0
 40
0.375
 50
90.0
 51
120.000000000009
  0
ARC
  5
C5B
  8
HIDE
 10
187.39958688320019
 20
103.0497532204982
 30
0.0
 40
0.375
 50
120.000000000009
 51
180.0
  0
INSERT
  5
C5C
  8
HIDE
  6
CONTINUOUS
  2
*X18
 10
0.0
 20
0.0
 30
0.0
1001
ACAD
1000
HATCH
1002
{
1070
    19
1000
ANSI37
1040
9.75
1040
0.5235987755982988
1000
R14_HATCH_DATA
1000
C5C
1011
1.0
1021
0.0
1031
0.0
1021
0.0
1031
0.0
1011
0.0
1021
0.0
1031
0.0
1021
1.0
1031
0.0
1011
0.0
1021
0.0
1031
0.0
1021
0.0
1031
1.0
1040
0.0
1010
0.0
1020
0.0
1030
1.0
1000
ANSI37
1070
     0
1070
     0
1071
        2
1071
        1
1071
        4
1070
     1
1040
192.3073418462894
1040
98.01625957144924
1040
195.2518282191607
1040
98.016259571447435
1070
     1
1040
195.2518282191607
1040
98.016259571447435
1040
193.54670120023491
1040
100.96962620157601
1070
     1
1040
193.54670120023491
1040
100.96962620157601
1040
191.33833642058141
1040
99.694626201576369
1070
     1
1040
191.33833642058141
1040
99.694626201576369
1040
192.3073418462894
1040
98.01625957144924
1071
        0
1071
        1
1071
        4
1070
     1
1040
195.25182821915351
1040
98.016259571447435
1040
198.19631459202481
1040
98.016259571447435
1070
     1
1040
198.19631459202481
1040
98.016259571447435
1040
195.7550659798884
1040
102.2446262015774
1070
     1
1040
195.7550659798884
1040
102.2446262015774
1040
193.54670120023491
1040
100.96962620157601
1070
     1
1040
193.54670120023491
1040
100.96962620157601
1040
195.25182821915351
1040
98.016259571447435
1071
        0
1070
     0
1070
     1
1040
0.5235987755982988
1040
9.75
1070
     0
1070
     2
1040
1.3089969389957461
1040
49.321102813222183
1040
-81.229745202887813
1040
-1.1772221007898021
1040
0.3154357112186975
1070
     0
1040
2.8797932657906431
1040
49.321102813222183
1040
-81.229745202887813
1040
-0.3154357112186975
1040
-1.1772221007898021
1070
     0
1071
        4
1040
192.82121720492549
1040
98.654962084098855
1040
0.0
1040
195.34807946172199
1040
99.676796470451436
1040
0.0
1040
194.44562797719971
1040
97.152266168684136
1040
0.0
1040
196.79200041206181
1040
96.971943569687113
1040
0.0
1002
}
  0
LINE
  5
C5D
  8
HIDE
 10
187.02458688320019
 20
98.766259571445616
 30
0.0
 11
207.02458688320019
 21
98.766259571445616
 31
0.0
  0
LINE
  5
C5E
  8
HIDE
 10
187.02458688320019
 20
98.016259571447435
 30
0.0
 11
207.02458688320019
 21
98.016259571447435
 31
0.0
  0
LINE
  5
C5F
  8
CENTER
  6
CENTER
 10
190.45857316684251
 20
106.31842085568231
 30
0.0
 11
196.6783440570301
 21
95.545461662438427
 31
0.0
  0
LINE
  5
C61
  8
HIDE
 10
187.02458688320019
 20
68.766259571445602
 30
0.0
 11
207.02458688320019
 21
68.766259571445602
 31
0.0
  0
LINE
  5
C62
  8
HIDE
 10
187.02458688320019
 20
69.516259571443783
 30
0.0
 11
207.02458688320019
 21
69.516259571443783
 31
0.0
  0
ARC
  5
C63
  8
0
 10
76.893202530907971
 20
107.92574905176571
 30
0.0
 40
4.7392728971135512
 50
187.5632410075593
 51
352.43675899244067
  0
ARC
  5
C64
  8
0
 10
55.970488889343201
 20
71.686545992365666
 30
0.0
 40
4.7392728971135512
 50
307.56324100749612
 51
112.43675899245
  0
ARC
  5
C65
  8
0
 10
97.81591617247274
 20
71.686545992367485
 30
0.0
 40
4.7392728971135512
 50
67.563241007549991
 51
232.43675899250391
  0
ENDSEC
  0
EOF
