  0
SECTION
  2
HEADER
  9
$ACADVER
  1
AC1009
  9
$INSBASE
 10
0.0
 20
0.0
 30
0.0
  9
$EXTMIN
 10
30.61869924278275
 20
-106.1852171409647
 30
0.0
  9
$EXTMAX
 10
1842.0748967834979
 20
784.95339277186588
 30
0.0
  9
$LIMMIN
 10
0.0
 20
0.0
  9
$LIMMAX
 10
12.0
 20
9.0
  9
$ORTHOMODE
 70
     0
  9
$REGENMODE
 70
     1
  9
$FILLMODE
 70
     1
  9
$QTEXTMODE
 70
     0
  9
$MIRRTEXT
 70
     0
  9
$DRAGMODE
 70
     2
  9
$LTSCALE
 40
1.0
  9
$OSMODE
 70
  2239
  9
$ATTMODE
 70
     1
  9
$TEXTSIZE
 40
0.2
  9
$TRACEWID
 40
0.05
  9
$TEXTSTYLE
  7
STANDARD
  9
$CLAYER
  8
0
  9
$CELTYPE
  6
BYLAYER
  9
$CECOLOR
 62
   256
  9
$DIMSCALE
 40
1.0
  9
$DIMASZ
 40
0.18
  9
$DIMEXO
 40
0.0625
  9
$DIMDLI
 40
0.38
  9
$DIMRND
 40
0.0
  9
$DIMDLE
 40
0.0
  9
$DIMEXE
 40
0.18
  9
$DIMTP
 40
0.0
  9
$DIMTM
 40
0.0
  9
$DIMTXT
 40
0.18
  9
$DIMCEN
 40
0.09
  9
$DIMTSZ
 40
0.0
  9
$DIMTOL
 70
     0
  9
$DIMLIM
 70
     0
  9
$DIMTIH
 70
     1
  9
$DIMTOH
 70
     1
  9
$DIMSE1
 70
     0
  9
$DIMSE2
 70
     0
  9
$DIMTAD
 70
     0
  9
$DIMZIN
 70
     0
  9
$DIMBLK
  1

  9
$DIMASO
 70
     1
  9
$DIMSHO
 70
     1
  9
$DIMPOST
  1

  9
$DIMAPOST
  1

  9
$DIMALT
 70
     0
  9
$DIMALTD
 70
     2
  9
$DIMALTF
 40
25.399999999999999
  9
$DIMLFAC
 40
1.0
  9
$DIMTOFL
 70
     0
  9
$DIMTVP
 40
0.0
  9
$DIMTIX
 70
     0
  9
$DIMSOXD
 70
     0
  9
$DIMSAH
 70
     0
  9
$DIMBLK1
  1

  9
$DIMBLK2
  1

  9
$DIMSTYLE
  2
STANDARD
  9
$DIMCLRD
 70
     0
  9
$DIMCLRE
 70
     0
  9
$DIMCLRT
 70
     0
  9
$DIMTFAC
 40
1.0
  9
$DIMGAP
 40
0.09
  9
$LUNITS
 70
     2
  9
$LUPREC
 70
     4
  9
$SKETCHINC
 40
0.1
  9
$FILLETRAD
 40
0.0
  9
$AUNITS
 70
     0
  9
$AUPREC
 70
     0
  9
$MENU
  1
.
  9
$ELEVATION
 40
0.0
  9
$PELEVATION
 40
0.0
  9
$THICKNESS
 40
0.0
  9
$LIMCHECK
 70
     0
  9
$BLIPMODE
 70
     0
  9
$CHAMFERA
 40
1.0
  9
$CHAMFERB
 40
1.0
  9
$SKPOLY
 70
     0
  9
$TDCREATE
 40
2455485.671822188
  9
$TDUPDATE
 40
2456648.3949227659
  9
$TDINDWG
 40
0.3863021991
  9
$TDUSRTIMER
 40
0.3863021991
  9
$USRTIMER
 70
     1
  9
$ANGBASE
 50
0.0
  9
$ANGDIR
 70
     0
  9
$PDMODE
 70
     0
  9
$PDSIZE
 40
0.0
  9
$PLINEWID
 40
0.0
  9
$COORDS
 70
     1
  9
$SPLFRAME
 70
     0
  9
$SPLINETYPE
 70
     6
  9
$SPLINESEGS
 70
     8
  9
$ATTDIA
 70
     0
  9
$ATTREQ
 70
     1
  9
$HANDLING
 70
     1
  9
$HANDSEED
  5
CA8
  9
$SURFTAB1
 70
     6
  9
$SURFTAB2
 70
     6
  9
$SURFTYPE
 70
     6
  9
$SURFU
 70
     6
  9
$SURFV
 70
     6
  9
$UCSNAME
  2

  9
$UCSORG
 10
0.0
 20
0.0
 30
0.0
  9
$UCSXDIR
 10
1.0
 20
0.0
 30
0.0
  9
$UCSYDIR
 10
0.0
 20
1.0
 30
0.0
  9
$PUCSNAME
  2

  9
$PUCSORG
 10
0.0
 20
0.0
 30
0.0
  9
$PUCSXDIR
 10
1.0
 20
0.0
 30
0.0
  9
$PUCSYDIR
 10
0.0
 20
1.0
 30
0.0
  9
$USERI1
 70
     0
  9
$USERI2
 70
     0
  9
$USERI3
 70
     0
  9
$USERI4
 70
     0
  9
$USERI5
 70
     0
  9
$USERR1
 40
0.0
  9
$USERR2
 40
0.0
  9
$USERR3
 40
0.0
  9
$USERR4
 40
0.0
  9
$USERR5
 40
0.0
  9
$WORLDVIEW
 70
     1
  9
$SHADEDGE
 70
     3
  9
$SHADEDIF
 70
    70
  9
$TILEMODE
 70
     1
  9
$MAXACTVP
 70
    48
  9
$PLIMCHECK
 70
     0
  9
$PEXTMIN
 10
0.0
 20
0.0
 30
0.0
  9
$PEXTMAX
 10
0.0
 20
0.0
 30
0.0
  9
$PLIMMIN
 10
0.0
 20
0.0
  9
$PLIMMAX
 10
12.0
 20
9.0
  9
$UNITMODE
 70
     0
  9
$VISRETAIN
 70
     1
  9
$PLINEGEN
 70
     0
  9
$PSLTSCALE
 70
     1
  0
ENDSEC
  0
SECTION
  2
TABLES
  0
TABLE
  2
VPORT
 70
     1
  0
VPORT
  2
*ACTIVE
 70
     0
 10
0.0
 20
0.0
 11
1.0
 21
1.0
 12
206.91506680617911
 22
66.065415285330573
 13
0.0
 23
0.0
 14
0.5
 24
0.5
 15
0.5
 25
0.5
 16
0.0
 26
0.0
 36
1.0
 17
0.0
 27
0.0
 37
0.0
 40
208.42460103057641
 41
2.1408934707903771
 42
50.0
 43
0.0
 44
0.0
 50
0.0
 51
0.0
 71
     0
 72
  1000
 73
     1
 74
     3
 75
     0
 76
     0
 77
     0
 78
     0
  0
ENDTAB
  0
TABLE
  2
LTYPE
 70
     4
  0
LTYPE
  2
CONTINUOUS
 70
     0
  3
Solid line
 72
    65
 73
     0
 40
0.0
  0
LTYPE
  2
CENTER
 70
     0
  3
____ _ ____ _ ____ _ ____ _ ____ _ ____ _ ____ 
 72
    65
 73
     4
 40
2.0
 49
1.25
 49
-0.25
 49
0.25
 49
-0.25
  0
LTYPE
  2
PHANTOM2
 70
     0
  3
Phantom (.5x) ___ _ _ ___ _ _ ___ _ _ ___ _ _
 72
    65
 73
     6
 40
1.25
 49
0.625
 49
-0.125
 49
0.125
 49
-0.125
 49
0.125
 49
-0.125
  0
ENDTAB
  0
TABLE
  2
LAYER
 70
     4
  0
LAYER
  2
0
 70
     0
 62
     7
  6
CONTINUOUS
  0
LAYER
  2
CENTER
 70
     0
 62
     3
  6
CENTER
  0
LAYER
  2
HIDE
 70
     0
 62
     1
  6
CONTINUOUS
  0
ENDTAB
  0
TABLE
  2
STYLE
 70
     7
  0
STYLE
  2
STANDARD
 70
     0
 40
0.0
 41
1.0
 50
0.0
 71
     0
 42
0.2
  3
txt
  4
whgtxt.shx
  0
STYLE
  2
DUKI7
 70
     0
 40
20.0
 41
1.0
 50
0.0
 71
     0
 42
20.0
  3
txt
  4

  0
ENDTAB
  0
TABLE
  2
VIEW
 70
     0
  0
ENDTAB
  0
TABLE
  2
UCS
 70
     0
  0
ENDTAB
  0
TABLE
  2
APPID
 70
    13
  0
APPID
  2
ACAD
 70
     0
  0
APPID
  2
ACADANNOPO
 70
     0
  0
APPID
  2
ACADANNOTATIVE
 70
     0
  0
APPID
  2
ACAD_DSTYLE_DIMJAG
 70
     0
  0
APPID
  2
ACAD_DSTYLE_DIMTALN
 70
     0
  0
APPID
  2
ACAD_MLEADERVER
 70
     0
  0
APPID
  2
ACAD_PSEXT
 70
     0
  0
APPID
  2
ACAECLAYERSTANDARD
 70
     0
  0
APPID
  2
ACAD_DSTYLE_DIMBREAK
 70
     0
  0
APPID
  2
ACAD_DSTYLE_DIMTEXT_FILL
 70
     0
  0
APPID
  2
ACAD_EXEMPT_FROM_CAD_STANDARDS
 70
     0
  0
APPID
  2
ACAD_NAV_VCDISPLAY
 70
     0
  0
APPID
  2
ACDBDYNAMICBLOCKTRUENAME2
 70
     0
  0
ENDTAB
  0
TABLE
  2
DIMSTYLE
 70
     6
  0
DIMSTYLE
  2
STANDARD
 70
     0
  3

  4

  5

  6

  7

 40
1.0
 41
0.18
 42
0.0625
 43
0.38
 44
0.18
 45
0.0
 46
0.0
 47
0.0
 48
0.0
140
0.18
141
0.09
142
0.0
143
25.399999999999999
144
1.0
145
0.0
146
1.0
147
0.09
 71
     0
 72
     0
 73
     1
 74
     1
 75
     0
 76
     0
 77
     0
 78
     0
170
     0
171
     2
172
     0
173
     0
174
     0
175
     0
176
     0
177
     0
178
     0
  0
ENDTAB
  0
ENDSEC
  0
SECTION
  2
BLOCKS
  0
BLOCK
  8
0
  2
$MODEL_SPACE
 70
     0
 10
0.0
 20
0.0
 30
0.0
  3
$MODEL_SPACE
  1

  0
ENDBLK
  5
21
  8
0
  0
BLOCK
 67
     1
  8
0
  2
$PAPER_SPACE
 70
     0
 10
0.0
 20
0.0
 30
0.0
  3
$PAPER_SPACE
  1

  0
ENDBLK
  5
5B
 67
     1
  8
0
  0
BLOCK
  8
0
  2
*U7
 70
     1
 10
0.0
 20
0.0
 30
0.0
  3
*U7
  1

  0
CIRCLE
  5
BBC
  8
0
 10
-0.000000000007276
 20
0.0
 30
0.0
 40
2.5
  0
ENDBLK
  5
BBD
  8
0
  0
BLOCK
  8
0
  2
*U9
 70
     1
 10
0.0
 20
0.0
 30
0.0
  3
*U9
  1

  0
INSERT
  5
BC3
  8
0
  6
BYBLOCK
 62
     0
  2
*U7
 10
-42145.657432805529
 20
9903.1143382640767
 30
0.0
  0
INSERT
  5
BC4
  8
0
  6
BYBLOCK
 62
     0
  2
*U7
 10
-42165.359510741619
 20
9891.7393382640767
 30
0.0
 50
59.999999999999993
  0
INSERT
  5
BC5
  8
0
  6
BYBLOCK
 62
     0
  2
*U7
 10
-42165.359510741619
 20
9868.9893382640785
 30
0.0
 50
120.0
  0
INSERT
  5
BC6
  8
0
  6
BYBLOCK
 62
     0
  2
*U7
 10
-42145.657432805529
 20
9857.6143382640767
 30
0.0
 50
180.0
  0
INSERT
  5
BC7
  8
0
  6
BYBLOCK
 62
     0
  2
*U7
 10
-42125.955354869431
 20
9868.9893382640785
 30
0.0
 50
240.0
  0
INSERT
  5
BC8
  8
0
  6
BYBLOCK
 62
     0
  2
*U7
 10
-42125.955354869431
 20
9891.7393382640767
 30
0.0
 41
0.9999999999999998
 42
0.9999999999999998
 43
0.9999999999999998
 50
300.0
  0
ENDBLK
  5
BC9
  8
0
  0
BLOCK
  8
0
  2
*U10
 70
     1
 10
0.0
 20
0.0
 30
0.0
  3
*U10
  1

  0
ARC
  5
BCC
  8
CENTER
 10
-0.0000000000145519
 20
-22.75
 30
0.0
 40
22.75
 50
76.114316309149558
 51
103.8856836908504
  0
LINE
  5
BCD
  8
CENTER
 10
-0.0000000000145519
 20
5.5
 30
0.0
 11
-0.0000000000145519
 21
-5.5
 31
0.0
  0
ENDBLK
  5
BCE
  8
0
  0
BLOCK
  8
0
  2
*U11
 70
     1
 10
0.0
 20
0.0
 30
0.0
  3
*U11
  1

  0
INSERT
  5
BD2
  8
0
  6
BYBLOCK
 62
     0
  2
*U10
 10
-42144.98335038669
 20
9830.8114684451339
 30
0.0
  0
INSERT
  5
BD3
  8
0
  6
BYBLOCK
 62
     0
  2
*U10
 10
-42164.685428322788
 20
9819.4364684451375
 30
0.0
 50
59.999999999999972
  0
INSERT
  5
BD4
  8
0
  6
BYBLOCK
 62
     0
  2
*U10
 10
-42164.685428322802
 20
9796.6864684451375
 30
0.0
 50
119.9999999999999
  0
INSERT
  5
BD5
  8
0
  6
BYBLOCK
 62
     0
  2
*U10
 10
-42144.983350386712
 20
9785.3114684451339
 30
0.0
 50
180.0
  0
INSERT
  5
BD6
  8
0
  6
BYBLOCK
 62
     0
  2
*U10
 10
-42125.281272450608
 20
9796.6864684451266
 30
0.0
 50
239.99999999999989
  0
INSERT
  5
BD7
  8
0
  6
BYBLOCK
 62
     0
  2
*U10
 10
-42125.2812724506
 20
9819.4364684451266
 30
0.0
 50
300.0
  0
ENDBLK
  5
BD8
  8
0
  0
BLOCK
  8
0
  2
*X12
 70
     1
 10
0.0
 20
0.0
 30
0.0
  3
*X12
  1

  0
LINE
  5
C7D
  8
0
 62
     0
 10
1334.2899516818479
 20
880.40889602302593
 30
0.0
 11
1333.0873115924101
 21
880.73114246377611
 31
0.0
  0
LINE
  5
C7E
  8
0
 62
     0
 10
1331.668373291762
 20
879.84960299066938
 30
0.0
 11
1331.5946537804009
 21
879.86935607420503
 31
0.0
  0
LINE
  5
C7F
  8
0
 62
     0
 10
1335.1517380714211
 20
878.91623821101678
 30
0.0
 11
1331.668373291762
 21
879.84960299066938
 31
0.0
  0
LINE
  5
C80
  8
0
 62
     0
 10
1332.530159681332
 20
878.35694517866125
 30
0.0
 11
1330.1019959683911
 21
879.0075696846344
 31
0.0
  0
LINE
  5
C81
  8
0
 62
     0
 10
1336.0135244609939
 20
877.42358039900773
 30
0.0
 11
1332.5301596813331
 21
878.35694517866091
 31
0.0
  0
LINE
  5
C82
  8
0
 62
     0
 10
1333.0982885658741
 20
876.9429726579765
 30
0.0
 11
1329.908581291254
 21
877.79765214630288
 31
0.0
  0
LINE
  5
C83
  8
0
 62
     0
 10
1335.1222986617311
 20
876.94297265797707
 30
0.0
 11
1335.492763241079
 21
878.32556529051112
 31
0.0
  0
LINE
  5
C84
  8
0
 62
     0
 10
1333.860555816856
 20
876.94297265797798
 30
0.0
 11
1334.6309768515071
 21
879.81822310251721
 31
0.0
  0
LINE
  5
C85
  8
0
 62
     0
 10
1332.8358256822839
 20
877.82751613486755
 30
0.0
 11
1333.710213231099
 21
881.09077489255151
 31
0.0
  0
LINE
  5
C86
  8
0
 62
     0
 10
1332.598812971981
 20
876.94297265797695
 30
0.0
 11
1332.8358256822839
 21
877.82751613486676
 31
0.0
  0
LINE
  5
C87
  8
0
 62
     0
 10
1331.9740392927131
 20
879.32017394687659
 30
0.0
 11
1332.2175554190901
 21
880.22898850298088
 31
0.0
  0
LINE
  5
C88
  8
0
 62
     0
 10
1331.337070127106
 20
876.94297265797775
 30
0.0
 11
1331.9740392927131
 21
879.32017394687625
 31
0.0
  0
LINE
  5
C89
  8
0
 62
     0
 10
1330.178888123492
 20
877.32946697923614
 30
0.0
 11
1330.7248976070821
 21
879.36720211341105
 31
0.0
  0
ENDBLK
  5
C8B
  8
0
  0
BLOCK
  8
0
  2
*U13
 70
     1
 10
0.0
 20
0.0
 30
0.0
  3
*U13
  1

  0
TEXT
  5
C8D
  8
0
 10
1.796961047846074
 20
7.5649477821703917
 30
0.0
 40
20.0
  1
WBK17
  7
DUKI7
  0
ENDBLK
  5
C8F
  8
0
  0
BLOCK
  8
0
  2
*X14
 70
     1
 10
0.0
 20
0.0
 30
0.0
  3
*X14
  1

  0
LINE
  5
C91
  8
0
 62
     0
 10
230.11995923073931
 20
103.98218293648419
 30
0.0
 11
228.91731914130179
 21
104.3044293772343
 31
0.0
  0
LINE
  5
C92
  8
0
 62
     0
 10
227.49838084065411
 20
103.4228899041276
 30
0.0
 11
227.42466132929289
 21
103.44264298766331
 31
0.0
  0
LINE
  5
C93
  8
0
 62
     0
 10
230.98174562031269
 20
102.48952512447509
 30
0.0
 11
227.49838084065411
 21
103.4228899041276
 31
0.0
  0
LINE
  5
C94
  8
0
 62
     0
 10
228.36016723022411
 20
101.9302320921195
 30
0.0
 11
225.93200351728271
 21
102.58085659809269
 31
0.0
  0
LINE
  5
C95
  8
0
 62
     0
 10
231.84353200988619
 20
100.99686731246599
 30
0.0
 11
228.3601672302247
 21
101.9302320921193
 31
0.0
  0
LINE
  5
C96
  8
0
 62
     0
 10
228.928296114766
 20
100.5162595714349
 30
0.0
 11
225.73858884014561
 21
101.3709390597611
 31
0.0
  0
LINE
  5
C97
  8
0
 62
     0
 10
230.95230621062211
 20
100.5162595714355
 30
0.0
 11
231.32277078997069
 21
101.8988522039691
 31
0.0
  0
LINE
  5
C98
  8
0
 62
     0
 10
229.69056336574761
 20
100.51625957143629
 30
0.0
 11
230.46098440039901
 21
103.3915100159752
 31
0.0
  0
LINE
  5
C99
  8
0
 62
     0
 10
228.6658332311755
 20
101.4008030483258
 30
0.0
 11
229.54022077999079
 21
104.66406180601
 31
0.0
  0
LINE
  5
C9A
  8
0
 62
     0
 10
228.42882052087251
 20
100.5162595714352
 30
0.0
 11
228.6658332311753
 21
101.400803048325
 31
0.0
  0
LINE
  5
C9B
  8
0
 62
     0
 10
227.80404684160459
 20
102.8934608603348
 30
0.0
 11
228.0475629679824
 21
103.8022754164392
 31
0.0
  0
LINE
  5
C9C
  8
0
 62
     0
 10
227.16707767599789
 20
100.516259571436
 30
0.0
 11
227.8040468416045
 21
102.8934608603346
 31
0.0
  0
LINE
  5
C9D
  8
0
 62
     0
 10
226.00889567238349
 20
100.90275389269441
 30
0.0
 11
226.55490515597421
 21
102.9404890268693
 31
0.0
  0
ENDBLK
  5
C9F
  8
0
  0
BLOCK
  8
0
  2
*U15
 70
     1
 10
0.0
 20
0.0
 30
0.0
  3
*U15
  1

  0
TEXT
  5
CA1
  8
0
 10
161.40457885636991
 20
-25.385716926823179
 30
0.0
 40
20.0
  1
WBK35
  7
DUKI7
  0
ENDBLK
  5
CA3
  8
0
  0
ENDSEC
  0
SECTION
  2
ENTITIES
  0
LINE
  5
2B0
  8
CENTER
  6
CENTER
 10
100.7017789407852
 20
159.1900825433913
 30
0.0
 11
100.7017789407852
 21
8.3424781476191452
 31
0.0
  0
LINE
  5
2B4
  8
CENTER
  6
CENTER
 10
170.78485863878771
 20
83.766280345505109
 30
0.0
 11
30.61869924278275
 21
83.766280345505109
 31
0.0
  0
LINE
  5
30E
  8
CENTER
 10
329.96938842559871
 20
83.766259571445588
 30
0.0
 11
207.017590348558
 21
83.766259571445588
 31
0.0
  0
LINE
  5
41E
  8
CENTER
  6
CENTER
 10
370.28791338936861
 20
143.76628034550509
 30
0.0
 11
370.28791338936861
 21
23.76628034550512
 31
0.0
  0
LINE
  5
41F
  8
CENTER
  6
CENTER
 10
420.28790338936881
 20
83.766280345505109
 30
0.0
 11
370.28791338936861
 21
83.766280345505109
 31
0.0
  0
CIRCLE
  5
5D3
  8
0
 10
100.7017789407852
 20
126.26628034550519
 30
0.0
 40
7.0
  0
CIRCLE
  5
5D4
  8
0
 10
100.7017789407852
 20
126.26628034550519
 30
0.0
 40
6.0
  0
LINE
  5
5D5
  8
0
 10
103.72677894078529
 20
124.5057761563594
 30
0.0
 11
103.7267789407852
 21
128.026784534651
 31
0.0
  0
LINE
  5
5D6
  8
0
 10
97.676778940785255
 20
124.5057761563594
 30
0.0
 11
97.676778940785255
 21
128.026784534651
 31
0.0
  0
LINE
  5
5D7
  8
0
 10
97.676778940785255
 20
124.5057761563594
 30
0.0
 11
97.676778940785255
 21
128.026784534651
 31
0.0
  0
LINE
  5
5D8
  8
0
 10
97.676778940785283
 20
128.02678453465111
 30
0.0
 11
100.7017789407852
 21
129.76628034550521
 31
0.0
  0
LINE
  5
5D9
  8
0
 10
100.7017789407852
 20
129.76628034550521
 30
0.0
 11
103.72677894078529
 21
128.026784534651
 31
0.0
  0
LINE
  5
5DA
  8
0
 10
97.676778940785283
 20
124.5057761563594
 30
0.0
 11
100.7017789407852
 21
122.76628034550519
 31
0.0
  0
LINE
  5
5DB
  8
0
 10
100.7017789407852
 20
122.76628034550519
 30
0.0
 11
103.72677894078529
 21
124.5057761563595
 31
0.0
  0
LINE
  5
5EF
  8
CENTER
 10
70.762182236267464
 20
97.727343570893893
 30
0.0
 11
53.236557020275647
 21
105.89967682306521
 31
0.0
  0
CIRCLE
  5
5F0
  8
0
 10
62.183697991727591
 20
101.7275564694848
 30
0.0
 40
7.0
  0
CIRCLE
  5
5F1
  8
0
 10
62.183697991727591
 20
101.7275564694848
 30
0.0
 40
6.0
  0
LINE
  5
5F2
  8
0
 10
59.158697991727557
 20
99.967052280339061
 30
0.0
 11
59.158697991727578
 21
103.4880606586306
 31
0.0
  0
LINE
  5
5F3
  8
0
 10
65.208697991727604
 20
99.967052280339004
 30
0.0
 11
65.208697991727604
 21
103.4880606586306
 31
0.0
  0
LINE
  5
5F4
  8
0
 10
65.208697991727604
 20
99.967052280339004
 30
0.0
 11
65.208697991727604
 21
103.4880606586306
 31
0.0
  0
LINE
  5
5F5
  8
0
 10
65.208697991727576
 20
103.4880606586307
 30
0.0
 11
62.183697991727591
 21
105.2275564694848
 31
0.0
  0
LINE
  5
5F6
  8
0
 10
62.183697991727591
 20
105.2275564694848
 30
0.0
 11
59.158697991727557
 21
103.4880606586306
 31
0.0
  0
LINE
  5
5F7
  8
0
 10
65.208697991727576
 20
99.96705228033899
 30
0.0
 11
62.183697991727591
 21
98.227556469484838
 31
0.0
  0
LINE
  5
5F8
  8
0
 10
62.183697991727591
 20
98.227556469484838
 30
0.0
 11
59.158697991727529
 21
99.967052280339104
 31
0.0
  0
CIRCLE
  5
60E
  8
0
 10
85.043226712082756
 20
142.20479283599369
 30
0.0
 40
8.75
  0
CIRCLE
  5
60F
  8
0
 10
85.043226712082756
 20
142.20479283599369
 30
0.0
 40
5.5
  0
ARC
  5
61F
  8
HIDE
 10
72.417507693323415
 20
112.0505515929669
 30
0.0
 40
3.0
 50
239.80903336669891
 51
145.78362026624319
  0
CIRCLE
  5
620
  8
0
 10
72.417507693323415
 20
112.0505515929669
 30
0.0
 40
2.5
  0
LINE
  5
674
  8
CENTER
  6
CENTER
 10
272.12174330971197
 20
107.2412199584752
 30
0.0
 11
260.77681330970898
 21
113.7912199584781
 31
0.0
  0
CIRCLE
  5
675
  8
HIDE
 10
266.44928330971038
 20
110.51626995847541
 30
0.0
 40
3.1749990000000001
  0
LINE
  5
676
  8
HIDE
 10
273.94928330971038
 20
114.01626995847541
 30
0.0
 11
267.85128330970861
 21
114.01626995847541
 31
0.0
  0
LINE
  5
680
  8
HIDE
 10
273.44928330971038
 20
110.51626995847541
 30
0.0
 11
269.6242833097096
 21
110.51626995847541
 31
0.0
  0
LINE
  5
681
  8
HIDE
 10
265.40976330971188
 20
107.51626995847541
 30
0.0
 11
259.44928330971038
 21
107.51626995847541
 31
0.0
  0
LINE
  5
682
  8
HIDE
 10
263.27429330971091
 20
110.51626995847541
 30
0.0
 11
259.44928330971038
 21
110.51626995847541
 31
0.0
  0
ARC
  5
683
  8
HIDE
 10
267.85128330970861
 20
113.51626995847541
 30
0.0
 40
0.5
 50
90.000018000116427
 51
174.99627800008199
  0
ARC
  5
684
  8
HIDE
 10
259.44928330971038
 20
107.01626995847541
 30
0.0
 40
0.5
 50
90.000018000116427
 51
179.99996399997551
  0
ARC
  5
685
  8
HIDE
 10
259.44928330971038
 20
111.01626995847541
 30
0.0
 40
0.5
 50
179.99995999999601
 51
269.9999800001022
  0
ARC
  5
68E
  8
HIDE
 10
273.44928346679097
 20
110.01626995847541
 30
0.0
 40
0.5
 50
0.0000400000040257
 51
90.000018000116427
  0
LINE
  5
690
  8
HIDE
 10
288.94928330971038
 20
118.7662595714456
 30
0.0
 11
288.94928330971038
 21
102.26628034550519
 31
0.0
  0
LINE
  5
692
  8
HIDE
 10
273.94928330971038
 20
118.7662595714456
 30
0.0
 11
273.94928330971038
 21
102.2662796473733
 31
0.0
  0
LINE
  5
693
  8
CENTER
  6
CENTER
 10
287.12168330970979
 20
113.7912299584779
 30
0.0
 11
275.7767633097103
 21
107.2412399584783
 31
0.0
  0
ARC
  5
694
  8
HIDE
 10
280.04727330970871
 20
113.51626995847541
 30
0.0
 40
0.5
 50
5.003720000016469
 51
90.000018000116427
  0
CIRCLE
  5
695
  8
HIDE
 10
281.44928330971038
 20
110.51626995847541
 30
0.0
 40
3.1749990000000001
  0
LINE
  5
696
  8
HIDE
 10
288.44928330971038
 20
107.51626995847541
 30
0.0
 11
282.48880330970883
 21
107.51626995847541
 31
0.0
  0
LINE
  5
697
  8
HIDE
 10
288.44928330971038
 20
110.51626995847541
 30
0.0
 11
284.62426330971022
 21
110.51626995847541
 31
0.0
  0
ARC
  5
698
  8
HIDE
 10
288.44928330971038
 20
107.01626995847541
 30
0.0
 40
0.5
 50
0.0000400000040257
 51
90.000018000116427
  0
ARC
  5
699
  8
HIDE
 10
288.44928330971038
 20
111.01626995847541
 30
0.0
 40
0.5
 50
270.0
 51
0.0000400000040257
  0
LINE
  5
69A
  8
HIDE
 10
278.2742733097113
 20
110.51626995847541
 30
0.0
 11
274.44928330971038
 21
110.51626995847541
 31
0.0
  0
LINE
  5
69B
  8
HIDE
 10
280.04727330970871
 20
114.01626995847541
 30
0.0
 11
273.94928330971038
 21
114.01626995847541
 31
0.0
  0
ARC
  5
69C
  8
HIDE
 10
274.44928346679097
 20
110.01626995847541
 30
0.0
 40
0.5
 50
90.000018000116427
 51
180.0
  0
LINE
  5
69D
  8
HIDE
 10
258.94928330971038
 20
119.7662595714456
 30
0.0
 11
258.94928330971038
 21
101.26628034550519
 31
0.0
  0
ARC
  5
6B2
  8
HIDE
 10
272.94928330971021
 20
102.26628034550509
 30
0.0
 40
1.0
 50
269.9999800001022
 51
359.99995999999589
  0
ARC
  5
6B7
  8
HIDE
 10
272.94928330971021
 20
118.7662595714456
 30
0.0
 40
1.0
 50
0.0000400000040257
 51
90.000018000116427
  0
ARC
  5
6B8
  8
HIDE
 10
259.94928330971021
 20
102.26628034550509
 30
0.0
 40
1.0
 50
180.0
 51
269.9999800001022
  0
ARC
  5
6B9
  8
HIDE
 10
259.94928330971021
 20
118.7662595714456
 30
0.0
 40
1.0
 50
90.000018000116427
 51
179.99996399997551
  0
ARC
  5
6BA
  8
HIDE
 10
287.94928330970998
 20
102.2662796473733
 30
0.0
 40
1.0
 50
270.0
 51
0.0000400000040257
  0
ARC
  5
6BB
  8
HIDE
 10
274.94928330970998
 20
102.2662796473733
 30
0.0
 40
1.0
 50
180.0
 51
269.9999800001022
  0
ARC
  5
6BC
  8
HIDE
 10
287.94928330970998
 20
118.7662588733137
 30
0.0
 40
1.0
 50
0.0000400000040257
 51
90.000018000116427
  0
ARC
  5
6BD
  8
HIDE
 10
274.94928330970998
 20
118.7662588733137
 30
0.0
 40
1.0
 50
90.000018000116427
 51
180.0
  0
LINE
  5
6C0
  8
HIDE
 10
274.94810167388948
 20
101.26628034550519
 30
0.0
 11
287.95046494553787
 21
101.26628034550519
 31
0.0
  0
LINE
  5
6C3
  8
HIDE
 10
259.94928330971021
 20
101.26628034550519
 30
0.0
 11
272.94928330971021
 21
101.26628034550519
 31
0.0
  0
LINE
  5
6F3
  8
CENTER
 10
395.2187378042006
 20
108.6971047603371
 30
0.0
 11
402.55293726665548
 21
116.0313042227921
 31
0.0
  0
ARC
  5
6F4
  8
HIDE
 10
398.57218463683051
 20
112.050551592967
 30
0.0
 40
3.0
 50
215.24317242610829
 51
123.57783539362831
  0
CIRCLE
  5
6F9
  8
0
 10
398.57218463683051
 20
112.050551592967
 30
0.0
 40
2.5
  0
LINE
  5
6FA
  8
CENTER
 10
395.2187378042006
 20
58.835455930673099
 30
0.0
 11
402.55293726665548
 21
51.501256468218152
 31
0.0
  0
ARC
  5
6FB
  8
HIDE
 10
398.57218463683051
 20
55.482009098043179
 30
0.0
 40
3.0
 50
236.42216460637161
 51
144.75682757389271
  0
CIRCLE
  5
6FC
  8
0
 10
398.57218463683051
 20
55.482009098043228
 30
0.0
 40
2.5
  0
LINE
  5
6FD
  8
CENTER
 10
310.7115149983307
 20
123.76628034550509
 30
0.0
 11
289.67491902019748
 21
123.76628034550509
 31
0.0
  0
LINE
  5
6FE
  8
HIDE
 10
306.94928330971038
 20
126.76628034550509
 30
0.0
 11
298.81530871349491
 21
126.76628034550509
 31
0.0
  0
LINE
  5
6FF
  8
HIDE
 10
306.94928330971038
 20
120.76628034550509
 30
0.0
 11
298.81530871349491
 21
120.76628034550509
 31
0.0
  0
LINE
  5
700
  8
HIDE
 10
297.94928330971061
 20
121.26628034550509
 30
0.0
 11
297.94928330971049
 21
126.26628034550509
 31
0.0
  0
LINE
  5
701
  8
HIDE
 10
293.94928330971049
 20
121.266280345505
 30
0.0
 11
293.94928330971049
 21
126.26628034550509
 31
0.0
  0
LINE
  5
702
  8
HIDE
 10
306.94928330971038
 20
126.26628034550509
 30
0.0
 11
293.94928330971049
 21
126.26628034550509
 31
0.0
  0
LINE
  5
703
  8
HIDE
 10
306.94928330971038
 20
121.26628034550509
 30
0.0
 11
293.94928330971049
 21
121.266280345505
 31
0.0
  0
LINE
  5
706
  8
HIDE
 10
297.94928330971038
 20
126.26628034550509
 30
0.0
 11
298.81530871349491
 21
126.76628034550509
 31
0.0
  0
LINE
  5
709
  8
HIDE
 10
293.94928330971049
 20
126.26628034550509
 30
0.0
 11
292.50590763673642
 21
123.76628034550509
 31
0.0
  0
LINE
  5
72A
  8
HIDE
 10
293.94928330971049
 20
121.266280345505
 30
0.0
 11
292.50590763673642
 21
123.76628034550509
 31
0.0
  0
LINE
  5
72B
  8
HIDE
 10
297.94928330971038
 20
121.26628034550509
 30
0.0
 11
298.81530871349491
 21
120.766280345505
 31
0.0
  0
CIRCLE
  5
7D5
  8
0
 10
100.7017789407853
 20
83.766280345505109
 30
0.0
 40
51.0
  0
LINE
  5
7D6
  8
CENTER
 10
88.925512388620604
 20
127.7159054416577
 30
0.0
 11
81.180662477926944
 21
156.6200788053616
 31
0.0
  0
LINE
  5
7D7
  8
CENTER
 10
80.195682286375416
 20
104.2723769999149
 30
0.0
 11
47.369096943787113
 21
137.0989623425032
 31
0.0
  0
CIRCLE
  5
7D9
  8
0
 10
57.921818678999152
 20
126.5462406072912
 30
0.0
 40
8.75
  0
CIRCLE
  5
7DA
  8
0
 10
57.921818678999152
 20
126.5462406072912
 30
0.0
 40
5.5
  0
CIRCLE
  5
7E0
  8
CENTER
 10
100.7017789407852
 20
83.766280345505237
 30
0.0
 40
42.5
  0
CIRCLE
  5
7E1
  8
0
 10
100.7017789407853
 20
83.766280345505066
 30
0.0
 40
34.5
  0
CIRCLE
  5
7E8
  8
0
 10
100.7017789407853
 20
83.766280345505066
 30
0.0
 40
32.0
  0
CIRCLE
  5
7E9
  8
0
 10
100.7017789407852
 20
83.766280345505109
 30
0.0
 40
34.0
  0
ARC
  5
7F3
  8
CENTER
 10
100.7017789407853
 20
83.766280345505066
 30
0.0
 40
40.0
 50
126.08132804524431
 51
142.2985917028945
  0
ARC
  5
808
  8
HIDE
 10
72.417507693323358
 20
55.482009098043207
 30
0.0
 40
3.0
 50
239.809033366699
 51
145.7836202662431
  0
CIRCLE
  5
809
  8
0
 10
72.417507693323358
 20
55.482009098043207
 30
0.0
 40
2.5
  0
ARC
  5
80A
  8
HIDE
 10
128.98605018824719
 20
55.482009098043157
 30
0.0
 40
3.0
 50
239.8090333666992
 51
145.78362026624299
  0
CIRCLE
  5
80B
  8
0
 10
128.98605018824719
 20
55.482009098043157
 30
0.0
 40
2.5
  0
ARC
  5
80C
  8
HIDE
 10
128.98605018824711
 20
112.050551592967
 30
0.0
 40
3.0
 50
239.80903336669911
 51
145.7836202662431
  0
CIRCLE
  5
80D
  8
0
 10
128.98605018824711
 20
112.050551592967
 30
0.0
 40
2.5
  0
ARC
  5
812
  8
CENTER
 10
100.7017789407853
 20
83.766280345505066
 30
0.0
 40
40.0
 50
215.8064009745741
 51
233.77143524715211
  0
ARC
  5
813
  8
CENTER
 10
100.7017789407853
 20
83.766280345505066
 30
0.0
 40
40.0
 50
306.8071802159796
 51
323.43207062774923
  0
ARC
  5
814
  8
CENTER
 10
100.7017789407853
 20
83.766280345505066
 30
0.0
 40
40.0
 50
36.45532321061048
 51
53.637268795765443
  0
CIRCLE
  5
815
  8
0
 10
100.7017789407852
 20
41.266280345504981
 30
0.0
 40
7.0
  0
CIRCLE
  5
816
  8
0
 10
100.7017789407852
 20
41.266280345504981
 30
0.0
 40
6.0
  0
LINE
  5
817
  8
0
 10
103.72677894078529
 20
43.026784534650737
 30
0.0
 11
103.7267789407852
 21
39.505776156359161
 31
0.0
  0
LINE
  5
818
  8
0
 10
97.676778940785255
 20
43.026784534650787
 30
0.0
 11
97.676778940785255
 21
39.505776156359161
 31
0.0
  0
LINE
  5
819
  8
0
 10
97.676778940785255
 20
43.026784534650787
 30
0.0
 11
97.676778940785255
 21
39.505776156359161
 31
0.0
  0
LINE
  5
81A
  8
0
 10
97.676778940785283
 20
39.505776156359133
 30
0.0
 11
100.7017789407852
 21
37.766280345504981
 31
0.0
  0
LINE
  5
81B
  8
0
 10
100.7017789407852
 20
37.766280345504981
 30
0.0
 11
103.72677894078529
 21
39.50577615635919
 31
0.0
  0
LINE
  5
81C
  8
0
 10
97.676778940785283
 20
43.02678453465083
 30
0.0
 11
100.7017789407852
 21
44.766280345504981
 31
0.0
  0
LINE
  5
81D
  8
0
 10
100.7017789407852
 20
44.766280345504981
 30
0.0
 11
103.72677894078529
 21
43.026784534650709
 31
0.0
  0
LINE
  5
81E
  8
CENTER
 10
70.762182236267464
 20
69.805217120116325
 30
0.0
 11
53.236557020275647
 21
61.632883867944969
 31
0.0
  0
CIRCLE
  5
81F
  8
0
 10
62.183697991727591
 20
65.80500422152538
 30
0.0
 40
7.0
  0
CIRCLE
  5
820
  8
0
 10
62.183697991727591
 20
65.80500422152538
 30
0.0
 40
6.0
  0
LINE
  5
821
  8
0
 10
59.158697991727557
 20
67.565508410671157
 30
0.0
 11
59.158697991727578
 21
64.044500032379545
 31
0.0
  0
LINE
  5
822
  8
0
 10
65.208697991727604
 20
67.565508410671214
 30
0.0
 11
65.208697991727604
 21
64.044500032379545
 31
0.0
  0
LINE
  5
823
  8
0
 10
65.208697991727604
 20
67.565508410671214
 30
0.0
 11
65.208697991727604
 21
64.044500032379545
 31
0.0
  0
LINE
  5
824
  8
0
 10
65.208697991727576
 20
64.044500032379531
 30
0.0
 11
62.183697991727591
 21
62.305004221525373
 31
0.0
  0
LINE
  5
825
  8
0
 10
62.183697991727591
 20
62.305004221525373
 30
0.0
 11
59.158697991727557
 21
64.044500032379574
 31
0.0
  0
LINE
  5
826
  8
0
 10
65.208697991727576
 20
67.565508410671228
 30
0.0
 11
62.183697991727591
 21
69.30500422152538
 31
0.0
  0
LINE
  5
827
  8
0
 10
62.183697991727591
 20
69.30500422152538
 30
0.0
 11
59.158697991727529
 21
67.565508410671114
 31
0.0
  0
LINE
  5
828
  8
CENTER
 10
130.64137564530299
 20
97.727343570893893
 30
0.0
 11
148.16700086129481
 21
105.89967682306521
 31
0.0
  0
CIRCLE
  5
829
  8
0
 10
139.21985988984289
 20
101.7275564694848
 30
0.0
 40
7.0
  0
CIRCLE
  5
82A
  8
0
 10
139.21985988984289
 20
101.7275564694848
 30
0.0
 40
6.0
  0
LINE
  5
82B
  8
0
 10
142.2448598898429
 20
99.967052280339061
 30
0.0
 11
142.2448598898429
 21
103.4880606586306
 31
0.0
  0
LINE
  5
82C
  8
0
 10
136.19485988984289
 20
99.967052280339004
 30
0.0
 11
136.19485988984289
 21
103.4880606586306
 31
0.0
  0
LINE
  5
82D
  8
0
 10
136.19485988984289
 20
99.967052280339004
 30
0.0
 11
136.19485988984289
 21
103.4880606586306
 31
0.0
  0
LINE
  5
82E
  8
0
 10
136.19485988984289
 20
103.4880606586307
 30
0.0
 11
139.21985988984289
 21
105.2275564694848
 31
0.0
  0
LINE
  5
82F
  8
0
 10
139.21985988984289
 20
105.2275564694848
 30
0.0
 11
142.2448598898429
 21
103.4880606586306
 31
0.0
  0
LINE
  5
830
  8
0
 10
136.19485988984289
 20
99.96705228033899
 30
0.0
 11
139.21985988984289
 21
98.227556469484838
 31
0.0
  0
LINE
  5
831
  8
0
 10
139.21985988984289
 20
98.227556469484838
 30
0.0
 11
142.24485988984301
 21
99.967052280339104
 31
0.0
  0
LINE
  5
832
  8
CENTER
 10
130.64137564530299
 20
69.805217120116325
 30
0.0
 11
148.16700086129481
 21
61.632883867944969
 31
0.0
  0
CIRCLE
  5
833
  8
0
 10
139.21985988984289
 20
65.80500422152538
 30
0.0
 40
7.0
  0
CIRCLE
  5
834
  8
0
 10
139.21985988984289
 20
65.80500422152538
 30
0.0
 40
6.0
  0
LINE
  5
835
  8
0
 10
142.2448598898429
 20
67.565508410671157
 30
0.0
 11
142.2448598898429
 21
64.044500032379545
 31
0.0
  0
LINE
  5
836
  8
0
 10
136.19485988984289
 20
67.565508410671214
 30
0.0
 11
136.19485988984289
 21
64.044500032379545
 31
0.0
  0
LINE
  5
837
  8
0
 10
136.19485988984289
 20
67.565508410671214
 30
0.0
 11
136.19485988984289
 21
64.044500032379545
 31
0.0
  0
LINE
  5
838
  8
0
 10
136.19485988984289
 20
64.044500032379531
 30
0.0
 11
139.21985988984289
 21
62.305004221525373
 31
0.0
  0
LINE
  5
839
  8
0
 10
139.21985988984289
 20
62.305004221525373
 30
0.0
 11
142.2448598898429
 21
64.044500032379574
 31
0.0
  0
LINE
  5
83A
  8
0
 10
136.19485988984289
 20
67.565508410671228
 30
0.0
 11
139.21985988984289
 21
69.30500422152538
 31
0.0
  0
LINE
  5
83B
  8
0
 10
139.21985988984289
 20
69.30500422152538
 30
0.0
 11
142.24485988984301
 21
67.565508410671114
 31
0.0
  0
LINE
  5
85D
  8
0
 10
256.94928330971038
 20
154.76628034550509
 30
0.0
 11
272.94928330971032
 21
154.76628034550501
 31
0.0
  0
LINE
  5
85E
  8
0
 10
241.94928330971041
 20
134.76628034550509
 30
0.0
 11
255.9492833097103
 21
134.76628034550509
 31
0.0
  0
LINE
  5
860
  8
0
 10
273.94928330971032
 20
131.2662595714456
 30
0.0
 11
273.94928330971032
 21
153.76628034550501
 31
0.0
  0
LINE
  5
861
  8
0
 10
255.94928330971041
 20
153.76628034550509
 30
0.0
 11
256.94928330971038
 21
154.76628034550509
 31
0.0
  0
LINE
  5
862
  8
0
 10
272.94928330971032
 20
154.76628034550501
 30
0.0
 11
273.94928330971032
 21
153.76628034550509
 31
0.0
  0
LINE
  5
864
  8
CENTER
 10
284.53113671266658
 20
144.2662595714456
 30
0.0
 11
243.725490209106
 21
144.2662595714456
 31
0.0
  0
ARC
  5
865
  8
0
 10
100.7017789407853
 20
83.766280345505066
 30
0.0
 40
71.0
 50
41.713719322368597
 51
138.28628067763159
  0
CIRCLE
  5
866
  8
CENTER
 10
100.7017789407852
 20
83.766280345505109
 30
0.0
 40
60.5
  0
ARC
  5
86E
  8
0
 10
100.7017789407853
 20
83.766280345505066
 30
0.0
 40
71.0
 50
221.71371932236841
 51
318.2862806776314
  0
LINE
  5
86F
  8
0
 10
153.7017789407852
 20
131.01032758957601
 30
0.0
 11
153.7017789407852
 21
36.522233101434111
 31
0.0
  0
LINE
  5
870
  8
0
 10
47.701778940785239
 20
36.522233101434267
 30
0.0
 11
47.701778940785253
 21
131.01032758957581
 31
0.0
  0
CIRCLE
  5
871
  8
0
 10
116.36033116948769
 20
142.20479283599369
 30
0.0
 40
8.75
  0
CIRCLE
  5
872
  8
0
 10
116.36033116948769
 20
142.20479283599369
 30
0.0
 40
5.5
  0
LINE
  5
873
  8
CENTER
 10
112.4780454929499
 20
127.7159054416577
 30
0.0
 11
120.22289540364351
 21
156.62007880536149
 31
0.0
  0
LINE
  5
874
  8
CENTER
 10
121.20787559519511
 20
104.2723769999149
 30
0.0
 11
154.03446093778339
 21
137.0989623425032
 31
0.0
  0
CIRCLE
  5
875
  8
0
 10
143.4817392025713
 20
126.5462406072912
 30
0.0
 40
8.75
  0
CIRCLE
  5
876
  8
0
 10
143.4817392025713
 20
126.5462406072912
 30
0.0
 40
5.5
  0
CIRCLE
  5
877
  8
0
 10
85.043226712082756
 20
25.327767855016479
 30
0.0
 40
8.75
  0
CIRCLE
  5
878
  8
0
 10
85.043226712082756
 20
25.327767855016479
 30
0.0
 40
5.5
  0
LINE
  5
879
  8
CENTER
 10
88.925512388620604
 20
39.8166552493525
 30
0.0
 11
81.180662477927015
 21
10.912481885648869
 31
0.0
  0
LINE
  5
87A
  8
CENTER
 10
80.195682286375416
 20
63.260183691095278
 30
0.0
 11
47.369096943787241
 21
30.4335983485071
 31
0.0
  0
CIRCLE
  5
87B
  8
0
 10
57.921818678999152
 20
40.986320083718958
 30
0.0
 40
8.75
  0
CIRCLE
  5
87C
  8
0
 10
57.921818678999152
 20
40.986320083718958
 30
0.0
 40
5.5
  0
CIRCLE
  5
87D
  8
0
 10
116.36033116948769
 20
25.327767855016479
 30
0.0
 40
8.75
  0
CIRCLE
  5
87E
  8
0
 10
116.36033116948769
 20
25.327767855016479
 30
0.0
 40
5.5
  0
LINE
  5
87F
  8
CENTER
 10
112.4780454929499
 20
39.8166552493525
 30
0.0
 11
120.22289540364351
 21
10.912481885648869
 31
0.0
  0
LINE
  5
880
  8
CENTER
 10
121.20787559519511
 20
63.260183691095278
 30
0.0
 11
154.03446093778319
 21
30.43359834850709
 31
0.0
  0
CIRCLE
  5
881
  8
0
 10
143.4817392025713
 20
40.986320083718958
 30
0.0
 40
8.75
  0
CIRCLE
  5
882
  8
0
 10
143.4817392025713
 20
40.986320083718958
 30
0.0
 40
5.5
  0
LINE
  5
886
  8
HIDE
 10
273.94928330971032
 20
148.76625957144549
 30
0.0
 11
262.94928330971049
 21
148.76625957144549
 31
0.0
  0
LINE
  5
887
  8
HIDE
 10
273.94928330971032
 20
139.7662595714456
 30
0.0
 11
262.94928330971038
 21
139.7662595714456
 31
0.0
  0
LINE
  5
888
  8
HIDE
 10
262.94928330971049
 20
151.2662595714456
 30
0.0
 11
255.9492833097103
 21
151.2662595714456
 31
0.0
  0
LINE
  5
889
  8
HIDE
 10
262.94928330971038
 20
137.2662595714456
 30
0.0
 11
255.9492833097103
 21
137.2662595714456
 31
0.0
  0
LINE
  5
88A
  8
HIDE
 10
262.94928330971038
 20
137.2662595714456
 30
0.0
 11
262.94928330971049
 21
151.2662595714456
 31
0.0
  0
LINE
  5
88C
  8
0
 10
240.9492833097103
 20
83.766259571445616
 30
0.0
 11
240.94928330971041
 21
133.76628034550509
 31
0.0
  0
LINE
  5
88D
  8
0
 10
240.94928330971041
 20
133.76628034550509
 30
0.0
 11
241.94928330971041
 21
134.76628034550509
 31
0.0
  0
LINE
  5
88E
  8
HIDE
 10
240.94928330971041
 20
118.26628034550509
 30
0.0
 11
244.94928330971041
 21
118.266280345505
 31
0.0
  0
LINE
  5
88F
  8
HIDE
 10
244.94928330971041
 20
117.76628034550581
 30
0.0
 11
256.9492833097114
 21
117.76628034550581
 31
0.0
  0
LINE
  5
890
  8
HIDE
 10
256.9492833097114
 20
115.76628034550571
 30
0.0
 11
258.94928330971038
 21
115.76628034550571
 31
0.0
  0
LINE
  5
891
  8
HIDE
 10
244.94928330971109
 20
105.5162595714456
 30
0.0
 11
244.94928330971041
 21
118.266280345505
 31
0.0
  0
LINE
  5
893
  8
HIDE
 10
256.94928330971118
 20
105.5162595714463
 30
0.0
 11
256.9492833097114
 21
117.76628034550581
 31
0.0
  0
LINE
  5
894
  8
HIDE
 10
240.949283309713
 20
101.26628034550519
 30
0.0
 11
261.94928330971038
 21
101.26628034550519
 31
0.0
  0
LINE
  5
896
  8
0
 10
306.94928330971049
 20
83.766259571445644
 30
0.0
 11
306.94928330971038
 21
130.26625957144549
 31
0.0
  0
LINE
  5
899
  8
HIDE
 10
258.94928330971038
 20
105.5162595714456
 30
0.0
 11
240.9492833097103
 21
105.5162595714456
 31
0.0
  0
LINE
  5
89A
  8
0
 10
255.94928330971041
 20
134.76628034550509
 30
0.0
 11
255.94928330971041
 21
153.76628034550509
 31
0.0
  0
LINE
  5
8AA
  8
0
 10
305.94928330971038
 20
131.26625957144549
 30
0.0
 11
273.94928330971032
 21
131.2662595714456
 31
0.0
  0
LINE
  5
8AB
  8
0
 10
306.94928330971038
 20
130.26625957144549
 30
0.0
 11
305.94928330971038
 21
131.26625957144549
 31
0.0
  0
LINE
  5
8ED
  8
HIDE
 10
290.94928330970959
 20
105.5162595714463
 30
0.0
 11
290.94928330970941
 21
117.76628034550581
 31
0.0
  0
LINE
  5
8EE
  8
HIDE
 10
302.94928330970959
 20
105.5162595714456
 30
0.0
 11
302.94928330971038
 21
118.266280345505
 31
0.0
  0
LINE
  5
8EF
  8
HIDE
 10
306.94928330971038
 20
118.26628034550509
 30
0.0
 11
302.94928330971038
 21
118.266280345505
 31
0.0
  0
LINE
  5
8F0
  8
HIDE
 10
302.94928330971038
 20
117.76628034550581
 30
0.0
 11
290.94928330970941
 21
117.76628034550581
 31
0.0
  0
LINE
  5
8F1
  8
HIDE
 10
290.94928330970941
 20
115.76628034550571
 30
0.0
 11
288.94928330971038
 21
115.76628034550571
 31
0.0
  0
LINE
  5
8F2
  8
HIDE
 10
288.94928330971038
 20
105.5162595714456
 30
0.0
 11
306.94928330971038
 21
105.5162595714456
 31
0.0
  0
LINE
  5
8F3
  8
HIDE
 10
255.94928330971041
 20
134.76628034550509
 30
0.0
 11
255.94928330971041
 21
119.7662595714456
 31
0.0
  0
LINE
  5
8FA
  8
HIDE
 10
287.94928299554869
 20
47.766259571445687
 30
0.0
 11
255.94928330971041
 21
47.766259571445687
 31
0.0
  0
LINE
  5
8FB
  8
HIDE
 10
259.94928330971021
 20
66.266238797386052
 30
0.0
 11
272.94928330971021
 21
66.266238797386052
 31
0.0
  0
LINE
  5
8FC
  8
HIDE
 10
274.94810167388948
 20
66.266238797386052
 30
0.0
 11
287.95046494553787
 21
66.266238797386052
 31
0.0
  0
LINE
  5
8FF
  8
HIDE
 10
288.94928330971038
 20
48.766259571445659
 30
0.0
 11
288.94928330971038
 21
65.266238797386052
 31
0.0
  0
LINE
  5
900
  8
HIDE
 10
273.94928330971038
 20
48.766259571445659
 30
0.0
 11
273.94928330971038
 21
65.266239495517937
 31
0.0
  0
LINE
  5
901
  8
HIDE
 10
258.94928330971038
 20
47.766259571445687
 30
0.0
 11
258.94928330971038
 21
66.26623879738608
 31
0.0
  0
LINE
  5
902
  8
CENTER
  6
CENTER
 10
272.12174330971197
 20
60.291299184416083
 30
0.0
 11
260.77681330970898
 21
53.741299184413158
 31
0.0
  0
CIRCLE
  5
903
  8
HIDE
 10
266.44928330971038
 20
57.016249184415877
 30
0.0
 40
3.1749990000000001
  0
LINE
  5
904
  8
HIDE
 10
273.94928330971038
 20
53.516249184415877
 30
0.0
 11
267.85128330970861
 21
53.516249184415877
 31
0.0
  0
LINE
  5
90E
  8
HIDE
 10
273.44928330971038
 20
57.016249184415877
 30
0.0
 11
269.6242833097096
 21
57.016249184415877
 31
0.0
  0
LINE
  5
90F
  8
HIDE
 10
265.40976330971188
 20
60.016249184415891
 30
0.0
 11
259.44928330971038
 21
60.016249184415891
 31
0.0
  0
LINE
  5
910
  8
HIDE
 10
263.27429330971091
 20
57.016249184415877
 30
0.0
 11
259.44928330971038
 21
57.016249184415877
 31
0.0
  0
ARC
  5
911
  8
HIDE
 10
267.85128330970861
 20
54.016249184415877
 30
0.0
 40
0.5
 50
185.0037219999179
 51
269.99998199988352
  0
ARC
  5
912
  8
HIDE
 10
259.44928330971038
 20
60.516249184415877
 30
0.0
 40
0.5
 50
180.00003600002449
 51
269.99998199988352
  0
ARC
  5
913
  8
HIDE
 10
259.44928330971038
 20
56.516249184415877
 30
0.0
 40
0.5
 50
90.000019999897788
 51
180.00004000000399
  0
ARC
  5
914
  8
HIDE
 10
273.44928346679097
 20
57.516249184415848
 30
0.0
 40
0.5
 50
269.99998199988352
 51
359.99995999999589
  0
LINE
  5
916
  8
CENTER
  6
CENTER
 10
287.12168330970979
 20
53.741289184413418
 30
0.0
 11
275.7767633097103
 21
60.291279184412943
 31
0.0
  0
ARC
  5
917
  8
HIDE
 10
280.04727330970871
 20
54.016249184415877
 30
0.0
 40
0.5
 50
269.99998199988352
 51
354.99627999998268
  0
CIRCLE
  5
918
  8
HIDE
 10
281.44928330971038
 20
57.016249184415877
 30
0.0
 40
3.1749990000000001
  0
LINE
  5
919
  8
HIDE
 10
288.44928330971038
 20
60.016249184415891
 30
0.0
 11
282.48880330970883
 21
60.016249184415891
 31
0.0
  0
LINE
  5
91A
  8
HIDE
 10
288.44928330971038
 20
57.016249184415877
 30
0.0
 11
284.62426330971022
 21
57.016249184415877
 31
0.0
  0
ARC
  5
91B
  8
HIDE
 10
288.44928330971038
 20
60.516249184415877
 30
0.0
 40
0.5
 50
269.99998199988352
 51
359.99995999999589
  0
ARC
  5
91C
  8
HIDE
 10
288.44928330971038
 20
56.516249184415877
 30
0.0
 40
0.5
 50
359.99995999999589
 51
90.000000000000028
  0
LINE
  5
91D
  8
HIDE
 10
278.2742733097113
 20
57.016249184415877
 30
0.0
 11
274.44928330971038
 21
57.016249184415877
 31
0.0
  0
LINE
  5
91E
  8
HIDE
 10
280.04727330970871
 20
53.516249184415877
 30
0.0
 11
273.94928330971038
 21
53.516249184415877
 31
0.0
  0
ARC
  5
91F
  8
HIDE
 10
274.44928346679097
 20
57.516249184415848
 30
0.0
 40
0.5
 50
180.0
 51
269.99998199988352
  0
ARC
  5
922
  8
HIDE
 10
272.94928330971021
 20
65.266238797386166
 30
0.0
 40
1.0
 50
0.0000400000040257
 51
90.000019999897788
  0
ARC
  5
925
  8
HIDE
 10
272.94928330971021
 20
48.766259571445659
 30
0.0
 40
1.0
 50
269.99998199988352
 51
359.99995999999589
  0
ARC
  5
926
  8
HIDE
 10
259.94928330971021
 20
65.266238797386166
 30
0.0
 40
1.0
 50
90.000019999897788
 51
180.0
  0
ARC
  5
927
  8
HIDE
 10
259.94928330971021
 20
48.766259571445659
 30
0.0
 40
1.0
 50
180.00003600002449
 51
269.99998199988352
  0
ARC
  5
928
  8
HIDE
 10
287.94928330970998
 20
65.266239495517937
 30
0.0
 40
1.0
 50
359.99995999999589
 51
90.000000000000028
  0
ARC
  5
929
  8
HIDE
 10
274.94928330970998
 20
65.266239495517937
 30
0.0
 40
1.0
 50
90.000019999897788
 51
180.0
  0
ARC
  5
92A
  8
HIDE
 10
287.94928330970998
 20
48.76626026957755
 30
0.0
 40
1.0
 50
269.99998199988352
 51
359.99995999999589
  0
ARC
  5
92B
  8
HIDE
 10
274.94928330970998
 20
48.76626026957755
 30
0.0
 40
1.0
 50
180.0
 51
269.99998199988352
  0
LINE
  5
932
  8
0
 10
256.94928330971038
 20
12.76623879738619
 30
0.0
 11
272.94928330971032
 21
12.766238797386221
 31
0.0
  0
LINE
  5
933
  8
0
 10
255.94928330971041
 20
13.76623879738619
 30
0.0
 11
256.94928330971038
 21
12.76623879738619
 31
0.0
  0
LINE
  5
934
  8
0
 10
241.94928330971041
 20
32.766238797386201
 30
0.0
 11
255.9492833097103
 21
32.766238797386201
 31
0.0
  0
LINE
  5
935
  8
0
 10
240.94928330971041
 20
33.766238797386201
 30
0.0
 11
241.94928330971041
 21
32.766238797386201
 31
0.0
  0
LINE
  5
936
  8
0
 10
255.94928330971041
 20
32.766238797386173
 30
0.0
 11
255.94928330971041
 21
13.76623879738619
 31
0.0
  0
LINE
  5
937
  8
0
 10
240.9492833097103
 20
83.766259571445659
 30
0.0
 11
240.94928330971041
 21
33.766238797386201
 31
0.0
  0
LINE
  5
93A
  8
HIDE
 10
256.94928330971118
 20
62.016259571444969
 30
0.0
 11
256.9492833097114
 21
49.766238797385462
 31
0.0
  0
LINE
  5
93B
  8
HIDE
 10
244.94928330971109
 20
62.01625957144568
 30
0.0
 11
244.94928330971041
 21
49.266238797386237
 31
0.0
  0
LINE
  5
93C
  8
HIDE
 10
262.94928330971038
 20
30.266259571445719
 30
0.0
 11
262.94928330971049
 21
16.26625957144568
 31
0.0
  0
LINE
  5
93D
  8
0
 10
273.94928330971032
 20
36.266259571445659
 30
0.0
 11
273.94928330971032
 21
13.766238797386251
 31
0.0
  0
LINE
  5
93E
  8
0
 10
306.94928330971049
 20
83.766259571445644
 30
0.0
 11
306.94928330971038
 21
37.266259571445723
 31
0.0
  0
LINE
  5
93F
  8
0
 10
272.94928330971032
 20
12.766238797386221
 30
0.0
 11
273.94928330971032
 21
13.766238797386221
 31
0.0
  0
LINE
  5
940
  8
CENTER
 10
284.53113671266658
 20
23.266259571445691
 30
0.0
 11
243.725490209106
 21
23.266259571445691
 31
0.0
  0
LINE
  5
941
  8
HIDE
 10
262.94928330971038
 20
30.266259571445691
 30
0.0
 11
255.9492833097103
 21
30.266259571445719
 31
0.0
  0
LINE
  5
942
  8
HIDE
 10
262.94928330971049
 20
16.26625957144568
 30
0.0
 11
255.9492833097103
 21
16.26625957144568
 31
0.0
  0
LINE
  5
943
  8
HIDE
 10
273.94928330971032
 20
27.766259571445691
 30
0.0
 11
262.94928330971038
 21
27.766259571445691
 31
0.0
  0
LINE
  5
944
  8
HIDE
 10
273.94928330971032
 20
18.766259571445708
 30
0.0
 11
262.94928330971049
 21
18.766259571445708
 31
0.0
  0
LINE
  5
945
  8
HIDE
 10
240.94928330971041
 20
49.266238797386201
 30
0.0
 11
244.94928330971041
 21
49.266238797386222
 31
0.0
  0
LINE
  5
946
  8
HIDE
 10
244.94928330971041
 20
49.766238797385441
 30
0.0
 11
256.9492833097114
 21
49.766238797385441
 31
0.0
  0
LINE
  5
947
  8
HIDE
 10
256.9492833097114
 20
51.76623879738554
 30
0.0
 11
258.94928330971038
 21
51.766238797385562
 31
0.0
  0
LINE
  5
948
  8
HIDE
 10
240.9492833097076
 20
66.266238797386066
 30
0.0
 11
261.94928330971038
 21
66.266238797386052
 31
0.0
  0
LINE
  5
94A
  8
HIDE
 10
258.94928330971038
 20
62.016259571445673
 30
0.0
 11
240.9492833097103
 21
62.01625957144568
 31
0.0
  0
LINE
  5
94B
  8
0
 10
305.94928330971032
 20
36.266259571445708
 30
0.0
 11
273.94928330971032
 21
36.266259571445687
 31
0.0
  0
LINE
  5
94C
  8
0
 10
306.94928330971038
 20
37.266259571445723
 30
0.0
 11
305.94928330971038
 21
36.266259571445723
 31
0.0
  0
LINE
  5
94D
  8
HIDE
 10
290.94928330970959
 20
62.016259571444969
 30
0.0
 11
290.94928330970941
 21
49.766238797385462
 31
0.0
  0
LINE
  5
94E
  8
HIDE
 10
302.94928330970959
 20
62.01625957144568
 30
0.0
 11
302.94928330971038
 21
49.266238797386237
 31
0.0
  0
LINE
  5
94F
  8
HIDE
 10
306.94928330971038
 20
49.266238797386201
 30
0.0
 11
302.94928330971038
 21
49.266238797386222
 31
0.0
  0
LINE
  5
950
  8
HIDE
 10
302.94928330971038
 20
49.766238797385441
 30
0.0
 11
290.94928330970941
 21
49.766238797385441
 31
0.0
  0
LINE
  5
951
  8
HIDE
 10
290.94928330970941
 20
51.76623879738554
 30
0.0
 11
288.94928330971038
 21
51.766238797385562
 31
0.0
  0
LINE
  5
952
  8
HIDE
 10
288.94928330971038
 20
62.016259571445673
 30
0.0
 11
306.94928330971038
 21
62.01625957144568
 31
0.0
  0
LINE
  5
953
  8
HIDE
 10
255.94928330971041
 20
32.766238797386201
 30
0.0
 11
255.94928330971041
 21
47.766259571445687
 31
0.0
  0
ARC
  5
958
  8
0
 10
370.28791338936861
 20
83.766280345505109
 30
0.0
 40
32.0
 50
269.99999999999989
 51
90.000000000000099
  0
ARC
  5
959
  8
0
 10
370.28791338936861
 20
83.766280345505109
 30
0.0
 40
34.0
 50
269.99999999999989
 51
90.000000000000071
  0
ARC
  5
95A
  8
0
 10
370.28791338936861
 20
83.766280345505109
 30
0.0
 40
34.5
 50
269.99999999999989
 51
90.000000000000071
  0
ARC
  5
95B
  8
CENTER
 10
370.28791338936861
 20
83.766280345505109
 30
0.0
 40
40.0
 50
269.99999999999989
 51
90.000000000000071
  0
ARC
  5
95C
  8
0
 10
370.28791338936861
 20
83.766280345505109
 30
0.0
 40
47.5
 50
269.99999999999989
 51
90.000000000000057
  0
LINE
  5
961
  8
HIDE
 10
293.94928330971049
 20
46.266238797386158
 30
0.0
 11
293.94928330971049
 21
41.26623879738608
 31
0.0
  0
LINE
  5
962
  8
HIDE
 10
297.94928330971038
 20
46.266238797386109
 30
0.0
 11
297.94928330971038
 21
41.266238797386109
 31
0.0
  0
LINE
  5
963
  8
CENTER
 10
310.71151499833059
 20
43.76623879738608
 30
0.0
 11
289.67491902019748
 21
43.766238797386151
 31
0.0
  0
LINE
  5
964
  8
HIDE
 10
306.94928330971032
 20
46.766238797386109
 30
0.0
 11
298.81530871349469
 21
46.766238797386123
 31
0.0
  0
LINE
  5
965
  8
HIDE
 10
306.94928330971032
 20
46.266238797386109
 30
0.0
 11
293.94928330971032
 21
46.266238797386158
 31
0.0
  0
LINE
  5
966
  8
HIDE
 10
306.94928330971032
 20
40.766238797386109
 30
0.0
 11
298.81530871349469
 21
40.766238797386123
 31
0.0
  0
LINE
  5
967
  8
HIDE
 10
306.94928330971032
 20
41.26623879738608
 30
0.0
 11
293.94928330971032
 21
41.26623879738613
 31
0.0
  0
LINE
  5
968
  8
HIDE
 10
297.94928330971032
 20
41.26623879738613
 30
0.0
 11
298.81530871349491
 21
40.766238797386087
 31
0.0
  0
LINE
  5
969
  8
HIDE
 10
293.94928330971032
 20
41.266238797386109
 30
0.0
 11
292.50590763673631
 21
43.76623879738613
 31
0.0
  0
LINE
  5
96A
  8
HIDE
 10
293.94928330971032
 20
46.266238797386158
 30
0.0
 11
292.50590763673631
 21
43.76623879738613
 31
0.0
  0
LINE
  5
96B
  8
HIDE
 10
297.94928330971032
 20
46.26623879738613
 30
0.0
 11
298.81530871349491
 21
46.766238797386151
 31
0.0
  0
ARC
  5
970
  8
0
 10
370.28791338936861
 20
83.766280345505109
 30
0.0
 40
17.50000000000011
 50
269.99999999999977
 51
90.000000000000185
  0
ARC
  5
971
  8
0
 10
370.28791338936861
 20
83.766280345505109
 30
0.0
 40
21.749979225940478
 50
269.99999999999977
 51
90.000000000000142
  0
LINE
  5
984
  8
HIDE
 10
287.94928299554869
 20
119.7662595714455
 30
0.0
 11
255.94928330971041
 21
119.7662595714455
 31
0.0
  0
LINE
  5
A2C
  8
HIDE
 10
288.94928330971038
 20
105.5162595714456
 30
0.0
 11
288.94928330971038
 21
101.2662796473733
 31
0.0
  0
LINE
  5
A2D
  8
HIDE
 10
288.94928330971038
 20
101.2662796473733
 30
0.0
 11
306.94928330971038
 21
101.26627964737339
 31
0.0
  0
LINE
  5
A2E
  8
HIDE
 10
288.94928330971049
 20
62.016259571445602
 30
0.0
 11
288.94928330971038
 21
66.266239495517866
 31
0.0
  0
LINE
  5
A2F
  8
HIDE
 10
288.94928330971038
 20
66.266239495517866
 30
0.0
 11
306.94928330971049
 21
66.266239495517908
 31
0.0
  0
ARC
  5
B7D
  8
HIDE
 10
100.7017789407853
 20
83.766280345505109
 30
0.0
 40
17.5
 50
300.00000000001501
 51
210.0000000001501
  0
CIRCLE
  5
B7F
  8
0
 10
100.7017789407853
 20
83.766280345506928
 30
0.0
 40
26.5
  0
CIRCLE
  5
B81
  8
0
 10
100.7017789407853
 20
83.766280345506928
 30
0.0
 40
16.75
  0
INSERT
  5
B83
  8
0
  2
*U9
 10
41540.093944078857
 20
12599.948481165749
 30
0.0
 50
30.0
  0
INSERT
  5
B84
  8
0
  2
*U11
 10
41503.358736670438
 20
12662.22756198607
 30
0.0
 50
30.0
  0
LINE
  5
B85
  8
0
 10
220.94928330970669
 20
110.2662595714456
 30
0.0
 11
220.94928330970669
 21
57.266259571445673
 31
0.0
  0
LINE
  5
B86
  8
0
 10
240.94928330971391
 20
107.2662595714456
 30
0.0
 11
240.94928330970669
 21
60.266259571445673
 31
0.0
  0
LINE
  5
B87
  8
0
 10
238.94928330970669
 20
107.2662595714456
 30
0.0
 11
238.94928330970669
 21
60.266259571445673
 31
0.0
  0
LINE
  5
B88
  8
0
 10
238.94928330969941
 20
107.2662595714456
 30
0.0
 11
240.94928330970669
 21
107.2662595714456
 31
0.0
  0
LINE
  5
B89
  8
0
 10
220.94928330970669
 20
110.2662595714456
 30
0.0
 11
237.21723250213489
 21
110.2662595714456
 31
0.0
  0
LINE
  5
B8A
  8
0
 10
238.94928330970669
 20
107.2662595714456
 30
0.0
 11
237.21723250213489
 21
110.2662595714456
 31
0.0
  0
LINE
  5
B8B
  8
0
 10
238.94928330969941
 20
60.266259571445673
 30
0.0
 11
240.94928330970669
 21
60.266259571445673
 31
0.0
  0
LINE
  5
B8C
  8
0
 10
238.94928330970669
 20
60.266259571445673
 30
0.0
 11
237.21723250213489
 21
57.266259571445673
 31
0.0
  0
LINE
  5
B8D
  8
0
 10
220.94928330970669
 20
57.266259571445673
 30
0.0
 11
237.2172325021422
 21
57.266259571447492
 31
0.0
  0
LINE
  5
B8E
  8
HIDE
 10
221.18192167280739
 20
58.866259571447863
 30
0.0
 11
224.80667625432051
 21
58.866259571447863
 31
0.0
  0
LINE
  5
B8F
  8
HIDE
 10
221.18192167280739
 20
63.166259571448947
 30
0.0
 11
224.80667625432051
 21
63.166259571448947
 31
0.0
  0
LINE
  5
B90
  8
HIDE
 10
224.80528833234371
 20
63.168577376297591
 30
0.0
 11
226.09411520661911
 21
61.016259571447492
 31
0.0
  0
LINE
  5
B91
  8
HIDE
 10
224.80667625432051
 20
58.866259571447863
 30
0.0
 11
226.09411520661911
 21
61.016259571447492
 31
0.0
  0
LINE
  5
B92
  8
HIDE
 10
224.80667625432051
 20
58.866259571447863
 30
0.0
 11
224.80667625432051
 21
63.166259571448947
 31
0.0
  0
LINE
  5
B93
  8
HIDE
 10
220.94928330970669
 20
58.676422461835656
 30
0.0
 11
221.18192167280739
 21
58.866259571447863
 31
0.0
  0
LINE
  5
B94
  8
HIDE
 10
220.94928330970669
 20
63.356096681059327
 30
0.0
 11
221.18192167280739
 21
63.166259571448947
 31
0.0
  0
LINE
  5
B95
  8
HIDE
 10
221.18192167280739
 20
58.866259571447863
 30
0.0
 11
221.18192167280739
 21
63.166259571448947
 31
0.0
  0
POINT
  5
B96
  8
HIDE
 10
221.18192167280739
 20
58.866259571447863
 30
0.0
  0
POINT
  5
B97
  8
HIDE
 10
221.18192167280739
 20
63.166259571448947
 30
0.0
  0
LINE
  5
B98
  8
CENTER
 10
218.1769261093834
 20
61.016259571445673
 30
0.0
 11
227.8152802554215
 21
61.016259571445673
 31
0.0
  0
LINE
  5
B99
  8
CENTER
 10
229.94928330971399
 20
63.430302172305502
 30
0.0
 11
229.94928330971399
 21
56.052091370867103
 31
0.0
  0
LINE
  5
B9A
  8
HIDE
 10
227.44928330971399
 20
61.877564566449259
 30
0.0
 11
227.44928330971399
 21
57.602677170659419
 31
0.0
  0
LINE
  5
B9B
  8
HIDE
 10
232.44928330971391
 20
61.877564566449259
 30
0.0
 11
232.44928330971391
 21
57.602677170659419
 31
0.0
  0
LINE
  5
B9C
  8
HIDE
 10
232.44928330971391
 20
61.877564566449259
 30
0.0
 11
227.44928330971399
 21
61.877564566449259
 31
0.0
  0
LINE
  5
B9D
  8
HIDE
 10
227.44928330971399
 20
61.877564566449259
 30
0.0
 11
229.94928330971399
 21
63.008407869459162
 31
0.0
  0
LINE
  5
B9E
  8
HIDE
 10
232.44928330971391
 20
61.877564566449259
 30
0.0
 11
229.94928330971399
 21
63.008407869459162
 31
0.0
  0
LINE
  5
B9F
  8
HIDE
 10
227.17126812476289
 20
57.266259571445673
 30
0.0
 11
227.44928330971399
 21
57.602677170659419
 31
0.0
  0
LINE
  5
BA0
  8
HIDE
 10
232.72729849466501
 20
57.266259571445673
 30
0.0
 11
232.44928330971391
 21
57.602677170659419
 31
0.0
  0
LINE
  5
BA1
  8
HIDE
 10
227.44928330971399
 20
57.602677170659419
 30
0.0
 11
232.44928330971391
 21
57.602677170659419
 31
0.0
  0
POINT
  5
BA2
  8
HIDE
 10
232.44928330971391
 20
57.602677170659419
 30
0.0
  0
POINT
  5
BA3
  8
HIDE
 10
227.44928330971399
 20
57.602677170659419
 30
0.0
  0
LINE
  5
BA4
  8
HIDE
 10
221.13678330970669
 20
105.8745127469184
 30
0.0
 11
228.65649289092491
 21
110.21601909786401
 31
0.0
  0
LINE
  5
BA5
  8
HIDE
 10
227.44447383808819
 20
109.5162595714457
 30
0.0
 11
229.88197383808819
 21
105.2943857279962
 31
0.0
  0
LINE
  5
BA6
  8
HIDE
 10
222.2483214153801
 20
106.5162595714457
 30
0.0
 11
224.6858214153801
 21
102.2943857279962
 31
0.0
  0
LINE
  5
BA7
  8
HIDE
 10
227.0547624063876
 20
109.29125957145069
 30
0.0
 11
232.12101101854589
 21
100.5162595714347
 31
0.0
  0
LINE
  5
BA8
  8
HIDE
  6
CONTINUOUS
 10
222.63803284708791
 20
106.7412595714478
 30
0.0
 11
226.23203827281051
 21
100.5162595714347
 31
0.0
  0
LINE
  5
BA9
  8
HIDE
 10
225.1980809418057
 20
102.15712620157611
 30
0.0
 11
229.74471431167709
 21
104.78212620157601
 31
0.0
  0
LINE
  5
BAA
  8
HIDE
 10
229.74471431167709
 20
104.78212620157601
 30
0.0
 11
229.88197383808819
 21
105.2943857279962
 31
0.0
  0
LINE
  5
BAB
  8
HIDE
 10
225.1980809418057
 20
102.15712620157611
 30
0.0
 11
224.6858214153801
 21
102.2943857279962
 31
0.0
  0
LINE
  5
BAC
  8
HIDE
 10
224.6858214153801
 20
102.2943857279962
 30
0.0
 11
229.88197383808819
 21
105.2943857279962
 31
0.0
  0
ARC
  5
BAD
  8
HIDE
 10
228.84399289092491
 20
109.8912595714456
 30
0.0
 40
0.375
 50
90.0
 51
120.00000000001501
  0
ARC
  5
BAE
  8
HIDE
 10
221.32428330970669
 20
105.5497532204983
 30
0.0
 40
0.375
 50
120.00000000001501
 51
180.0
  0
INSERT
  5
BAF
  8
HIDE
  6
CONTINUOUS
  2
*X14
 10
0.0
 20
0.0
 30
0.0
1001
ACAD
1000
HATCH
1002
{
1070
    19
1000
ANSI37
1040
9.75
1040
0.5235987755982988
1000
R14_HATCH_DATA
1000
BAF
1011
1.0
1021
0.0
1031
0.0
1021
0.0
1031
0.0
1011
0.0
1021
0.0
1031
0.0
1021
1.0
1031
0.0
1011
0.0
1021
0.0
1031
0.0
1021
0.0
1031
1.0
1040
0.0
1010
0.0
1020
0.0
1030
1.0
1000
ANSI37
1070
     0
1070
     0
1071
        2
1071
        1
1071
        4
1070
     1
1040
226.23203827280321
1040
100.51625957143651
1040
229.17652464566731
1040
100.5162595714347
1070
     1
1040
229.17652464566731
1040
100.5162595714347
1040
227.47139762674141
1040
103.46962620157601
1070
     1
1040
227.47139762674141
1040
103.46962620157601
1040
225.26303284708791
1040
102.1946262015764
1070
     1
1040
225.26303284708791
1040
102.1946262015764
1040
226.23203827280321
1040
100.51625957143651
1071
        0
1071
        1
1071
        4
1070
     1
1040
229.17652464566731
1040
100.51625957143651
1040
232.12101101854589
1040
100.5162595714347
1070
     1
1040
232.12101101854589
1040
100.5162595714347
1040
229.6797624063949
1040
104.7446262015775
1070
     1
1040
229.6797624063949
1040
104.7446262015775
1040
227.47139762674141
1040
103.46962620157601
1070
     1
1040
227.47139762674141
1040
103.46962620157601
1040
229.17652464566731
1040
100.51625957143651
1071
        0
1070
     0
1070
     1
1040
0.5235987755982988
1040
9.75
1070
     0
1070
     2
1040
1.3089969389957461
1040
83.245799239728669
1040
-78.729745202887742
1040
-1.1772221007898021
1040
0.3154357112186975
1070
     0
1040
2.8797932657906431
1040
83.245799239728669
1040
-78.729745202887742
1040
-0.3154357112186975
1040
-1.1772221007898021
1070
     0
1071
        4
1040
226.7459136314321
1040
101.1549620840989
1040
0.0
1040
229.27277588822849
1040
102.17679647045151
1040
0.0
1040
228.37032440370621
1040
99.652266168684207
1040
0.0
1040
230.71669683856831
1040
99.471943569687184
1040
0.0
1002
}
  0
LINE
  5
BB0
  8
HIDE
 10
220.94928330970669
 20
101.26625957143661
 30
0.0
 11
240.94928330971391
 21
101.2662595714329
 31
0.0
  0
LINE
  5
BB1
  8
HIDE
 10
220.94928330971399
 20
100.5162595714384
 30
0.0
 11
240.94928330971391
 21
100.5162595714347
 31
0.0
  0
LINE
  5
BB2
  8
CENTER
  6
CENTER
 10
224.38326959334901
 20
108.8184208556824
 30
0.0
 11
230.6030404835366
 21
98.045461662438527
 31
0.0
  0
LINE
  5
BB4
  8
HIDE
 10
220.94928330970669
 20
66.266259571454768
 30
0.0
 11
240.94928330971391
 21
66.266259571458406
 31
0.0
  0
LINE
  5
BB5
  8
HIDE
 10
220.94928330971399
 20
67.016259571452949
 30
0.0
 11
240.94928330971391
 21
67.016259571456587
 31
0.0
  0
ARC
  5
BB6
  8
0
 10
100.7017789407853
 20
110.315809364497
 30
0.0
 40
4.7392728971135512
 50
185.72157537025271
 51
354.27842462974729
  0
ARC
  5
BB7
  8
0
 10
77.709212351817541
 20
70.491515836004581
 30
0.0
 40
4.7392728971135512
 50
305.72157537045621
 51
114.2784246297752
  0
ARC
  5
BB8
  8
0
 10
123.69434552975299
 20
70.491515836002762
 30
0.0
 40
4.7392728971135512
 50
65.721575370224741
 51
234.27842462954379
  0
INSERT
  5
BB9
  8
0
  2
*U15
 10
0.0
 20
0.0
 30
0.0
  0
ENDSEC
  0
EOF
